  0
SECTION
  2
HEADER
  9
$ACADVER
  1
AC1009
  9
$INSBASE
 10
3917.3257099596930857
 20
73.0762751443730707
 30
0.0
  9
$EXTMIN
 10
3891.3959266079182271
 20
69.7567855868720557
 30
0.0
  9
$EXTMAX
 10
3925.4210553191028339
 20
85.146133301947529
 30
0.0
  9
$LIMMIN
 10
0.0
 20
0.0
  9
$LIMMAX
 10
11.6929133858000007
 20
8.2677165353999982
  9
$ORTHOMODE
 70
     0
  9
$REGENMODE
 70
     1
  9
$FILLMODE
 70
     1
  9
$QTEXTMODE
 70
     0
  9
$MIRRTEXT
 70
     0
  9
$DRAGMODE
 70
     2
  9
$LTSCALE
 40
0.6431102362
  9
$OSMODE
 70
  4095
  9
$ATTMODE
 70
     1
  9
$TEXTSIZE
 40
0.2
  9
$TRACEWID
 40
0.05
  9
$TEXTSTYLE
  7
STANDARD
  9
$CLAYER
  8
0
  9
$CELTYPE
  6
BYLAYER
  9
$CECOLOR
 62
   256
  9
$DIMSCALE
 40
1.0
  9
$DIMASZ
 40
0.1875
  9
$DIMEXO
 40
0.0625
  9
$DIMDLI
 40
0.4443307087
  9
$DIMRND
 40
0.0
  9
$DIMDLE
 40
0.0
  9
$DIMEXE
 40
0.125
  9
$DIMTP
 40
0.01
  9
$DIMTM
 40
0.01
  9
$DIMTXT
 40
2.0
  9
$DIMCEN
 40
0.1052362205
  9
$DIMTSZ
 40
0.0
  9
$DIMTOL
 70
     1
  9
$DIMLIM
 70
     0
  9
$DIMTIH
 70
     1
  9
$DIMTOH
 70
     1
  9
$DIMSE1
 70
     0
  9
$DIMSE2
 70
     0
  9
$DIMTAD
 70
     0
  9
$DIMZIN
 70
     0
  9
$DIMBLK
  1

  9
$DIMASO
 70
     1
  9
$DIMSHO
 70
     1
  9
$DIMPOST
  1
\X
  9
$DIMAPOST
  1

  9
$DIMALT
 70
     1
  9
$DIMALTD
 70
     2
  9
$DIMALTF
 40
25.3999999999999986
  9
$DIMLFAC
 40
1.0
  9
$DIMTOFL
 70
     0
  9
$DIMTVP
 40
0.0
  9
$DIMTIX
 70
     0
  9
$DIMSOXD
 70
     0
  9
$DIMSAH
 70
     0
  9
$DIMBLK1
  1

  9
$DIMBLK2
  1

  9
$DIMSTYLE
  2
STANDARD
  9
$DIMCLRD
 70
     0
  9
$DIMCLRE
 70
     0
  9
$DIMCLRT
 70
     0
  9
$DIMTFAC
 40
1.0
  9
$DIMGAP
 40
0.09
  9
$LUNITS
 70
     2
  9
$LUPREC
 70
     4
  9
$SKETCHINC
 40
0.1
  9
$FILLETRAD
 40
0.0
  9
$AUNITS
 70
     0
  9
$AUPREC
 70
     0
  9
$MENU
  1
.
  9
$ELEVATION
 40
0.0
  9
$PELEVATION
 40
0.0
  9
$THICKNESS
 40
0.0
  9
$LIMCHECK
 70
     0
  9
$BLIPMODE
 70
     0
  9
$CHAMFERA
 40
0.0
  9
$CHAMFERB
 40
0.0
  9
$SKPOLY
 70
     0
  9
$TDCREATE
 40
2458060.468368056230247
  9
$TDUPDATE
 40
2459070.0894097220152617
  9
$TDINDWG
 40
0.4149144676
  9
$TDUSRTIMER
 40
0.4149144676
  9
$USRTIMER
 70
     1
  9
$ANGBASE
 50
0.0
  9
$ANGDIR
 70
     0
  9
$PDMODE
 70
     0
  9
$PDSIZE
 40
0.3125
  9
$PLINEWID
 40
0.0
  9
$COORDS
 70
     1
  9
$SPLFRAME
 70
     0
  9
$SPLINETYPE
 70
     6
  9
$SPLINESEGS
 70
     8
  9
$ATTDIA
 70
     1
  9
$ATTREQ
 70
     1
  9
$HANDLING
 70
     1
  9
$HANDSEED
  5
725F
  9
$SURFTAB1
 70
     6
  9
$SURFTAB2
 70
     6
  9
$SURFTYPE
 70
     6
  9
$SURFU
 70
     6
  9
$SURFV
 70
     6
  9
$UCSNAME
  2

  9
$UCSORG
 10
0.0
 20
0.0
 30
0.0
  9
$UCSXDIR
 10
1.0
 20
0.0
 30
0.0
  9
$UCSYDIR
 10
0.0
 20
1.0
 30
0.0
  9
$PUCSNAME
  2

  9
$PUCSORG
 10
0.0
 20
0.0
 30
0.0
  9
$PUCSXDIR
 10
1.0
 20
0.0
 30
0.0
  9
$PUCSYDIR
 10
0.0
 20
1.0
 30
0.0
  9
$USERI1
 70
     0
  9
$USERI2
 70
     0
  9
$USERI3
 70
     0
  9
$USERI4
 70
     0
  9
$USERI5
 70
     0
  9
$USERR1
 40
0.0
  9
$USERR2
 40
0.0
  9
$USERR3
 40
0.0
  9
$USERR4
 40
0.0
  9
$USERR5
 40
0.0
  9
$WORLDVIEW
 70
     1
  9
$SHADEDGE
 70
     3
  9
$SHADEDIF
 70
    70
  9
$TILEMODE
 70
     1
  9
$MAXACTVP
 70
    64
  9
$PLIMCHECK
 70
     0
  9
$PEXTMIN
 10
1.0000000000000000E+20
 20
1.0000000000000000E+20
 30
1.0000000000000000E+20
  9
$PEXTMAX
 10
-1.0000000000000000E+20
 20
-1.0000000000000000E+20
 30
-1.0000000000000000E+20
  9
$PLIMMIN
 10
0.0
 20
0.0
  9
$PLIMMAX
 10
12.0
 20
9.0
  9
$UNITMODE
 70
     0
  9
$VISRETAIN
 70
     1
  9
$PLINEGEN
 70
     0
  9
$PSLTSCALE
 70
     1
  0
ENDSEC
  0
SECTION
  2
TABLES
  0
TABLE
  2
VPORT
 70
     1
  0
VPORT
  2
*ACTIVE
 70
     0
 10
0.0
 20
0.0
 11
1.0
 21
1.0
 12
146.8687600549876038
 22
-44.4359694479984384
 13
0.0
 23
0.0
 14
1.0
 24
1.0
 15
0.0
 25
0.0
 16
0.0
 26
0.0
 36
5.1040778033513332
 17
3792.35791015625
 27
120.1806564331053977
 37
0.0
 40
52.9061482814852297
 41
2.005224660397074
 42
50.0
 43
0.0
 44
0.0
 50
0.0
 51
0.0
 71
     0
 72
   100
 73
     1
 74
     1
 75
     0
 76
     0
 77
     0
 78
     0
  0
ENDTAB
  0
TABLE
  2
LTYPE
 70
     2
  0
LTYPE
  2
CONTINUOUS
 70
     0
  3
Solid line
 72
    65
 73
     0
 40
0.0
  0
LTYPE
  2
PHANTOM2
 70
     0
  3
___ _ _ ___ _ _ ___ _ _ ___ _ _
 72
    65
 73
     6
 40
1.25
 49
0.625
 49
-0.125
 49
0.125
 49
-0.125
 49
0.125
 49
-0.125
  0
ENDTAB
  0
TABLE
  2
LAYER
 70
     2
  0
LAYER
  2
0
 70
     0
 62
   255
  6
CONTINUOUS
  0
LAYER
  2
DEFPOINTS
 70
     0
 62
     7
  6
CONTINUOUS
  0
ENDTAB
  0
TABLE
  2
STYLE
 70
     1
  0
STYLE
  2
STANDARD
 70
     0
 40
0.0
 41
0.8
 50
0.0
 71
     0
 42
0.2
  3
txt
  4

  0
ENDTAB
  0
TABLE
  2
VIEW
 70
     0
  0
ENDTAB
  0
TABLE
  2
UCS
 70
     0
  0
ENDTAB
  0
TABLE
  2
APPID
 70
     9
  0
APPID
  2
ACAD
 70
     0
  0
APPID
  2
ACAD_MLEADERVER
 70
     0
  0
APPID
  2
ACAD_EXEMPT_FROM_CAD_STANDARDS
 70
     0
  0
APPID
  2
ACAD_NAV_VCDISPLAY
 70
     0
  0
APPID
  2
ACAECLAYERSTANDARD
 70
     0
  0
APPID
  2
ACCMTRANSPARENCY
 70
     0
  0
APPID
  2
ACAD_DSTYLE_DIMJAG
 70
     0
  0
APPID
  2
ACAD_DSTYLE_DIMTALN
 70
     0
  0
APPID
  2
ACDBATTR
 70
     0
  0
ENDTAB
  0
TABLE
  2
DIMSTYLE
 70
     1
  0
DIMSTYLE
  2
STANDARD
 70
     0
  3

  4

  5

  6

  7

 40
1.0
 41
0.1875
 42
0.0625
 43
0.38
 44
0.125
 45
0.0
 46
0.0
 47
0.01
 48
0.01
140
0.15625
141
0.09
142
0.0
143
25.3999999999999986
144
1.0
145
0.0
146
1.0
147
0.09
 71
     1
 72
     0
 73
     1
 74
     1
 75
     0
 76
     0
 77
     0
 78
     4
170
     0
171
     2
172
     0
173
     0
174
     0
175
     0
176
     0
177
     0
178
     0
  0
ENDTAB
  0
ENDSEC
  0
SECTION
  2
BLOCKS
  0
BLOCK
  8
0
  2
$MODEL_SPACE
 70
     0
 10
0.0
 20
0.0
 30
0.0
  3
$MODEL_SPACE
  1

  0
ENDBLK
  5
21
  8
0
  0
BLOCK
 67
     1
  8
0
  2
$PAPER_SPACE
 70
     0
 10
0.0
 20
0.0
 30
0.0
  3
$PAPER_SPACE
  1

  0
ENDBLK
  5
1D
 67
     1
  8
0
  0
BLOCK
  8
0
  2
_FILLED
 70
     0
 10
0.0
 20
0.0
 30
0.0
  3
_FILLED
  1

  0
SOLID
  5
69B4
  8
0
  6
BYBLOCK
 62
     0
 10
0.0
 20
0.0
 30
0.0
 11
-1.0
 21
0.1666666667
 31
0.0
 12
-1.0
 22
-0.1666666667
 32
0.0
 13
-1.0
 23
-0.1666666667
 33
0.0
  0
ENDBLK
  5
69B5
  8
0
  6
BYBLOCK
 62
     0
  0
BLOCK
  8
0
  2
A$CDFAF6206
 70
     0
 10
0.0
 20
0.0
 30
0.0
  3
A$CDFAF6206
  1

  0
LINE
  5
6A0E
  8
0
 10
7.4646650085734834
 20
10.9287685970688493
 30
0.0
 11
7.4646650085734896
 21
10.8905784766688498
 31
0.0
  0
ARC
  5
6A0F
  8
0
 10
7.7269027075262349
 20
10.8926811525838598
 30
0.0
 40
0.2622461286616791
 50
180.4593995232625048
 51
217.0214027758331099
  0
LINE
  5
6A10
  8
0
 10
9.767814609867095
 20
10.9287685970688493
 30
0.0
 11
9.767814609867095
 21
10.8905433757650094
 31
0.0
  0
ARC
  5
6A11
  8
0
 10
9.5068669568548287
 20
10.8922438613003703
 30
0.0
 40
0.2609531936261092
 50
322.8847083717149076
 51
359.6266329125650145
  0
LINE
  5
6A12
  8
0
 10
7.517522606271406
 20
10.7347792678688396
 30
0.0
 11
9.7149570120691777
 21
10.7347792678688396
 31
0.0
  0
LINE
  5
6A13
  8
0
 10
7.4646650085734834
 20
10.9287685970688493
 30
0.0
 11
9.7678146123202936
 21
10.9287685970688493
 31
0.0
  0
ARC
  5
6A14
  8
0
 10
4.0826771419203629
 20
8.527951346868889
 30
0.0
 40
4.0826771653999172
 50
13.3117747050523896
 51
32.7200330051415591
  0
ARC
  5
6A15
  8
0
 10
4.0826771460567306
 20
8.5279513475907933
 30
0.0
 40
4.0826771612084691
 50
359.6656501984817851
 51
13.3117747085593798
  0
ARC
  5
6A16
  8
0
 10
13.1498041284835097
 20
8.5279508235212234
 30
0.0
 40
4.0826788382043553
 50
147.2799733478981068
 51
166.6882233021349862
  0
ARC
  5
6A17
  8
0
 10
13.1498064934207992
 20
8.5279506557033251
 30
0.0
 40
4.0826811782395342
 50
166.688228652086309
 51
180.3343397625230011
  0
LINE
  5
6A18
  8
0
 10
8.1652847935202928
 20
8.504127000268852
 30
0.0
 11
9.0671948248202892
 21
8.5041270002687881
 31
0.0
  0
LINE
  5
6A19
  8
0
 10
8.1652847935202786
 20
8.5041270002667204
 30
0.0
 11
8.1652847935202928
 21
8.3607006934688481
 31
0.0
  0
ARC
  5
6A1A
  8
0
 10
5.6196779630382627
 20
8.3631022096452732
 30
0.0
 40
2.545607963272567
 50
342.0511668832173768
 51
359.945947387132378
  0
LINE
  5
6A1B
  8
0
 10
9.0671948248202892
 20
8.5041270002687881
 30
0.0
 11
9.0671948248202892
 21
8.2885990108688503
 31
0.0
  0
ARC
  5
6A1C
  8
0
 10
9.4521885297801163
 20
7.9614488056228501
 30
0.0
 40
0.5052201595850959
 50
139.6436242991769916
 51
174.6757930071850069
  0
ARC
  5
6A1D
  8
0
 10
9.9238413395551746
 20
8.1492417579399508
 30
0.0
 40
0.9848265662939324
 50
188.2263441834095943
 51
209.5593615864376034
  0
ARC
  5
6A1E
  8
0
 10
8.0788764238271256
 20
7.5665710856463297
 30
0.0
 40
0.0393715937169877
 50
162.1669117288323037
 51
227.2023190037006088
  0
ARC
  5
6A1F
  8
0
 10
8.7223682141740682
 20
8.2079667397440517
 30
0.0
 40
0.947895137885075
 50
225.0018610752970858
 51
261.4598823366255829
  0
ARC
  5
6A20
  8
0
 10
8.6645157662702701
 20
8.1695128573935332
 30
0.0
 40
0.9027466462812931
 50
264.7303071214498118
 51
281.8608311947915013
  0
ARC
  5
6A21
  8
0
 10
8.6645157662698935
 20
8.1695128573999671
 30
0.0
 40
0.9027466462876658
 50
299.1741886792128753
 51
299.1743179154552195
  0
ARC
  5
6A22
  8
0
 10
9.0843330931590316
 20
7.4150554710086141
 30
0.0
 40
0.0393703053609601
 50
251.9700352025496954
 51
252.4698971938937859
  0
ARC
  5
6A23
  8
0
 10
9.0843330931590316
 20
7.4150554710086141
 30
0.0
 40
0.0393703053609601
 50
297.2453716727138726
 51
6.8376113572703074
  0
LINE
  5
6A24
  8
0
 10
9.0671948248202892
 20
7.663402160468852
 30
0.0
 11
9.1234233799329516
 21
7.419742732911689
 31
0.0
  0
ARC
  5
6A25
  8
0
 10
8.8843741880892395
 20
9.8961379890094676
 30
0.0
 40
2.5255097382132701
 50
263.792800240752797
 51
274.9514951129821156
  0
ARC
  5
6A26
  8
0
 10
8.8258167405968848
 20
9.2763025889666508
 30
0.0
 40
1.9029970832759311
 50
246.0108363320686067
 51
263.5276935074397215
  0
ARC
  5
6A27
  8
0
 10
8.607491361665744
 20
8.3225444804829642
 30
0.0
 40
1.064510137163637
 50
283.1717405874071005
 51
297.7022170607311864
  0
LINE
  5
6A28
  8
0
 10
9.0671948248202892
 20
8.2885990108688503
 30
0.0
 11
26.2014378595979593
 21
8.2885990108689942
 31
0.0
  0
LINE
  5
6A29
  8
0
 10
26.2014378595979913
 20
7.6634021604689053
 30
0.0
 11
9.0671948248202892
 21
7.6634021604688618
 31
0.0
  0
LINE
  5
6A2A
  8
0
 10
27.8039676758446994
 20
10.9287685970690802
 30
0.0
 11
27.8039676758446888
 21
10.8905784766690807
 31
0.0
  0
ARC
  5
6A2B
  8
0
 10
27.5417299768919399
 20
10.8926811525840801
 30
0.0
 40
0.2622461286616791
 50
322.9785972241680838
 51
359.5406004767386889
  0
LINE
  5
6A2C
  8
0
 10
25.5008180745510913
 20
10.9287685970690305
 30
0.0
 11
25.5008180745510913
 21
10.8905433757651799
 31
0.0
  0
ARC
  5
6A2D
  8
0
 10
25.7617657275633505
 20
10.8922438613005497
 30
0.0
 40
0.2609531936261092
 50
180.3733670874362929
 51
217.1152916282862861
  0
LINE
  5
6A2E
  8
0
 10
27.7511100781467803
 20
10.7347792678690706
 30
0.0
 11
25.5536756723490015
 21
10.7347792678690208
 31
0.0
  0
LINE
  5
6A2F
  8
0
 10
27.8039676758446888
 20
10.9287685970686006
 30
0.0
 11
25.5008180745510806
 21
10.9287685970686006
 31
0.0
  0
ARC
  5
6A30
  8
0
 10
31.1859555424978616
 20
8.5279513468691981
 30
0.0
 40
4.0826771653999172
 50
147.2799669948597057
 51
166.6882252949490066
  0
ARC
  5
6A31
  8
0
 10
31.185955538361501
 20
8.5279513475911024
 30
0.0
 40
4.0826771612084691
 50
166.6882252914419098
 51
180.3343498015194086
  0
ARC
  5
6A32
  8
0
 10
22.1188285559344706
 20
8.5279508235212251
 30
0.0
 40
4.0826788382046102
 50
13.3117766978667795
 51
32.7200266521023977
  0
ARC
  5
6A33
  8
0
 10
22.1188261909974315
 20
8.5279506557034264
 30
0.0
 40
4.0826811782395342
 50
359.665660237478221
 51
13.31177134791497
  0
LINE
  5
6A34
  8
0
 10
27.1033478908979397
 20
8.5041270002690652
 30
0.0
 11
26.2014378595979416
 21
8.5041270002689835
 31
0.0
  0
LINE
  5
6A35
  8
0
 10
27.1033478908979504
 20
8.5041270002669354
 30
0.0
 11
27.1033478908979397
 21
8.3607006934690649
 31
0.0
  0
ARC
  5
6A36
  8
0
 10
29.6489547213799689
 20
8.3631022096455467
 30
0.0
 40
2.545607963272567
 50
180.0540526128687873
 51
197.9488331167837032
  0
LINE
  5
6A37
  8
0
 10
26.2014378595979416
 20
8.5041270002689835
 30
0.0
 11
26.2014378595979487
 21
8.2885990108690457
 31
0.0
  0
ARC
  5
6A38
  8
0
 10
25.8164441546381305
 20
7.9614488056230366
 30
0.0
 40
0.5052201595850959
 50
5.324206992816312
 51
40.3563757008241879
  0
ARC
  5
6A39
  8
0
 10
25.3447913448601803
 20
8.149241757940846
 30
0.0
 40
0.9848265662968968
 50
330.4406384136033807
 51
351.7736558165743759
  0
ARC
  5
6A3A
  8
0
 10
27.1897562605911212
 20
7.5665710856465473
 30
0.0
 40
0.0393715937169877
 50
312.7976809963004143
 51
17.8330882711689185
  0
ARC
  5
6A3B
  8
0
 10
26.5462644702441715
 20
8.2079667397442542
 30
0.0
 40
0.947895137885075
 50
278.5401176633754972
 51
314.9981389247041079
  0
ARC
  5
6A3C
  8
0
 10
26.6041169181479695
 20
8.1695128573937392
 30
0.0
 40
0.9027466462812931
 50
258.139168805210204
 51
275.2696928785518935
  0
ARC
  5
6A3D
  8
0
 10
26.6041169181483497
 20
8.1695128574001732
 30
0.0
 40
0.9027466462876658
 50
240.8256820845460027
 51
240.8258113207880058
  0
ARC
  5
6A3E
  8
0
 10
26.1842995912592293
 20
7.4150554710088086
 30
0.0
 40
0.0393703053609601
 50
287.5301028061073794
 51
288.0299647974517825
  0
ARC
  5
6A3F
  8
0
 10
26.1842995912592293
 20
7.4150554710088086
 30
0.0
 40
0.0393703053609601
 50
173.1623886427310026
 51
242.7546283272870085
  0
LINE
  5
6A40
  8
0
 10
26.2014378595981192
 20
7.6634021604690448
 30
0.0
 11
26.1452093044853093
 21
7.4197427329118826
 31
0.0
  0
ARC
  5
6A41
  8
0
 10
26.384258496328961
 20
9.8961379890096666
 30
0.0
 40
2.5255097382132701
 50
265.0485048870193054
 51
276.2071997592482262
  0
ARC
  5
6A42
  8
0
 10
26.4428159438213299
 20
9.2763025889668516
 30
0.0
 40
1.9029970832759311
 50
276.4723064925619838
 51
293.9891636679327007
  0
ARC
  5
6A43
  8
0
 10
26.6611413227524885
 20
8.3225444804831703
 30
0.0
 40
1.064510137163637
 50
242.2977829392704052
 51
256.8282594125943774
  0
LINE
  5
6A44
  8
0
 62
     4
 10
17.9031473532159602
 20
10.9287685970686006
 30
0.0
 11
24.6329820359843588
 21
20.0952817181593808
 31
0.0
  0
LINE
  5
6A45
  8
0
 62
     4
 10
17.9031473532159602
 20
-0.0000000300842942
 30
0.0
 11
22.3963351323106608
 21
4.993614497796286
 31
0.0
  0
ENDBLK
  5
6A49
  8
0
  0
ENDSEC
  0
SECTION
  2
ENTITIES
  0
ATTDEF
  5
3930
  8
DEFPOINTS
 10
3917.3258725093392059
 20
73.0780287330597247
 30
0.0
 40
0.001
  1
K-76690T-9
  3

  2
MODELNUMBER
 70
     0
1001
ACDBATTR
1070
     0
1070
     1
  0
ATTDEF
  5
3931
  8
DEFPOINTS
 10
3917.3258725093392059
 20
73.0763620663930737
 30
0.0
 40
0.001
  1
MODULO
  3

  2
TRADENAME
 70
     0
1001
ACDBATTR
1070
     0
1070
     1
  0
ATTDEF
  5
3932
  8
DEFPOINTS
 10
3917.3258725093392059
 20
73.0746953997264086
 30
0.0
 40
0.001
  1
VALVE TRIM
  3

  2
PRODUCT
 70
     0
1001
ACDBATTR
1070
     0
1070
     1
  0
LINE
  5
7193
  8
0
 10
3913.7824028730778991
 20
73.0762751443730565
 30
0.0
 11
3913.8309251735131511
 21
72.5216627135218062
 31
0.0
  0
LINE
  5
7194
  8
0
 10
3913.8701454371780528
 20
72.4857239631730579
 30
0.0
 11
3920.7812744822781497
 21
72.4857239631730579
 31
0.0
  0
ARC
  5
7195
  8
0
 10
3916.4792532667779597
 20
71.7376924671730762
 30
0.0
 40
0.0196850394000015
 50
180.0
 51
270.0
  0
ARC
  5
7196
  8
0
 10
3916.4785265663531391
 20
71.6509710157844211
 30
0.0
 40
0.0197923680779215
 50
90.1295442208866859
 51
179.689355904661312
  0
ARC
  5
7197
  8
0
 10
3916.677057882724057
 20
71.6471420816388616
 30
0.0
 40
0.0196842462462488
 50
90.0327317296096368
 51
180.0005168598300997
  0
ARC
  5
7198
  8
0
 10
3917.1829942189328904
 20
71.545396007259825
 30
0.0
 40
0.1017484619947308
 50
64.6820501659049114
 51
89.5481168905674849
  0
ARC
  5
7199
  8
0
 10
3917.1304577352420893
 20
71.4892690918267988
 30
0.0
 40
0.1765207281751069
 50
41.7477118941604175
 51
57.0355112153282633
  0
ARC
  5
719A
  8
0
 10
3917.2842727171027946
 20
71.6025637957281731
 30
0.0
 40
0.022518841315801
 50
100.4762996889014062
 51
169.1421202734690894
  0
ARC
  5
719B
  8
0
 10
3911.270798123116947
 20
70.9186175452734631
 30
0.0
 40
5.9906924058767359
 50
356.0182351698239813
 51
0.5583900035755299
  0
ARC
  5
719C
  8
0
 10
3916.8051751887628598
 20
70.5197212716356887
 30
0.0
 40
0.4421854402500695
 50
332.5725170748272035
 51
357.7848575264081887
  0
ARC
  5
719D
  8
0
 10
3916.5298788909149152
 20
71.1322514324881752
 30
0.0
 40
1.071349722569134
 50
294.3745113508123268
 51
303.8185928348596008
  0
ARC
  5
719E
  8
0
 10
3916.9766209103067922
 20
70.4584504006622012
 30
0.0
 40
0.2629404356424178
 50
304.6595632680256927
 51
327.2067230852157991
  0
ARC
  5
719F
  8
0
 10
3916.6844108455470632
 20
69.959927424850747
 30
0.0
 40
0.0272922420881546
 50
172.7371063191961014
 51
256.5324214988659719
  0
ARC
  5
71A0
  8
0
 10
3916.7454172678208124
 20
70.4585865969218332
 30
0.0
 40
0.5295032974109941
 50
262.6911065523618731
 51
271.5772241336944148
  0
ARC
  5
71A1
  8
0
 10
3916.5214735535241743
 20
69.9518808771137088
 30
0.0
 40
0.1942653460208723
 50
259.010377463077873
 51
268.6066274324761025
  0
ARC
  5
71A2
  8
0
 10
3916.5633790377610239
 20
70.9980189208131236
 30
0.0
 40
1.241222125452855
 50
267.8470464921338134
 51
270.031308739551605
  0
ARC
  5
71A3
  8
0
 10
3916.4913838323550408
 20
69.7984008298308822
 30
0.0
 40
0.0378648522521663
 50
227.7253340602914022
 51
259.4338288155939836
  0
ARC
  5
71A4
  8
0
 10
3916.482874951397207
 20
69.7875624831859795
 30
0.0
 40
0.0241419555522444
 50
179.3627174783312057
 51
225.3636409239904026
  0
ARC
  5
71A5
  8
0
 10
3916.4658122812838883
 20
69.7871590366034695
 30
0.0
 40
0.0071096186300327
 50
151.2155238176464138
 51
174.5766052099284877
  0
ARC
  5
71A6
  8
0
 10
3916.4765070685248247
 20
69.7812937587531792
 30
0.0
 40
0.0193071563914355
 50
135.6866444919126025
 51
151.2427249684992887
  0
ARC
  5
71A7
  8
0
 10
3916.5479071298627787
 20
69.7070545377301585
 30
0.0
 40
0.1223011930117374
 50
122.299973945599902
 51
134.1678484835784104
  0
ARC
  5
71A8
  8
0
 10
3892.3634761558018909
 20
108.3769816470138068
 30
0.0
 40
45.4874575839886788
 50
302.0213892021653237
 51
302.3122928087030914
  0
ARC
  5
71A9
  8
0
 10
3918.7109438038569351
 20
67.0499270356857267
 30
0.0
 40
3.5600531393843391
 50
119.2389715138273942
 51
125.2318628862648069
  0
ARC
  5
71AA
  8
0
 10
3913.8701454373899651
 20
72.5250940421389885
 30
0.0
 40
0.0393700789659268
 50
185.0000002182794105
 51
269.9999996906738033
  0
LINE
  5
71AB
  8
0
 10
3916.4595682273779857
 20
72.4857239631730579
 30
0.0
 11
3916.4595682273779857
 21
71.7376924671730762
 31
0.0
  0
LINE
  5
71AC
  8
0
 10
3916.5481509045780513
 20
71.7180074277730739
 30
0.0
 11
3916.5481509045780513
 21
71.6707633332730722
 31
0.0
  0
LINE
  5
71AD
  8
0
 10
3916.4784818163789168
 20
71.6707633332730722
 30
0.0
 11
3916.7450012982772023
 21
71.6707633332730722
 31
0.0
  0
LINE
  5
71AE
  8
0
 10
3916.7450012982772023
 20
71.7180074277730739
 30
0.0
 11
3916.7450012982772023
 21
71.6668263246730533
 31
0.0
  0
LINE
  5
71AF
  8
0
 10
3916.6573736364780416
 20
71.6471419040691444
 30
0.0
 11
3917.183796685276775
 21
71.6471413047730721
 31
0.0
  0
LINE
  5
71B0
  8
0
 10
3916.4587344891779139
 20
71.6510783247730672
 30
0.0
 11
3916.4587344891779139
 21
69.7878310008537142
 31
0.0
  0
LINE
  5
71B1
  8
0
 10
3917.2621570202768453
 20
71.606805749073061
 30
0.0
 11
3917.2612060346768885
 21
70.9770003760730788
 31
0.0
  0
LINE
  5
71B2
  8
0
 10
3920.8690170462768947
 20
73.0762751443730565
 30
0.0
 11
3920.8204947458420975
 21
72.5216627135218062
 31
0.0
  0
ARC
  5
71B3
  8
0
 10
3918.1721666476978498
 20
71.7376924691945419
 30
0.0
 40
0.0196850442802794
 50
269.969121121837702
 51
359.9999941162404866
  0
ARC
  5
71B4
  8
0
 10
3918.1728933530021095
 20
71.6509710157844211
 30
0.0
 40
0.0197923680779215
 50
0.3106440953382635
 51
89.8704557791133283
  0
ARC
  5
71B5
  8
0
 10
3917.9743364495088827
 20
71.6470803840349788
 30
0.0
 40
0.0197459749898355
 50
0.1764351111160046
 51
89.8931258252832492
  0
ARC
  5
71B6
  8
0
 10
3917.4684257004219035
 20
71.545396007259825
 30
0.0
 40
0.1017484619947308
 50
90.4518831094325151
 51
115.3179498340951028
  0
ARC
  5
71B7
  8
0
 10
3917.5209621841131593
 20
71.489269091826813
 30
0.0
 40
0.176520728175087
 50
122.964488784648097
 51
138.2522881058376925
  0
ARC
  5
71B8
  8
0
 10
3917.3671472022538183
 20
71.6025637957281731
 30
0.0
 40
0.0225188413157935
 50
10.8578797265360603
 51
79.5237003111250544
  0
ARC
  5
71B9
  8
0
 10
3923.3806217962378469
 20
70.9186175452734631
 30
0.0
 40
5.9906924058767359
 50
179.4416099964244893
 51
183.9817648301759903
  0
ARC
  5
71BA
  8
0
 10
3917.8462447305919341
 20
70.5197212716356887
 30
0.0
 40
0.4421854402500695
 50
182.2151424735912997
 51
207.4274829251727965
  0
ARC
  5
71BB
  8
0
 10
3918.1215410284398786
 20
71.1322514324877346
 30
0.0
 40
1.0713497225686379
 50
236.1814071651398024
 51
245.6254886491879859
  0
ARC
  5
71BC
  8
0
 10
3917.6747990090489111
 20
70.4584504006622012
 30
0.0
 40
0.2629404356424178
 50
212.7932769147842009
 51
235.3404367319743073
  0
ARC
  5
71BD
  8
0
 10
3917.9670090738090948
 20
69.959927424850747
 30
0.0
 40
0.0272922420881546
 50
283.4675785011339144
 51
7.2628936808039093
  0
ARC
  5
71BE
  8
0
 10
3917.9098720575011612
 20
70.4169112339132823
 30
0.0
 40
0.4876764958238926
 50
268.7753345080943177
 51
277.4808849783353253
  0
ARC
  5
71BF
  8
0
 10
3918.1299463658310742
 20
69.9518808771137088
 30
0.0
 40
0.1942653460208723
 50
271.3933725675238975
 51
280.989622536922127
  0
ARC
  5
71C0
  8
0
 10
3918.0871370408699477
 20
71.0302948013401476
 30
0.0
 40
1.2735092148545031
 50
270.0014114365599198
 51
272.1390373022970266
  0
ARC
  5
71C1
  8
0
 10
3918.1600360870011173
 20
69.7984008298308822
 30
0.0
 40
0.0378648522521663
 50
280.5661711844059027
 51
312.2746659397085978
  0
ARC
  5
71C2
  8
0
 10
3918.1685449679580415
 20
69.7875624831859795
 30
0.0
 40
0.0241419555522444
 50
314.6363590760096258
 51
0.637282521668428
  0
ARC
  5
71C3
  8
0
 10
3918.1856076380709055
 20
69.7871590366034695
 30
0.0
 40
0.0071096186300327
 50
5.4233947900714252
 51
28.7844761823535897
  0
ARC
  5
71C4
  8
0
 10
3918.1749128508299691
 20
69.7812937587531792
 30
0.0
 40
0.0193071563914355
 50
28.75727503150069
 51
44.3133555080873691
  0
ARC
  5
71C5
  8
0
 10
3918.1035127894920151
 20
69.7070545377301585
 30
0.0
 40
0.1223011930117374
 50
45.8321515164215967
 51
57.700026054400098
  0
ARC
  5
71C6
  8
0
 10
3942.2879437635538125
 20
108.3769816470138068
 30
0.0
 40
45.4874575839886788
 50
237.6877071912971076
 51
237.9786107978345058
  0
ARC
  5
71C7
  8
0
 10
3915.9404761154992229
 20
67.0499270356857267
 30
0.0
 40
3.5600531393843391
 50
54.7681371137351576
 51
60.7610284861725205
  0
ARC
  5
71C8
  8
0
 10
3920.7812744819648287
 20
72.5250940421389885
 30
0.0
 40
0.0393700789659268
 50
270.0000003093261967
 51
354.9999997817205895
  0
LINE
  5
71C9
  8
0
 10
3918.1918516919768081
 20
72.4857239631730579
 30
0.0
 11
3918.1918516919768081
 21
71.7376924671730762
 31
0.0
  0
LINE
  5
71CA
  8
0
 10
3918.1032690147781068
 20
71.7180074277730739
 30
0.0
 11
3918.1032690147781068
 21
71.6707633332730722
 31
0.0
  0
LINE
  5
71CB
  8
0
 10
3918.1729381029767865
 20
71.6707633332730722
 30
0.0
 11
3917.9064186210780463
 21
71.6707633332730722
 31
0.0
  0
LINE
  5
71CC
  8
0
 10
3917.9064186210780463
 20
71.7180074277730739
 30
0.0
 11
3917.9064186210780463
 21
71.6668263246730533
 31
0.0
  0
LINE
  5
71CD
  8
0
 10
3917.9940823308779727
 20
71.6471411891730696
 30
0.0
 11
3917.4676232340780189
 21
71.6471413047730721
 31
0.0
  0
LINE
  5
71CE
  8
0
 10
3918.1926854301768799
 20
71.6510783247730672
 30
0.0
 11
3918.1926854301768799
 21
69.7878310008537142
 31
0.0
  0
LINE
  5
71CF
  8
0
 10
3917.3892628990779485
 20
71.606805749073061
 30
0.0
 11
3917.3902138846779053
 21
70.9770003760730788
 31
0.0
  0
LINE
  5
71D0
  8
0
 10
3913.7824028730778991
 20
73.0762751443730707
 30
0.0
 11
3920.8690170462768947
 21
73.0762751443730707
 31
0.0
  0
LINE
  5
71D1
  8
0
 10
3916.6564208313470772
 20
71.7376924671730762
 30
0.0
 11
3916.6761036604780202
 21
71.7180074277730739
 31
0.0
  0
LINE
  5
71D2
  8
0
 10
3916.4792532667779597
 20
71.7180074277730739
 30
0.0
 11
3918.1721560386781675
 21
71.7180074277730739
 31
0.0
  0
LINE
  5
71D3
  8
0
 10
3916.6564208313470772
 20
72.4857239631730579
 30
0.0
 11
3916.6564208313470772
 21
71.7376924671730762
 31
0.0
  0
LINE
  5
71D4
  8
0
 10
3917.995000112463913
 20
72.4857239631730579
 30
0.0
 11
3917.995000112463913
 21
71.7376924671730762
 31
0.0
  0
LINE
  5
71D5
  8
0
 10
3917.995000112463913
 20
71.7376924671730762
 30
0.0
 11
3917.9753162588767736
 21
71.7180074277730739
 31
0.0
  0
LINE
  5
71D6
  8
0
 10
3916.6770466375769502
 20
71.6668263246730817
 30
0.0
 11
3917.9743732817778437
 21
71.6668263246730817
 31
0.0
  0
LINE
  5
71D7
  8
0
 10
3917.28017814347686
 20
71.6247072525730744
 30
0.0
 11
3917.3712417758779338
 21
71.6247072525730744
 31
0.0
  0
LINE
  5
71D8
  8
0
 10
3916.7599914635979985
 20
69.9292839096184764
 30
0.0
 11
3917.8994490367281287
 21
69.9293461354730681
 31
0.0
  0
LINE
  5
71D9
  8
0
 10
3916.5640572918778162
 20
69.756796980673073
 30
0.0
 11
3918.0871684127700973
 21
69.7567855868720557
 31
0.0
  0
LINE
  5
71DA
  8
0
 10
3916.6573375820780711
 20
69.963377770245927
 30
0.0
 11
3916.6573736364780416
 21
71.6471419040691444
 31
0.0
  0
LINE
  5
71DB
  8
0
 10
3917.9940823308779727
 20
71.6471411891730696
 30
0.0
 11
3917.9940823372771774
 21
69.963377770245927
 31
0.0
  0
ENDSEC
  0
EOF
