  0
SECTION
  2
HEADER
  9
$ACADVER
  1
AC1009
  9
$INSBASE
 10
3879.8993101574142202
 20
71.8695758589836657
 30
0.0
  9
$EXTMIN
 10
3866.8935433548590481
 20
64.2692195906508346
 30
0.0
  9
$EXTMAX
 10
3883.4426172440448681
 20
75.7328723881664985
 30
0.0
  9
$LIMMIN
 10
0.0
 20
0.0
  9
$LIMMAX
 10
11.6929133858000007
 20
8.2677165353999982
  9
$ORTHOMODE
 70
     0
  9
$REGENMODE
 70
     1
  9
$FILLMODE
 70
     1
  9
$QTEXTMODE
 70
     0
  9
$MIRRTEXT
 70
     0
  9
$DRAGMODE
 70
     2
  9
$LTSCALE
 40
0.6431102362
  9
$OSMODE
 70
  4095
  9
$ATTMODE
 70
     1
  9
$TEXTSIZE
 40
0.2
  9
$TRACEWID
 40
0.05
  9
$TEXTSTYLE
  7
STANDARD
  9
$CLAYER
  8
0
  9
$CELTYPE
  6
BYLAYER
  9
$CECOLOR
 62
   256
  9
$DIMSCALE
 40
1.0
  9
$DIMASZ
 40
0.1875
  9
$DIMEXO
 40
0.0625
  9
$DIMDLI
 40
0.4443307087
  9
$DIMRND
 40
0.0
  9
$DIMDLE
 40
0.0
  9
$DIMEXE
 40
0.125
  9
$DIMTP
 40
0.01
  9
$DIMTM
 40
0.01
  9
$DIMTXT
 40
2.0
  9
$DIMCEN
 40
0.1052362205
  9
$DIMTSZ
 40
0.0
  9
$DIMTOL
 70
     1
  9
$DIMLIM
 70
     0
  9
$DIMTIH
 70
     1
  9
$DIMTOH
 70
     1
  9
$DIMSE1
 70
     0
  9
$DIMSE2
 70
     0
  9
$DIMTAD
 70
     0
  9
$DIMZIN
 70
     0
  9
$DIMBLK
  1

  9
$DIMASO
 70
     1
  9
$DIMSHO
 70
     1
  9
$DIMPOST
  1
\X
  9
$DIMAPOST
  1

  9
$DIMALT
 70
     1
  9
$DIMALTD
 70
     2
  9
$DIMALTF
 40
25.3999999999999986
  9
$DIMLFAC
 40
1.0
  9
$DIMTOFL
 70
     0
  9
$DIMTVP
 40
0.0
  9
$DIMTIX
 70
     0
  9
$DIMSOXD
 70
     0
  9
$DIMSAH
 70
     0
  9
$DIMBLK1
  1

  9
$DIMBLK2
  1

  9
$DIMSTYLE
  2
STANDARD
  9
$DIMCLRD
 70
     0
  9
$DIMCLRE
 70
     0
  9
$DIMCLRT
 70
     0
  9
$DIMTFAC
 40
1.0
  9
$DIMGAP
 40
0.09
  9
$LUNITS
 70
     2
  9
$LUPREC
 70
     4
  9
$SKETCHINC
 40
0.1
  9
$FILLETRAD
 40
0.0
  9
$AUNITS
 70
     0
  9
$AUPREC
 70
     0
  9
$MENU
  1
.
  9
$ELEVATION
 40
0.0
  9
$PELEVATION
 40
0.0
  9
$THICKNESS
 40
0.0
  9
$LIMCHECK
 70
     0
  9
$BLIPMODE
 70
     0
  9
$CHAMFERA
 40
0.0
  9
$CHAMFERB
 40
0.0
  9
$SKPOLY
 70
     0
  9
$TDCREATE
 40
2458060.468368056230247
  9
$TDUPDATE
 40
2459066.6742129628546536
  9
$TDINDWG
 40
0.4097871528
  9
$TDUSRTIMER
 40
0.4097871528
  9
$USRTIMER
 70
     1
  9
$ANGBASE
 50
0.0
  9
$ANGDIR
 70
     0
  9
$PDMODE
 70
     0
  9
$PDSIZE
 40
0.3125
  9
$PLINEWID
 40
0.0
  9
$COORDS
 70
     1
  9
$SPLFRAME
 70
     0
  9
$SPLINETYPE
 70
     6
  9
$SPLINESEGS
 70
     8
  9
$ATTDIA
 70
     1
  9
$ATTREQ
 70
     1
  9
$HANDLING
 70
     1
  9
$HANDSEED
  5
70A7
  9
$SURFTAB1
 70
     6
  9
$SURFTAB2
 70
     6
  9
$SURFTYPE
 70
     6
  9
$SURFU
 70
     6
  9
$SURFV
 70
     6
  9
$UCSNAME
  2

  9
$UCSORG
 10
0.0
 20
0.0
 30
0.0
  9
$UCSXDIR
 10
1.0
 20
0.0
 30
0.0
  9
$UCSYDIR
 10
0.0
 20
1.0
 30
0.0
  9
$PUCSNAME
  2

  9
$PUCSORG
 10
0.0
 20
0.0
 30
0.0
  9
$PUCSXDIR
 10
1.0
 20
0.0
 30
0.0
  9
$PUCSYDIR
 10
0.0
 20
1.0
 30
0.0
  9
$USERI1
 70
     0
  9
$USERI2
 70
     0
  9
$USERI3
 70
     0
  9
$USERI4
 70
     0
  9
$USERI5
 70
     0
  9
$USERR1
 40
0.0
  9
$USERR2
 40
0.0
  9
$USERR3
 40
0.0
  9
$USERR4
 40
0.0
  9
$USERR5
 40
0.0
  9
$WORLDVIEW
 70
     1
  9
$SHADEDGE
 70
     3
  9
$SHADEDIF
 70
    70
  9
$TILEMODE
 70
     1
  9
$MAXACTVP
 70
    64
  9
$PLIMCHECK
 70
     0
  9
$PEXTMIN
 10
1.0000000000000000E+20
 20
1.0000000000000000E+20
 30
1.0000000000000000E+20
  9
$PEXTMAX
 10
-1.0000000000000000E+20
 20
-1.0000000000000000E+20
 30
-1.0000000000000000E+20
  9
$PLIMMIN
 10
0.0
 20
0.0
  9
$PLIMMAX
 10
12.0
 20
9.0
  9
$UNITMODE
 70
     0
  9
$VISRETAIN
 70
     1
  9
$PLINEGEN
 70
     0
  9
$PSLTSCALE
 70
     1
  0
ENDSEC
  0
SECTION
  2
TABLES
  0
TABLE
  2
VPORT
 70
     1
  0
VPORT
  2
*ACTIVE
 70
     0
 10
0.0
 20
0.0
 11
1.0
 21
1.0
 12
90.1025468586446436
 22
-50.1654600793239922
 13
0.0
 23
0.0
 14
1.0
 24
1.0
 15
0.0
 25
0.0
 16
0.0
 26
0.0
 36
5.1040778033513332
 17
3792.35791015625
 27
120.1806564331053977
 37
0.0
 40
18.4270768894222385
 41
2.005224660397074
 42
50.0
 43
0.0
 44
0.0
 50
0.0
 51
0.0
 71
     0
 72
   100
 73
     1
 74
     1
 75
     0
 76
     0
 77
     0
 78
     0
  0
ENDTAB
  0
TABLE
  2
LTYPE
 70
     2
  0
LTYPE
  2
CONTINUOUS
 70
     0
  3
Solid line
 72
    65
 73
     0
 40
0.0
  0
LTYPE
  2
PHANTOM2
 70
     0
  3
___ _ _ ___ _ _ ___ _ _ ___ _ _
 72
    65
 73
     6
 40
1.25
 49
0.625
 49
-0.125
 49
0.125
 49
-0.125
 49
0.125
 49
-0.125
  0
ENDTAB
  0
TABLE
  2
LAYER
 70
     2
  0
LAYER
  2
0
 70
     0
 62
   255
  6
CONTINUOUS
  0
LAYER
  2
DEFPOINTS
 70
     0
 62
     7
  6
CONTINUOUS
  0
ENDTAB
  0
TABLE
  2
STYLE
 70
     1
  0
STYLE
  2
STANDARD
 70
     0
 40
0.0
 41
0.8
 50
0.0
 71
     0
 42
0.2
  3
txt
  4

  0
ENDTAB
  0
TABLE
  2
VIEW
 70
     0
  0
ENDTAB
  0
TABLE
  2
UCS
 70
     0
  0
ENDTAB
  0
TABLE
  2
APPID
 70
     9
  0
APPID
  2
ACAD
 70
     0
  0
APPID
  2
ACAD_MLEADERVER
 70
     0
  0
APPID
  2
ACAD_EXEMPT_FROM_CAD_STANDARDS
 70
     0
  0
APPID
  2
ACAD_NAV_VCDISPLAY
 70
     0
  0
APPID
  2
ACAECLAYERSTANDARD
 70
     0
  0
APPID
  2
ACCMTRANSPARENCY
 70
     0
  0
APPID
  2
ACAD_DSTYLE_DIMJAG
 70
     0
  0
APPID
  2
ACAD_DSTYLE_DIMTALN
 70
     0
  0
APPID
  2
ACDBATTR
 70
     0
  0
ENDTAB
  0
TABLE
  2
DIMSTYLE
 70
     1
  0
DIMSTYLE
  2
STANDARD
 70
     0
  3

  4

  5

  6

  7

 40
1.0
 41
0.1875
 42
0.0625
 43
0.38
 44
0.125
 45
0.0
 46
0.0
 47
0.01
 48
0.01
140
0.15625
141
0.09
142
0.0
143
25.3999999999999986
144
1.0
145
0.0
146
1.0
147
0.09
 71
     1
 72
     0
 73
     1
 74
     1
 75
     0
 76
     0
 77
     0
 78
     4
170
     0
171
     2
172
     0
173
     0
174
     0
175
     0
176
     0
177
     0
178
     0
  0
ENDTAB
  0
ENDSEC
  0
SECTION
  2
BLOCKS
  0
BLOCK
  8
0
  2
$MODEL_SPACE
 70
     0
 10
0.0
 20
0.0
 30
0.0
  3
$MODEL_SPACE
  1

  0
ENDBLK
  5
21
  8
0
  0
BLOCK
 67
     1
  8
0
  2
$PAPER_SPACE
 70
     0
 10
0.0
 20
0.0
 30
0.0
  3
$PAPER_SPACE
  1

  0
ENDBLK
  5
1D
 67
     1
  8
0
  0
BLOCK
  8
0
  2
_FILLED
 70
     0
 10
0.0
 20
0.0
 30
0.0
  3
_FILLED
  1

  0
SOLID
  5
69B4
  8
0
  6
BYBLOCK
 62
     0
 10
0.0
 20
0.0
 30
0.0
 11
-1.0
 21
0.1666666667
 31
0.0
 12
-1.0
 22
-0.1666666667
 32
0.0
 13
-1.0
 23
-0.1666666667
 33
0.0
  0
ENDBLK
  5
69B5
  8
0
  6
BYBLOCK
 62
     0
  0
BLOCK
  8
0
  2
A$CDFAF6206
 70
     0
 10
0.0
 20
0.0
 30
0.0
  3
A$CDFAF6206
  1

  0
LINE
  5
6A0E
  8
0
 10
7.4646650085734834
 20
10.9287685970688493
 30
0.0
 11
7.4646650085734896
 21
10.8905784766688498
 31
0.0
  0
ARC
  5
6A0F
  8
0
 10
7.7269027075262349
 20
10.8926811525838598
 30
0.0
 40
0.2622461286616791
 50
180.4593995232625048
 51
217.0214027758331099
  0
LINE
  5
6A10
  8
0
 10
9.767814609867095
 20
10.9287685970688493
 30
0.0
 11
9.767814609867095
 21
10.8905433757650094
 31
0.0
  0
ARC
  5
6A11
  8
0
 10
9.5068669568548287
 20
10.8922438613003703
 30
0.0
 40
0.2609531936261092
 50
322.8847083717149076
 51
359.6266329125650145
  0
LINE
  5
6A12
  8
0
 10
7.517522606271406
 20
10.7347792678688396
 30
0.0
 11
9.7149570120691777
 21
10.7347792678688396
 31
0.0
  0
LINE
  5
6A13
  8
0
 10
7.4646650085734834
 20
10.9287685970688493
 30
0.0
 11
9.7678146123202936
 21
10.9287685970688493
 31
0.0
  0
ARC
  5
6A14
  8
0
 10
4.0826771419203629
 20
8.527951346868889
 30
0.0
 40
4.0826771653999172
 50
13.3117747050523896
 51
32.7200330051415591
  0
ARC
  5
6A15
  8
0
 10
4.0826771460567306
 20
8.5279513475907933
 30
0.0
 40
4.0826771612084691
 50
359.6656501984817851
 51
13.3117747085593798
  0
ARC
  5
6A16
  8
0
 10
13.1498041284835097
 20
8.5279508235212234
 30
0.0
 40
4.0826788382043553
 50
147.2799733478981068
 51
166.6882233021349862
  0
ARC
  5
6A17
  8
0
 10
13.1498064934207992
 20
8.5279506557033251
 30
0.0
 40
4.0826811782395342
 50
166.688228652086309
 51
180.3343397625230011
  0
LINE
  5
6A18
  8
0
 10
8.1652847935202928
 20
8.504127000268852
 30
0.0
 11
9.0671948248202892
 21
8.5041270002687881
 31
0.0
  0
LINE
  5
6A19
  8
0
 10
8.1652847935202786
 20
8.5041270002667204
 30
0.0
 11
8.1652847935202928
 21
8.3607006934688481
 31
0.0
  0
ARC
  5
6A1A
  8
0
 10
5.6196779630382627
 20
8.3631022096452732
 30
0.0
 40
2.545607963272567
 50
342.0511668832173768
 51
359.945947387132378
  0
LINE
  5
6A1B
  8
0
 10
9.0671948248202892
 20
8.5041270002687881
 30
0.0
 11
9.0671948248202892
 21
8.2885990108688503
 31
0.0
  0
ARC
  5
6A1C
  8
0
 10
9.4521885297801163
 20
7.9614488056228501
 30
0.0
 40
0.5052201595850959
 50
139.6436242991769916
 51
174.6757930071850069
  0
ARC
  5
6A1D
  8
0
 10
9.9238413395551746
 20
8.1492417579399508
 30
0.0
 40
0.9848265662939324
 50
188.2263441834095943
 51
209.5593615864376034
  0
ARC
  5
6A1E
  8
0
 10
8.0788764238271256
 20
7.5665710856463297
 30
0.0
 40
0.0393715937169877
 50
162.1669117288323037
 51
227.2023190037006088
  0
ARC
  5
6A1F
  8
0
 10
8.7223682141740682
 20
8.2079667397440517
 30
0.0
 40
0.947895137885075
 50
225.0018610752970858
 51
261.4598823366255829
  0
ARC
  5
6A20
  8
0
 10
8.6645157662702701
 20
8.1695128573935332
 30
0.0
 40
0.9027466462812931
 50
264.7303071214498118
 51
281.8608311947915013
  0
ARC
  5
6A21
  8
0
 10
8.6645157662698935
 20
8.1695128573999671
 30
0.0
 40
0.9027466462876658
 50
299.1741886792128753
 51
299.1743179154552195
  0
ARC
  5
6A22
  8
0
 10
9.0843330931590316
 20
7.4150554710086141
 30
0.0
 40
0.0393703053609601
 50
251.9700352025496954
 51
252.4698971938937859
  0
ARC
  5
6A23
  8
0
 10
9.0843330931590316
 20
7.4150554710086141
 30
0.0
 40
0.0393703053609601
 50
297.2453716727138726
 51
6.8376113572703074
  0
LINE
  5
6A24
  8
0
 10
9.0671948248202892
 20
7.663402160468852
 30
0.0
 11
9.1234233799329516
 21
7.419742732911689
 31
0.0
  0
ARC
  5
6A25
  8
0
 10
8.8843741880892395
 20
9.8961379890094676
 30
0.0
 40
2.5255097382132701
 50
263.792800240752797
 51
274.9514951129821156
  0
ARC
  5
6A26
  8
0
 10
8.8258167405968848
 20
9.2763025889666508
 30
0.0
 40
1.9029970832759311
 50
246.0108363320686067
 51
263.5276935074397215
  0
ARC
  5
6A27
  8
0
 10
8.607491361665744
 20
8.3225444804829642
 30
0.0
 40
1.064510137163637
 50
283.1717405874071005
 51
297.7022170607311864
  0
LINE
  5
6A28
  8
0
 10
9.0671948248202892
 20
8.2885990108688503
 30
0.0
 11
26.2014378595979593
 21
8.2885990108689942
 31
0.0
  0
LINE
  5
6A29
  8
0
 10
26.2014378595979913
 20
7.6634021604689053
 30
0.0
 11
9.0671948248202892
 21
7.6634021604688618
 31
0.0
  0
LINE
  5
6A2A
  8
0
 10
27.8039676758446994
 20
10.9287685970690802
 30
0.0
 11
27.8039676758446888
 21
10.8905784766690807
 31
0.0
  0
ARC
  5
6A2B
  8
0
 10
27.5417299768919399
 20
10.8926811525840801
 30
0.0
 40
0.2622461286616791
 50
322.9785972241680838
 51
359.5406004767386889
  0
LINE
  5
6A2C
  8
0
 10
25.5008180745510913
 20
10.9287685970690305
 30
0.0
 11
25.5008180745510913
 21
10.8905433757651799
 31
0.0
  0
ARC
  5
6A2D
  8
0
 10
25.7617657275633505
 20
10.8922438613005497
 30
0.0
 40
0.2609531936261092
 50
180.3733670874362929
 51
217.1152916282862861
  0
LINE
  5
6A2E
  8
0
 10
27.7511100781467803
 20
10.7347792678690706
 30
0.0
 11
25.5536756723490015
 21
10.7347792678690208
 31
0.0
  0
LINE
  5
6A2F
  8
0
 10
27.8039676758446888
 20
10.9287685970686006
 30
0.0
 11
25.5008180745510806
 21
10.9287685970686006
 31
0.0
  0
ARC
  5
6A30
  8
0
 10
31.1859555424978616
 20
8.5279513468691981
 30
0.0
 40
4.0826771653999172
 50
147.2799669948597057
 51
166.6882252949490066
  0
ARC
  5
6A31
  8
0
 10
31.185955538361501
 20
8.5279513475911024
 30
0.0
 40
4.0826771612084691
 50
166.6882252914419098
 51
180.3343498015194086
  0
ARC
  5
6A32
  8
0
 10
22.1188285559344706
 20
8.5279508235212251
 30
0.0
 40
4.0826788382046102
 50
13.3117766978667795
 51
32.7200266521023977
  0
ARC
  5
6A33
  8
0
 10
22.1188261909974315
 20
8.5279506557034264
 30
0.0
 40
4.0826811782395342
 50
359.665660237478221
 51
13.31177134791497
  0
LINE
  5
6A34
  8
0
 10
27.1033478908979397
 20
8.5041270002690652
 30
0.0
 11
26.2014378595979416
 21
8.5041270002689835
 31
0.0
  0
LINE
  5
6A35
  8
0
 10
27.1033478908979504
 20
8.5041270002669354
 30
0.0
 11
27.1033478908979397
 21
8.3607006934690649
 31
0.0
  0
ARC
  5
6A36
  8
0
 10
29.6489547213799689
 20
8.3631022096455467
 30
0.0
 40
2.545607963272567
 50
180.0540526128687873
 51
197.9488331167837032
  0
LINE
  5
6A37
  8
0
 10
26.2014378595979416
 20
8.5041270002689835
 30
0.0
 11
26.2014378595979487
 21
8.2885990108690457
 31
0.0
  0
ARC
  5
6A38
  8
0
 10
25.8164441546381305
 20
7.9614488056230366
 30
0.0
 40
0.5052201595850959
 50
5.324206992816312
 51
40.3563757008241879
  0
ARC
  5
6A39
  8
0
 10
25.3447913448601803
 20
8.149241757940846
 30
0.0
 40
0.9848265662968968
 50
330.4406384136033807
 51
351.7736558165743759
  0
ARC
  5
6A3A
  8
0
 10
27.1897562605911212
 20
7.5665710856465473
 30
0.0
 40
0.0393715937169877
 50
312.7976809963004143
 51
17.8330882711689185
  0
ARC
  5
6A3B
  8
0
 10
26.5462644702441715
 20
8.2079667397442542
 30
0.0
 40
0.947895137885075
 50
278.5401176633754972
 51
314.9981389247041079
  0
ARC
  5
6A3C
  8
0
 10
26.6041169181479695
 20
8.1695128573937392
 30
0.0
 40
0.9027466462812931
 50
258.139168805210204
 51
275.2696928785518935
  0
ARC
  5
6A3D
  8
0
 10
26.6041169181483497
 20
8.1695128574001732
 30
0.0
 40
0.9027466462876658
 50
240.8256820845460027
 51
240.8258113207880058
  0
ARC
  5
6A3E
  8
0
 10
26.1842995912592293
 20
7.4150554710088086
 30
0.0
 40
0.0393703053609601
 50
287.5301028061073794
 51
288.0299647974517825
  0
ARC
  5
6A3F
  8
0
 10
26.1842995912592293
 20
7.4150554710088086
 30
0.0
 40
0.0393703053609601
 50
173.1623886427310026
 51
242.7546283272870085
  0
LINE
  5
6A40
  8
0
 10
26.2014378595981192
 20
7.6634021604690448
 30
0.0
 11
26.1452093044853093
 21
7.4197427329118826
 31
0.0
  0
ARC
  5
6A41
  8
0
 10
26.384258496328961
 20
9.8961379890096666
 30
0.0
 40
2.5255097382132701
 50
265.0485048870193054
 51
276.2071997592482262
  0
ARC
  5
6A42
  8
0
 10
26.4428159438213299
 20
9.2763025889668516
 30
0.0
 40
1.9029970832759311
 50
276.4723064925619838
 51
293.9891636679327007
  0
ARC
  5
6A43
  8
0
 10
26.6611413227524885
 20
8.3225444804831703
 30
0.0
 40
1.064510137163637
 50
242.2977829392704052
 51
256.8282594125943774
  0
LINE
  5
6A44
  8
0
 62
     4
 10
17.9031473532159602
 20
10.9287685970686006
 30
0.0
 11
24.6329820359843588
 21
20.0952817181593808
 31
0.0
  0
LINE
  5
6A45
  8
0
 62
     4
 10
17.9031473532159602
 20
-0.0000000300842942
 30
0.0
 11
22.3963351323106608
 21
4.993614497796286
 31
0.0
  0
ENDBLK
  5
6A49
  8
0
  0
ENDSEC
  0
SECTION
  2
ENTITIES
  0
ATTDEF
  5
3930
  8
DEFPOINTS
 10
3879.899610439657863
 20
71.8710311885947419
 30
0.0
 40
0.001
  1
K-76690T-9
  3

  2
MODELNUMBER
 70
     0
1001
ACDBATTR
1070
     0
1070
     1
  0
ATTDEF
  5
3931
  8
DEFPOINTS
 10
3879.899610439657863
 20
71.8693645219280768
 30
0.0
 40
0.001
  1
MODULO
  3

  2
TRADENAME
 70
     0
1001
ACDBATTR
1070
     0
1070
     1
  0
ATTDEF
  5
3932
  8
DEFPOINTS
 10
3879.899610439657863
 20
71.8676978552614116
 30
0.0
 40
0.001
  1
VALVE TRIM
  3

  2
PRODUCT
 70
     0
1001
ACDBATTR
1070
     0
1070
     1
  0
ARC
  5
6FE4
  8
0
 10
3879.8993101574278626
 20
71.8695758589809373
 30
0.0
 40
3.5433070866289329
 50
180.000000000210008
 51
260.8817922726677239
  0
ARC
  5
6FE5
  8
0
 10
3879.8993101573978493
 20
71.869575858967977
 30
0.0
 40
3.5329737799000509
 50
261.024591783694575
 51
266.1662493044934763
  0
ARC
  5
6FE6
  8
0
 10
3879.8993101587739147
 20
71.8695759449240796
 30
0.0
 40
3.5433071725561529
 50
266.3448938222916809
 51
269.9999999777489279
  0
LINE
  5
6FE7
  8
0
 10
3879.3377957482989586
 20
68.3710437841679237
 30
0.0
 11
3879.3481290550330414
 21
68.3798619563884813
 31
0.0
  0
LINE
  5
6FE8
  8
0
 10
3879.6630896850051613
 20
68.344507970560187
 30
0.0
 11
3879.6734229916992263
 21
68.3334762988679358
 31
0.0
  0
ARC
  5
6FE9
  8
0
 10
3879.8993101573978493
 20
71.8695758589679343
 30
0.0
 40
3.5433070865999969
 50
90.0
 51
180.0
  0
ARC
  5
6FEA
  8
0
 10
3879.8993312779111875
 20
71.8695578579813059
 30
0.0
 40
3.543285966133602
 50
279.1179166468492099
 51
0.0002910802485565
  0
ARC
  5
6FEB
  8
0
 10
3879.8993250294829522
 20
71.8695907310524689
 30
0.0
 40
3.543292214546939
 50
359.9997595152686927
 51
90.0002404847272572
  0
ARC
  5
6FEC
  8
0
 10
3879.8993101573978493
 20
71.869575858967977
 30
0.0
 40
3.5329737799000509
 50
273.8337506955065237
 51
278.9754082163054818
  0
ARC
  5
6FED
  8
0
 10
3879.899310156023148
 20
71.8695759449240796
 30
0.0
 40
3.5433071725561529
 50
270.0000000222510721
 51
273.6551061777082055
  0
LINE
  5
6FEE
  8
0
 10
3880.4608245664990136
 20
68.3710437841679521
 30
0.0
 11
3880.4504912597640214
 21
68.3798619563884955
 31
0.0
  0
LINE
  5
6FEF
  8
0
 10
3880.1355306297919014
 20
68.344507970560187
 30
0.0
 11
3880.1251973230978365
 21
68.3334762988679358
 31
0.0
  0
ARC
  5
6FF0
  8
0
 10
3879.8993101573978493
 20
71.8695758589679201
 30
0.0
 40
3.4947847863000021
 50
90.0
 51
180.0
  0
ARC
  5
6FF1
  8
0
 10
3879.8993101573978493
 20
71.8695758589679343
 30
0.0
 40
3.494784786300003
 50
180.0
 51
270.0
  0
ARC
  5
6FF2
  8
0
 10
3879.8993258850309758
 20
71.8695758590155265
 30
0.0
 40
3.4947847862877919
 50
0.0003099621772058
 51
90.0002578490470455
  0
ARC
  5
6FF3
  8
0
 10
3879.8993258848850019
 20
71.8695758590655771
 30
0.0
 40
3.494784786433041
 50
269.9997421533240072
 51
0.0003099613564701
  0
ARC
  5
6FF4
  8
0
 10
3879.8966980762402272
 20
70.354650112399284
 30
0.0
 40
0.8920327749369329
 50
102.369576406512607
 51
180.0528158427798076
  0
ARC
  5
6FF5
  8
0
 10
3879.899195857927225
 20
70.3537906482612811
 30
0.0
 40
0.8945301784015983
 50
179.9976186251975037
 51
252.0870906904565913
  0
ARC
  5
6FF6
  8
0
 10
3879.6434131265400538
 20
69.5062911974999054
 30
0.0
 40
0.0196935209232167
 50
180.0139319121892925
 51
216.1980000988912991
  0
ARC
  5
6FF7
  8
0
 10
3879.643408877273032
 20
69.5062890142611565
 30
0.0
 40
0.0196888024883451
 50
216.200175926973003
 51
252.3930441496416108
  0
ARC
  5
6FF8
  8
0
 10
3879.8993101573978493
 20
70.313132925867933
 30
0.0
 40
0.8661417323000113
 50
252.4026594546909905
 51
270.0
  0
LINE
  5
6FF9
  8
0
 10
3879.623719606198847
 20
69.531728638697615
 30
0.0
 11
3879.623719606198847
 21
69.5062864088679362
 31
0.0
  0
ARC
  5
6FFA
  8
0
 10
3879.8989411318298153
 20
70.353485270443727
 30
0.0
 40
0.8666203609365705
 50
251.4833473592323969
 51
270.0243977926259049
  0
ARC
  5
6FFB
  8
0
 10
3879.8989944253780777
 20
70.353532235727954
 30
0.0
 40
0.866681820604511
 50
180.4090054930211124
 51
251.4809925856949917
  0
ARC
  5
6FFC
  8
0
 10
3879.9043463258208249
 20
70.3516511780790665
 30
0.0
 40
0.872022268863718
 50
116.3391600455647961
 51
180.2829044184759084
  0
ARC
  5
6FFD
  8
0
 10
3878.7586158116941988
 20
72.9083593366042635
 30
0.0
 40
1.9305992108738581
 50
293.1446172736459062
 51
299.3746437995151268
  0
ARC
  5
6FFE
  8
0
 10
3879.476263629549976
 20
71.5778751466779681
 30
0.0
 40
0.420039394811851
 50
303.0937800155001014
 51
315.726316552851813
  0
ARC
  5
6FFF
  8
0
 10
3879.5428210314398711
 20
71.5014489128477209
 30
0.0
 40
0.31913817465117
 50
317.209313491528178
 51
335.6325329873461101
  0
ARC
  5
7000
  8
0
 10
3879.8635503100358619
 20
71.3601807810717332
 30
0.0
 40
0.0315168564686159
 50
134.8266757491628027
 51
162.2740127578771876
  0
ARC
  5
7001
  8
0
 10
3879.8540619003238135
 20
71.3675119636863116
 30
0.0
 40
0.0196902799870971
 50
90.0321792450593534
 51
130.2785734978484129
  0
ARC
  5
7002
  8
0
 10
3879.9019222385568355
 20
70.354650112399284
 30
0.0
 40
0.8920327749369329
 50
359.9471841572201924
 51
77.6304235934873361
  0
ARC
  5
7003
  8
0
 10
3879.8994244568689282
 20
70.3537906482612811
 30
0.0
 40
0.8945301784015983
 50
287.912909309543295
 51
0.002381374802465
  0
ARC
  5
7004
  8
0
 10
3880.1552071882579185
 20
69.5062911974999054
 30
0.0
 40
0.0196935209232167
 50
323.8019999011086725
 51
359.9860680878106791
  0
ARC
  5
7005
  8
0
 10
3880.1552114375249403
 20
69.5062890142611565
 30
0.0
 40
0.0196888024883451
 50
287.6069558503583039
 51
323.7998240730270254
  0
ARC
  5
7006
  8
0
 10
3879.8993101573978493
 20
70.313132925867933
 30
0.0
 40
0.8661417323000113
 50
270.0
 51
287.5973405453090095
  0
LINE
  5
7007
  8
0
 10
3880.1749007085982157
 20
69.531728638697615
 30
0.0
 11
3880.1749007085982157
 21
69.5062864088679362
 31
0.0
  0
ARC
  5
7008
  8
0
 10
3879.8996791829690665
 20
70.3534852704350158
 30
0.0
 40
0.8666203609276369
 50
269.9756022432779901
 51
288.516652640821917
  0
ARC
  5
7009
  8
0
 10
3879.899625889418985
 20
70.3535322357274566
 30
0.0
 40
0.8666818206039252
 50
288.5190074143038146
 51
359.5909945070113736
  0
ARC
  5
700A
  8
0
 10
3879.8942739889771474
 20
70.3516511780796208
 30
0.0
 40
0.8720222688629998
 50
359.7170955814866034
 51
63.6608399544610322
  0
ARC
  5
700B
  8
0
 10
3881.040004503102864
 20
72.9083593366042635
 30
0.0
 40
1.9305992108738581
 50
240.6253562004849016
 51
246.8553827263540086
  0
ARC
  5
700C
  8
0
 10
3880.3223566852479962
 20
71.5778751466779681
 30
0.0
 40
0.420039394811851
 50
224.273683447148187
 51
236.9062199844998986
  0
ARC
  5
700D
  8
0
 10
3880.2557992833571916
 20
71.5014489128477209
 30
0.0
 40
0.31913817465117
 50
204.3674670126538899
 51
222.7906865084717936
  0
ARC
  5
700E
  8
0
 10
3879.9350700047612008
 20
71.3601807810717332
 30
0.0
 40
0.0315168564686159
 50
17.7259872421227591
 51
45.1733242508371902
  0
ARC
  5
700F
  8
0
 10
3879.9445175957480387
 20
71.3674419236720325
 30
0.0
 40
0.019770108772251
 50
49.7624061411445879
 51
90.8255314371534013
  0
LINE
  5
7010
  8
0
 10
3879.8540508415990189
 20
71.3872022405679303
 30
0.0
 11
3879.9442327530978218
 21
71.3872099803679134
 31
0.0
  0
ARC
  5
7011
  8
0
 10
3879.6327885753730698
 20
74.3606028194341491
 30
0.0
 40
0.2159473658532968
 50
316.592218340304612
 51
339.3097980815132928
  0
ARC
  5
7012
  8
0
 10
3879.633446317680864
 20
74.3637449836350868
 30
0.0
 40
0.2176459616505297
 50
305.7655550284873129
 51
315.87227961098381
  0
ARC
  5
7013
  8
0
 10
3878.3158570643468011
 20
76.5781242982830292
 30
0.0
 40
2.7936044649087872
 50
296.1206516492135279
 51
301.1432910670857268
  0
ARC
  5
7014
  8
0
 10
3879.8929416027731349
 20
73.5050778693604059
 30
0.0
 40
0.662926932694262
 50
121.579704632918606
 51
180.250956915397893
  0
ARC
  5
7015
  8
0
 10
3879.899856892587195
 20
73.5039793084940527
 30
0.0
 40
0.6698382956511943
 50
180.154399637769302
 51
269.9532340528464829
  0
ARC
  5
7016
  8
0
 10
3879.8986235306288108
 20
73.5039488951282038
 30
0.0
 40
0.6969869381309655
 50
101.4171999680056047
 51
163.0086197726575961
  0
ARC
  5
7017
  8
0
 10
3879.8993101573751119
 20
73.5034341266510864
 30
0.0
 40
0.6977940833716213
 50
162.9846726973285058
 51
228.0498300271680137
  0
ARC
  5
7018
  8
0
 10
3879.8993101573978493
 20
73.5034341266679121
 30
0.0
 40
0.6977940833999855
 50
228.0498300266430078
 51
270.0
  0
ARC
  5
7019
  8
0
 10
3880.1658846212540084
 20
74.3606437330240055
 30
0.0
 40
0.2160138988718614
 50
200.6681092750395976
 51
223.4060266374976038
  0
ARC
  5
701A
  8
0
 10
3880.1651739971171082
 20
74.3637449836350868
 30
0.0
 40
0.2176459616505297
 50
224.1277203890161047
 51
234.2344449715126871
  0
ARC
  5
701B
  8
0
 10
3881.4827632504488975
 20
76.5781242982830292
 30
0.0
 40
2.7936044649087872
 50
238.8567089329143016
 51
243.8793483507865858
  0
ARC
  5
701C
  8
0
 10
3879.9056757441080663
 20
73.5050750220995752
 30
0.0
 40
0.6629309125627805
 50
359.7492906765763223
 51
58.4202057119415414
  0
ARC
  5
701D
  8
0
 10
3879.8987626915341025
 20
73.503981067765892
 30
0.0
 40
0.6698400555192479
 50
270.046828323744478
 51
359.8454502853668941
  0
ARC
  5
701E
  8
0
 10
3879.8998899001849168
 20
73.5037378614126737
 30
0.0
 40
0.6972149565697371
 50
359.8715047051773013
 51
78.5776232673756141
  0
ARC
  5
701F
  8
0
 10
3879.8993101574219509
 20
73.5034341266511291
 30
0.0
 40
0.6977940833717238
 50
311.950169972833578
 51
359.8965510208337832
  0
ARC
  5
7020
  8
0
 10
3879.8993101573978493
 20
73.5034341266679121
 30
0.0
 40
0.6977940833999855
 50
270.0
 51
311.9501699733568785
  0
ARC
  5
7021
  8
0
 10
3879.8538852478609442
 20
74.2781846752657202
 30
0.0
 40
0.0200348010312682
 50
90.3543910564472981
 51
162.2114608189995977
  0
ARC
  5
7022
  8
0
 10
3879.9447566403541714
 20
74.2782238741579306
 30
0.0
 40
0.0199946175679547
 50
17.994534717847479
 51
89.6803005599237508
  0
LINE
  5
7023
  8
0
 10
3879.8537613275811964
 20
74.2982190930542856
 30
0.0
 11
3879.9448682058991835
 21
74.2982181804679271
 31
0.0
  0
ENDSEC
  0
EOF
