  0
SECTION
  2
HEADER
  9
$ACADVER
  1
AC1009
  9
$INSBASE
 10
3083.4977245357367792
 20
77.2819258247485976
 30
0.0
  9
$EXTMIN
 10
3075.4741310881518075
 20
77.2788310583759426
 30
-0.0015258207003583
  9
$EXTMAX
 10
3091.5123679586481558
 20
82.4158303618064565
 30
0.0000000349246037
  9
$LIMMIN
 10
0.0
 20
0.0
  9
$LIMMAX
 10
11.6929133858000007
 20
8.2677165353999982
  9
$ORTHOMODE
 70
     1
  9
$REGENMODE
 70
     1
  9
$FILLMODE
 70
     1
  9
$QTEXTMODE
 70
     0
  9
$MIRRTEXT
 70
     0
  9
$DRAGMODE
 70
     2
  9
$LTSCALE
 40
0.6431102362
  9
$OSMODE
 70
  4095
  9
$ATTMODE
 70
     1
  9
$TEXTSIZE
 40
0.2
  9
$TRACEWID
 40
0.05
  9
$TEXTSTYLE
  7
STANDARD
  9
$CLAYER
  8
0
  9
$CELTYPE
  6
BYLAYER
  9
$CECOLOR
 62
   256
  9
$DIMSCALE
 40
1.0
  9
$DIMASZ
 40
0.1875
  9
$DIMEXO
 40
0.0625
  9
$DIMDLI
 40
0.4443307087
  9
$DIMRND
 40
0.0
  9
$DIMDLE
 40
0.0
  9
$DIMEXE
 40
0.125
  9
$DIMTP
 40
0.01
  9
$DIMTM
 40
0.01
  9
$DIMTXT
 40
2.0
  9
$DIMCEN
 40
0.1052362205
  9
$DIMTSZ
 40
0.0
  9
$DIMTOL
 70
     1
  9
$DIMLIM
 70
     0
  9
$DIMTIH
 70
     1
  9
$DIMTOH
 70
     1
  9
$DIMSE1
 70
     0
  9
$DIMSE2
 70
     0
  9
$DIMTAD
 70
     0
  9
$DIMZIN
 70
     0
  9
$DIMBLK
  1

  9
$DIMASO
 70
     1
  9
$DIMSHO
 70
     1
  9
$DIMPOST
  1
\X
  9
$DIMAPOST
  1

  9
$DIMALT
 70
     1
  9
$DIMALTD
 70
     2
  9
$DIMALTF
 40
25.3999999999999986
  9
$DIMLFAC
 40
1.0
  9
$DIMTOFL
 70
     0
  9
$DIMTVP
 40
0.0
  9
$DIMTIX
 70
     0
  9
$DIMSOXD
 70
     0
  9
$DIMSAH
 70
     0
  9
$DIMBLK1
  1

  9
$DIMBLK2
  1

  9
$DIMSTYLE
  2
STANDARD
  9
$DIMCLRD
 70
     0
  9
$DIMCLRE
 70
     0
  9
$DIMCLRT
 70
     0
  9
$DIMTFAC
 40
1.0
  9
$DIMGAP
 40
0.09
  9
$LUNITS
 70
     2
  9
$LUPREC
 70
     4
  9
$SKETCHINC
 40
0.1
  9
$FILLETRAD
 40
0.0
  9
$AUNITS
 70
     0
  9
$AUPREC
 70
     0
  9
$MENU
  1
.
  9
$ELEVATION
 40
0.0
  9
$PELEVATION
 40
0.0
  9
$THICKNESS
 40
0.0
  9
$LIMCHECK
 70
     0
  9
$BLIPMODE
 70
     0
  9
$CHAMFERA
 40
0.0
  9
$CHAMFERB
 40
0.0
  9
$SKPOLY
 70
     0
  9
$TDCREATE
 40
2458060.468368056230247
  9
$TDUPDATE
 40
2459940.5805208338424563
  9
$TDINDWG
 40
0.4477616898
  9
$TDUSRTIMER
 40
0.4477616898
  9
$USRTIMER
 70
     1
  9
$ANGBASE
 50
0.0
  9
$ANGDIR
 70
     0
  9
$PDMODE
 70
     0
  9
$PDSIZE
 40
0.3125
  9
$PLINEWID
 40
0.0
  9
$COORDS
 70
     1
  9
$SPLFRAME
 70
     0
  9
$SPLINETYPE
 70
     6
  9
$SPLINESEGS
 70
     8
  9
$ATTDIA
 70
     1
  9
$ATTREQ
 70
     1
  9
$HANDLING
 70
     1
  9
$HANDSEED
  5
2A04E
  9
$SURFTAB1
 70
     6
  9
$SURFTAB2
 70
     6
  9
$SURFTYPE
 70
     6
  9
$SURFU
 70
     6
  9
$SURFV
 70
     6
  9
$UCSNAME
  2

  9
$UCSORG
 10
0.0
 20
0.0
 30
0.0
  9
$UCSXDIR
 10
1.0
 20
0.0
 30
0.0
  9
$UCSYDIR
 10
0.0
 20
1.0
 30
0.0
  9
$PUCSNAME
  2

  9
$PUCSORG
 10
0.0
 20
0.0
 30
0.0
  9
$PUCSXDIR
 10
1.0
 20
0.0
 30
0.0
  9
$PUCSYDIR
 10
0.0
 20
1.0
 30
0.0
  9
$USERI1
 70
     0
  9
$USERI2
 70
     0
  9
$USERI3
 70
     0
  9
$USERI4
 70
     0
  9
$USERI5
 70
     0
  9
$USERR1
 40
0.0
  9
$USERR2
 40
0.0
  9
$USERR3
 40
0.0
  9
$USERR4
 40
0.0
  9
$USERR5
 40
0.0
  9
$WORLDVIEW
 70
     1
  9
$SHADEDGE
 70
     3
  9
$SHADEDIF
 70
    70
  9
$TILEMODE
 70
     1
  9
$MAXACTVP
 70
    64
  9
$PLIMCHECK
 70
     0
  9
$PEXTMIN
 10
1.0000000000000000E+20
 20
1.0000000000000000E+20
 30
1.0000000000000000E+20
  9
$PEXTMAX
 10
-1.0000000000000000E+20
 20
-1.0000000000000000E+20
 30
-1.0000000000000000E+20
  9
$PLIMMIN
 10
0.0
 20
0.0
  9
$PLIMMAX
 10
12.0
 20
9.0
  9
$UNITMODE
 70
     0
  9
$VISRETAIN
 70
     1
  9
$PLINEGEN
 70
     0
  9
$PSLTSCALE
 70
     1
  0
ENDSEC
  0
SECTION
  2
TABLES
  0
TABLE
  2
VPORT
 70
     1
  0
VPORT
  2
*ACTIVE
 70
     0
 10
0.0
 20
0.0
 11
1.0
 21
1.0
 12
-720.0508178594127457
 22
-46.1479314866587202
 13
0.0
 23
0.0
 14
1.0
 24
1.0
 15
0.0
 25
0.0
 16
0.0
 26
0.0
 36
17.1152628219792007
 17
3803.5440673828129547
 27
125.9952621967499056
 37
0.0
 40
7.046625612380744
 41
2.2831541218637992
 42
50.0
 43
0.0
 44
0.0
 50
0.0
 51
0.0
 71
     0
 72
   100
 73
     1
 74
     1
 75
     0
 76
     0
 77
     0
 78
     0
  0
ENDTAB
  0
TABLE
  2
LTYPE
 70
     2
  0
LTYPE
  2
CONTINUOUS
 70
     0
  3
Solid line
 72
    65
 73
     0
 40
0.0
  0
LTYPE
  2
PHANTOM2
 70
     0
  3
___ _ _ ___ _ _ ___ _ _ ___ _ _
 72
    65
 73
     6
 40
1.25
 49
0.625
 49
-0.125
 49
0.125
 49
-0.125
 49
0.125
 49
-0.125
  0
ENDTAB
  0
TABLE
  2
LAYER
 70
     2
  0
LAYER
  2
0
 70
     0
 62
   255
  6
CONTINUOUS
  0
LAYER
  2
DEFPOINTS
 70
     0
 62
     7
  6
CONTINUOUS
  0
ENDTAB
  0
TABLE
  2
STYLE
 70
     1
  0
STYLE
  2
STANDARD
 70
     0
 40
0.0
 41
0.8
 50
0.0
 71
     0
 42
0.2
  3
txt
  4

  0
ENDTAB
  0
TABLE
  2
VIEW
 70
     0
  0
ENDTAB
  0
TABLE
  2
UCS
 70
     0
  0
ENDTAB
  0
TABLE
  2
APPID
 70
    10
  0
APPID
  2
ACAD
 70
     0
  0
APPID
  2
ACAD_MLEADERVER
 70
     0
  0
APPID
  2
ACAD_EXEMPT_FROM_CAD_STANDARDS
 70
     0
  0
APPID
  2
ACAD_NAV_VCDISPLAY
 70
     0
  0
APPID
  2
ACAECLAYERSTANDARD
 70
     0
  0
APPID
  2
ACCMTRANSPARENCY
 70
     0
  0
APPID
  2
ACAD_DSTYLE_DIMJAG
 70
     0
  0
APPID
  2
ACAD_DSTYLE_DIMTALN
 70
     0
  0
APPID
  2
ACDBATTR
 70
     0
  0
APPID
  2
DCO15
 70
     0
  0
ENDTAB
  0
TABLE
  2
DIMSTYLE
 70
     1
  0
DIMSTYLE
  2
STANDARD
 70
     0
  3

  4

  5

  6

  7

 40
1.0
 41
0.1875
 42
0.0625
 43
0.38
 44
0.125
 45
0.0
 46
0.0
 47
0.01
 48
0.01
140
0.15625
141
0.09
142
0.0
143
25.3999999999999986
144
1.0
145
0.0
146
1.0
147
0.09
 71
     1
 72
     0
 73
     1
 74
     1
 75
     0
 76
     0
 77
     0
 78
     4
170
     0
171
     2
172
     0
173
     0
174
     0
175
     0
176
     0
177
     0
178
     0
  0
ENDTAB
  0
ENDSEC
  0
SECTION
  2
BLOCKS
  0
BLOCK
  8
0
  2
$MODEL_SPACE
 70
     0
 10
0.0
 20
0.0
 30
0.0
  3
$MODEL_SPACE
  1

  0
ENDBLK
  5
21
  8
0
  0
BLOCK
 67
     1
  8
0
  2
$PAPER_SPACE
 70
     0
 10
0.0
 20
0.0
 30
0.0
  3
$PAPER_SPACE
  1

  0
ENDBLK
  5
1D
 67
     1
  8
0
  0
ENDSEC
  0
SECTION
  2
ENTITIES
  0
ATTDEF
  5
29AFA
  8
DEFPOINTS
 10
3083.4985926170052153
 20
77.2876285970983048
 30
0.0
 40
0.001
  1
K-76601IN
  3

  2
MODELNUMBER
 70
     0
1001
ACDBATTR
1070
     0
1070
     1
  0
ATTDEF
  5
29AFB
  8
DEFPOINTS
 10
3083.4985926170052153
 20
77.2859619304316539
 30
0.0
 40
0.001
  1
KANKARA
  3

  2
TRADENAME
 70
     0
1001
ACDBATTR
1070
     0
1070
     1
  0
ATTDEF
  5
29AFC
  8
DEFPOINTS
 10
3083.4985926170052153
 20
77.2842952637649887
 30
0.0
 40
0.001
  1
BATHROOM SINK
  3

  2
PRODUCT
 70
     0
1001
ACDBATTR
1070
     0
1070
     1
  0
LINE
  5
29EEF
  8
0
 10
3075.7727897400300208
 20
82.4123650996640009
 30
0.0
 11
3091.2195476232900546
 21
82.4123650996640009
 31
0.0
  0
ARC
  5
29EF0
  8
0
 10
3075.7969429300010233
 20
82.200289015885744
 30
0.0
 40
0.2134470470549255
 50
96.4973789153432335
 51
160.537496992444602
  0
ARC
  5
29EF1
  8
0
 10
3075.8739948115830884
 20
82.1730602501778691
 30
0.0
 40
0.2951685138631567
 50
160.537496992444602
 51
179.5577019378085879
  0
ARC
  5
29EF2
  8
0
 10
3088.2172320820850473
 20
82.6286027377082064
 30
0.0
 40
12.6465223151153197
 50
182.0539776413901905
 51
191.2354892261986947
  0
ARC
  5
29EF3
  8
0
 10
3082.2961373620760241
 20
81.7487362418895032
 30
0.0
 40
6.6738055996906853
 50
193.7317649297795867
 51
205.4643250842798921
  0
ARC
  5
29EF4
  8
0
 10
3078.4672335387258499
 20
79.8958865456808951
 30
0.0
 40
2.42038311402003
 50
204.8342117694911053
 51
226.6143565820300978
  0
ARC
  5
29EF5
  8
0
 10
3078.097902845236149
 20
79.5282269505985369
 30
0.0
 40
1.899558648456052
 50
227.0928185876082068
 51
239.5051831826444015
  0
ARC
  5
29EF6
  8
0
 10
3073.2783985784180913
 20
71.3446395051306155
 30
0.0
 40
7.5977422763063087
 50
56.1785531139599215
 51
59.5051831826443873
  0
ARC
  5
29EF7
  8
0
 10
3077.2229087782720853
 20
77.2321100062010544
 30
0.0
 40
0.5110315006555169
 50
23.4205196420904613
 51
56.1785531139599215
  0
ARC
  5
29EF8
  8
0
 10
3072.4168496283377863
 20
75.1502986384747942
 30
0.0
 40
5.7486018460984987
 50
22.4639677853148783
 51
23.4205196420904613
  0
ARC
  5
29EF9
  8
0
 10
3077.8265104970159882
 20
77.3870688474368507
 30
0.0
 40
0.1052491668509164
 50
202.4639677853141109
 51
267.4265657953974937
  0
LINE
  5
29EFA
  8
0
 10
3077.8217848304770996
 20
77.2819258248506031
 30
0.0
 11
3088.9482501127758951
 21
77.2819258246506138
 31
0.0
  0
ARC
  5
29EFB
  8
0
 10
3088.9473330475839248
 20
77.3816828742210561
 30
0.0
 40
0.0997612647652777
 50
270.5267044805444243
 51
338.6563314673330183
  0
ARC
  5
29EFC
  8
0
 10
3089.7124366526900303
 20
77.0827094714188945
 30
0.0
 40
0.7216817473354727
 50
141.0049573161948899
 51
158.6563314673329899
  0
ARC
  5
29EFD
  8
0
 10
3089.7256500854769001
 20
77.0720113373212996
 30
0.0
 40
0.738683067260295
 50
121.4586084425840937
 51
141.0049573161956005
  0
ARC
  5
29EFE
  8
0
 10
3054.8029308737450265
 20
134.1532303943012039
 30
0.0
 40
66.1781450567056453
 50
301.4586084425840795
 51
302.019284053606782
  0
ARC
  5
29EFF
  8
0
 10
3088.2304290361021231
 20
80.0928111175643949
 30
0.0
 40
2.6381312326826318
 50
309.0065142154809905
 51
329.5962306184002273
  0
ARC
  5
29F00
  8
0
 10
3084.8910963649850601
 20
81.9200651533172959
 30
0.0
 40
6.4440051078025169
 50
330.6101958735637254
 51
349.316122256078927
  0
ARC
  5
29F01
  8
0
 10
3081.2964696450349038
 20
82.7844682816842834
 30
0.0
 40
10.1382227182770404
 50
348.2817895245449904
 51
356.3216235931271854
  0
ARC
  5
29F02
  8
0
 10
3090.6479677254201306
 20
82.2018349553114689
 30
0.0
 40
0.7688334609600485
 50
354.9414177262523822
 51
358.1957786886063104
  0
ARC
  5
29F03
  8
0
 10
3091.1892376856399096
 20
82.1870180640257644
 30
0.0
 40
0.2273762933800842
 50
357.633332191888428
 51
82.3394990807142761
  0
ENDSEC
  0
EOF
