  0
SECTION
  2
HEADER
  9
$ACADVER
  1
AC1009
  9
$INSBASE
 10
3266.773035460409119
 20
168.5163873691797107
 30
0.0
  9
$EXTMIN
 10
3259.6558054193169482
 20
151.1563729577190998
 30
-0.0015258207003583
  9
$EXTMAX
 10
3274.1114800736968391
 20
168.5263827419530003
 30
0.0000000349246037
  9
$LIMMIN
 10
0.0
 20
0.0
  9
$LIMMAX
 10
11.6929133858000007
 20
8.2677165353999982
  9
$ORTHOMODE
 70
     0
  9
$REGENMODE
 70
     1
  9
$FILLMODE
 70
     1
  9
$QTEXTMODE
 70
     0
  9
$MIRRTEXT
 70
     0
  9
$DRAGMODE
 70
     2
  9
$LTSCALE
 40
0.6431102362
  9
$OSMODE
 70
  2039
  9
$ATTMODE
 70
     1
  9
$TEXTSIZE
 40
0.2
  9
$TRACEWID
 40
0.05
  9
$TEXTSTYLE
  7
STANDARD
  9
$CLAYER
  8
0
  9
$CELTYPE
  6
BYLAYER
  9
$CECOLOR
 62
   256
  9
$DIMSCALE
 40
1.0
  9
$DIMASZ
 40
0.1875
  9
$DIMEXO
 40
0.0625
  9
$DIMDLI
 40
0.4443307087
  9
$DIMRND
 40
0.0
  9
$DIMDLE
 40
0.0
  9
$DIMEXE
 40
0.125
  9
$DIMTP
 40
0.01
  9
$DIMTM
 40
0.01
  9
$DIMTXT
 40
2.0
  9
$DIMCEN
 40
0.1052362205
  9
$DIMTSZ
 40
0.0
  9
$DIMTOL
 70
     1
  9
$DIMLIM
 70
     0
  9
$DIMTIH
 70
     1
  9
$DIMTOH
 70
     1
  9
$DIMSE1
 70
     0
  9
$DIMSE2
 70
     0
  9
$DIMTAD
 70
     0
  9
$DIMZIN
 70
     0
  9
$DIMBLK
  1

  9
$DIMASO
 70
     1
  9
$DIMSHO
 70
     1
  9
$DIMPOST
  1
\X
  9
$DIMAPOST
  1

  9
$DIMALT
 70
     1
  9
$DIMALTD
 70
     2
  9
$DIMALTF
 40
25.3999999999999986
  9
$DIMLFAC
 40
1.0
  9
$DIMTOFL
 70
     0
  9
$DIMTVP
 40
0.0
  9
$DIMTIX
 70
     0
  9
$DIMSOXD
 70
     0
  9
$DIMSAH
 70
     0
  9
$DIMBLK1
  1

  9
$DIMBLK2
  1

  9
$DIMSTYLE
  2
STANDARD
  9
$DIMCLRD
 70
     0
  9
$DIMCLRE
 70
     0
  9
$DIMCLRT
 70
     0
  9
$DIMTFAC
 40
1.0
  9
$DIMGAP
 40
0.09
  9
$LUNITS
 70
     2
  9
$LUPREC
 70
     4
  9
$SKETCHINC
 40
0.1
  9
$FILLETRAD
 40
0.0
  9
$AUNITS
 70
     0
  9
$AUPREC
 70
     0
  9
$MENU
  1
.
  9
$ELEVATION
 40
0.0
  9
$PELEVATION
 40
0.0
  9
$THICKNESS
 40
0.0
  9
$LIMCHECK
 70
     0
  9
$BLIPMODE
 70
     0
  9
$CHAMFERA
 40
0.0
  9
$CHAMFERB
 40
0.0
  9
$SKPOLY
 70
     0
  9
$TDCREATE
 40
2458060.468368056230247
  9
$TDUPDATE
 40
2459192.788101851940155
  9
$TDINDWG
 40
0.5879700231
  9
$TDUSRTIMER
 40
0.5879700231
  9
$USRTIMER
 70
     1
  9
$ANGBASE
 50
0.0
  9
$ANGDIR
 70
     0
  9
$PDMODE
 70
     0
  9
$PDSIZE
 40
0.3125
  9
$PLINEWID
 40
0.0
  9
$COORDS
 70
     1
  9
$SPLFRAME
 70
     0
  9
$SPLINETYPE
 70
     6
  9
$SPLINESEGS
 70
     8
  9
$ATTDIA
 70
     1
  9
$ATTREQ
 70
     1
  9
$HANDLING
 70
     1
  9
$HANDSEED
  5
22A01
  9
$SURFTAB1
 70
     6
  9
$SURFTAB2
 70
     6
  9
$SURFTYPE
 70
     6
  9
$SURFU
 70
     6
  9
$SURFV
 70
     6
  9
$UCSNAME
  2

  9
$UCSORG
 10
0.0
 20
0.0
 30
0.0
  9
$UCSXDIR
 10
1.0
 20
0.0
 30
0.0
  9
$UCSYDIR
 10
0.0
 20
1.0
 30
0.0
  9
$PUCSNAME
  2

  9
$PUCSORG
 10
0.0
 20
0.0
 30
0.0
  9
$PUCSXDIR
 10
1.0
 20
0.0
 30
0.0
  9
$PUCSYDIR
 10
0.0
 20
1.0
 30
0.0
  9
$USERI1
 70
     0
  9
$USERI2
 70
     0
  9
$USERI3
 70
     0
  9
$USERI4
 70
     0
  9
$USERI5
 70
     0
  9
$USERR1
 40
0.0
  9
$USERR2
 40
0.0
  9
$USERR3
 40
0.0
  9
$USERR4
 40
0.0
  9
$USERR5
 40
0.0
  9
$WORLDVIEW
 70
     1
  9
$SHADEDGE
 70
     3
  9
$SHADEDIF
 70
    70
  9
$TILEMODE
 70
     1
  9
$MAXACTVP
 70
    64
  9
$PLIMCHECK
 70
     0
  9
$PEXTMIN
 10
1.0000000000000000E+20
 20
1.0000000000000000E+20
 30
1.0000000000000000E+20
  9
$PEXTMAX
 10
-1.0000000000000000E+20
 20
-1.0000000000000000E+20
 30
-1.0000000000000000E+20
  9
$PLIMMIN
 10
0.0
 20
0.0
  9
$PLIMMAX
 10
12.0
 20
9.0
  9
$UNITMODE
 70
     0
  9
$VISRETAIN
 70
     1
  9
$PLINEGEN
 70
     0
  9
$PSLTSCALE
 70
     1
  0
ENDSEC
  0
SECTION
  2
TABLES
  0
TABLE
  2
VPORT
 70
     1
  0
VPORT
  2
*ACTIVE
 70
     0
 10
0.0
 20
0.0
 11
1.0
 21
1.0
 12
-36.8094724878683266
 22
-35.420133726051688
 13
0.0
 23
0.0
 14
1.0
 24
1.0
 15
0.0
 25
0.0
 16
0.0
 26
0.0
 36
96.5995694866707311
 17
3303.693115234375
 27
195.2615115758877096
 37
0.0
 40
17.5145591028267518
 41
2.6486111111111108
 42
50.0
 43
0.0
 44
0.0
 50
0.0
 51
0.0
 71
     0
 72
   100
 73
     1
 74
     1
 75
     0
 76
     0
 77
     0
 78
     0
  0
ENDTAB
  0
TABLE
  2
LTYPE
 70
     2
  0
LTYPE
  2
CONTINUOUS
 70
     0
  3
Solid line
 72
    65
 73
     0
 40
0.0
  0
LTYPE
  2
PHANTOM2
 70
     0
  3
___ _ _ ___ _ _ ___ _ _ ___ _ _
 72
    65
 73
     6
 40
1.25
 49
0.625
 49
-0.125
 49
0.125
 49
-0.125
 49
0.125
 49
-0.125
  0
ENDTAB
  0
TABLE
  2
LAYER
 70
     2
  0
LAYER
  2
0
 70
     0
 62
   255
  6
CONTINUOUS
  0
LAYER
  2
DEFPOINTS
 70
     0
 62
     7
  6
CONTINUOUS
  0
ENDTAB
  0
TABLE
  2
STYLE
 70
     1
  0
STYLE
  2
STANDARD
 70
     0
 40
0.0
 41
0.8
 50
0.0
 71
     0
 42
0.2
  3
txt
  4

  0
ENDTAB
  0
TABLE
  2
VIEW
 70
     0
  0
ENDTAB
  0
TABLE
  2
UCS
 70
     0
  0
ENDTAB
  0
TABLE
  2
APPID
 70
     9
  0
APPID
  2
ACAD
 70
     0
  0
APPID
  2
ACAD_MLEADERVER
 70
     0
  0
APPID
  2
ACAD_EXEMPT_FROM_CAD_STANDARDS
 70
     0
  0
APPID
  2
ACAD_NAV_VCDISPLAY
 70
     0
  0
APPID
  2
ACAECLAYERSTANDARD
 70
     0
  0
APPID
  2
ACCMTRANSPARENCY
 70
     0
  0
APPID
  2
ACAD_DSTYLE_DIMJAG
 70
     0
  0
APPID
  2
ACAD_DSTYLE_DIMTALN
 70
     0
  0
APPID
  2
ACDBATTR
 70
     0
  0
ENDTAB
  0
TABLE
  2
DIMSTYLE
 70
     1
  0
DIMSTYLE
  2
STANDARD
 70
     0
  3

  4

  5

  6

  7

 40
1.0
 41
0.1875
 42
0.0625
 43
0.38
 44
0.125
 45
0.0
 46
0.0
 47
0.01
 48
0.01
140
0.15625
141
0.09
142
0.0
143
25.3999999999999986
144
1.0
145
0.0
146
1.0
147
0.09
 71
     1
 72
     0
 73
     1
 74
     1
 75
     0
 76
     0
 77
     0
 78
     4
170
     0
171
     2
172
     0
173
     0
174
     0
175
     0
176
     0
177
     0
178
     0
  0
ENDTAB
  0
ENDSEC
  0
SECTION
  2
BLOCKS
  0
BLOCK
  8
0
  2
$MODEL_SPACE
 70
     0
 10
0.0
 20
0.0
 30
0.0
  3
$MODEL_SPACE
  1

  0
ENDBLK
  5
21
  8
0
  0
BLOCK
 67
     1
  8
0
  2
$PAPER_SPACE
 70
     0
 10
0.0
 20
0.0
 30
0.0
  3
$PAPER_SPACE
  1

  0
ENDBLK
  5
1D
 67
     1
  8
0
  0
BLOCK
  8
0
  2
_FILLED
 70
     0
 10
0.0
 20
0.0
 30
0.0
  3
_FILLED
  1

  0
SOLID
  5
211E5
  8
0
  6
BYBLOCK
 62
     0
 10
0.0
 20
0.0
 30
0.0
 11
-1.0
 21
0.1666666667
 31
0.0
 12
-1.0
 22
-0.1666666667
 32
0.0
 13
-1.0
 23
-0.1666666667
 33
0.0
  0
ENDBLK
  5
211E6
  8
0
  6
BYBLOCK
 62
     0
  0
ENDSEC
  0
SECTION
  2
ENTITIES
  0
ATTDEF
  5
2213F
  8
DEFPOINTS
 10
3266.7732722380560517
 20
168.5202394894859879
 30
0.0
 40
0.001
  1
K-76417K
  3

  2
MODELNUMBER
 70
     0
1001
ACDBATTR
1070
     0
1070
     1
  0
ATTDEF
  5
22140
  8
DEFPOINTS
 10
3266.7732722380560517
 20
168.518572822819408
 30
0.0
 40
0.001
  1
MODERNLIFE
  3

  2
TRADENAME
 70
     0
1001
ACDBATTR
1070
     0
1070
     1
  0
ATTDEF
  5
22141
  8
DEFPOINTS
 10
3266.7732722380560517
 20
168.516906156152686
 30
0.0
 40
0.001
  1
TOILET SHEET
  3

  2
PRODUCT
 70
     0
1001
ACDBATTR
1070
     0
1070
     1
  0
ARC
  5
22851
  8
0
 10
3266.7738167867159973
 20
164.0647770580202121
 30
0.0
 40
12.9077286688879607
 50
263.5345213656059968
 51
269.9965317910672979
  0
ARC
  5
22852
  8
0
 10
3265.8942808397159752
 20
157.886630785386302
 30
0.0
 40
6.6722179290507047
 50
237.8534275020874986
 51
265.0654142051334929
  0
ARC
  5
22853
  8
0
 10
3265.4702454672578824
 20
156.6283735101605998
 30
0.0
 40
5.390189920245696
 50
196.1069795419516026
 51
234.5513523830232998
  0
ARC
  5
22854
  8
0
 10
3269.002771261063117
 20
157.9449138260519021
 30
0.0
 40
9.1537300646994701
 50
190.2382525504561954
 51
197.890069951727213
  0
ARC
  5
22855
  8
0
 10
3295.7709280265248708
 20
161.1537918868484098
 30
0.0
 40
36.1014881251410173
 50
177.9738739827444931
 51
187.6980424311745139
  0
ARC
  5
22856
  8
0
 10
6722.6465324695500385
 20
171.8515711904011027
 30
0.0
 40
3462.9673382941828095
 50
180.0945578462618926
 51
180.1558800003448084
  0
ARC
  5
22857
  8
0
 10
3262.0476812469250945
 20
166.1312518140792065
 30
0.0
 40
2.3637769151664041
 50
119.1122154851103971
 51
179.8732649302444884
  0
ARC
  5
22858
  8
0
 10
3262.051912627080128
 20
166.1337542749099043
 30
0.0
 40
2.363654360759528
 50
93.2384586830539064
 51
119.2313404680346025
  0
ARC
  5
22859
  8
0
 10
3262.2889706110058796
 20
148.2092480595578934
 30
0.0
 40
20.2877708954415006
 50
89.6780380720239521
 51
91.0466465227808044
  0
ARC
  5
2285A
  8
0
 10
3262.4029429961869937
 20
168.4178965447833036
 30
0.0
 40
0.0788021085297682
 50
21.0682440872852794
 51
89.9781883441860231
  0
LINE
  5
2285B
  8
0
 10
3262.027679257753789
 20
168.4462243005797006
 30
0.0
 11
3271.5183916630649037
 21
168.4462243005797006
 31
0.0
  0
ARC
  5
2285C
  8
0
 10
3262.0500532293590368
 20
166.08250464255579
 30
0.0
 40
2.3638255469331741
 50
90.5423214448186258
 51
102.1393302530958067
  0
ARC
  5
2285D
  8
0
 10
3262.0504260151219569
 20
166.0807715575054999
 30
0.0
 40
2.3655982716770581
 50
102.1393302530958067
 51
138.8732123730252113
  0
ARC
  5
2285E
  8
0
 10
3262.0555383834848726
 20
166.0763075434653899
 30
0.0
 40
2.372385298392071
 50
138.8732123730252113
 51
178.5466031702827934
  0
ARC
  5
2285F
  8
0
 10
3262.2504651006311178
 20
168.485931680334204
 30
0.0
 40
0.2495805855534236
 50
350.8455464037381262
 51
1.1717609650411149
  0
ARC
  5
22860
  8
0
 10
3262.6690264757748992
 20
168.4944929089870982
 30
0.0
 40
0.1690683358570065
 50
172.5592619727459009
 51
181.1717609650395104
  0
LINE
  5
22861
  8
0
 10
3262.5013818074958181
 20
168.5163873691797107
 30
0.0
 11
3263.0132358799278336
 21
168.5163873691797107
 31
0.0
  0
ARC
  5
22862
  8
0
 10
3262.7187165679829377
 20
168.4880474571185118
 30
0.0
 40
0.2958796642632267
 50
0.5786346906471462
 51
5.4963237637075784
  0
ARC
  5
22863
  8
0
 10
3263.4654521164879952
 20
168.4955485927804091
 30
0.0
 40
0.4508935593546545
 50
180.5734932328041111
 51
186.2802866337657974
  0
ARC
  5
22864
  8
0
 10
3266.7722541341031501
 20
164.06477705802061
 30
0.0
 40
12.9077286688883994
 50
270.0034682089327021
 51
276.4654786343941169
  0
ARC
  5
22865
  8
0
 10
3267.651790081101808
 20
157.886630785386302
 30
0.0
 40
6.6722179290507047
 50
274.9345857948663934
 51
302.146572497912473
  0
ARC
  5
22866
  8
0
 10
3268.0758254535608103
 20
156.6283735101605998
 30
0.0
 40
5.390189920245696
 50
305.4486476169765865
 51
343.8930204580483974
  0
ARC
  5
22867
  8
0
 10
3264.543299659755121
 20
157.9449138260519021
 30
0.0
 40
9.1537300646994701
 50
342.1099300482728154
 51
349.7617474495438046
  0
ARC
  5
22868
  8
0
 10
3237.7751428942938219
 20
161.1537918868484098
 30
0.0
 40
36.1014881251410173
 50
352.3019575688254008
 51
2.026126017255518
  0
ARC
  5
22869
  8
0
 10
-189.100461548731289
 20
171.8515711904011027
 30
0.0
 40
3462.9673382941828095
 50
359.8441199996536284
 51
359.905442153738079
  0
ARC
  5
2286A
  8
0
 10
3271.498389673894053
 20
166.1312518140792065
 30
0.0
 40
2.3637769151664041
 50
0.1267350697554641
 51
60.8877845148895602
  0
ARC
  5
2286B
  8
0
 10
3271.4941582937390194
 20
166.1337542749099043
 30
0.0
 40
2.363654360759528
 50
60.7686595319653478
 51
86.7615413169461078
  0
ARC
  5
2286C
  8
0
 10
3271.2571003098109941
 20
148.2092480595578934
 30
0.0
 40
20.2877708954415006
 50
88.953353477219224
 51
90.3219619279760622
  0
ARC
  5
2286D
  8
0
 10
3271.1431279246321537
 20
168.4178965447833036
 30
0.0
 40
0.0788021085297682
 50
90.0218116558139769
 51
158.9317559127146922
  0
ARC
  5
2286E
  8
0
 10
3271.4960176914601107
 20
166.08250464255579
 30
0.0
 40
2.3638255469331741
 50
77.8606697469042359
 51
89.4576785551813742
  0
ARC
  5
2286F
  8
0
 10
3271.4956449056971906
 20
166.0807715575054999
 30
0.0
 40
2.3655982716770581
 50
41.1267876269747603
 51
77.8606697469042359
  0
ARC
  5
22870
  8
0
 10
3271.4905325373329106
 20
166.0763075434653899
 30
0.0
 40
2.372385298392071
 50
1.453396829717178
 51
41.1267876269747603
  0
ARC
  5
22871
  8
0
 10
3271.2956058201871201
 20
168.485931680334204
 30
0.0
 40
0.2495805855534236
 50
178.8282390349588127
 51
189.1544535962619022
  0
ARC
  5
22872
  8
0
 10
3270.8770444450437935
 20
168.4944929089870982
 30
0.0
 40
0.1690683358570065
 50
358.8282390349589264
 51
7.4407380272541142
  0
LINE
  5
22873
  8
0
 10
3271.0446891133228746
 20
168.5163873691797107
 30
0.0
 11
3270.5328373338988968
 21
168.5163873691797107
 31
0.0
  0
ARC
  5
22874
  8
0
 10
3270.8261215051202271
 20
168.4880863497295138
 30
0.0
 40
0.2946464878293383
 50
174.4881994220054082
 51
179.4265067671958036
  0
ARC
  5
22875
  8
0
 10
3270.080618804329788
 20
168.4955485927804091
 30
0.0
 40
0.4508935593546545
 50
353.7197133662340889
 51
359.4265067671959173
  0
ENDSEC
  0
EOF
