  0
SECTION
  2
HEADER
  9
$ACADVER
  1
AC1009
  9
$INSBASE
 10
673.1973030873598418
 20
110.1572319371799011
 30
0.0
  9
$EXTMIN
 10
668.733897246259744
 20
109.7211723192126982
 30
-0.0015258207003583
  9
$EXTMAX
 10
677.638407886641744
 20
110.1708632988039938
 30
0.0000000349246037
  9
$LIMMIN
 10
0.0
 20
0.0
  9
$LIMMAX
 10
11.6929133858000007
 20
8.2677165353999982
  9
$ORTHOMODE
 70
     0
  9
$REGENMODE
 70
     1
  9
$FILLMODE
 70
     1
  9
$QTEXTMODE
 70
     0
  9
$MIRRTEXT
 70
     0
  9
$DRAGMODE
 70
     2
  9
$LTSCALE
 40
0.6431102362
  9
$OSMODE
 70
  4095
  9
$ATTMODE
 70
     1
  9
$TEXTSIZE
 40
0.2
  9
$TRACEWID
 40
0.05
  9
$TEXTSTYLE
  7
STANDARD
  9
$CLAYER
  8
0
  9
$CELTYPE
  6
BYLAYER
  9
$CECOLOR
 62
   256
  9
$DIMSCALE
 40
1.0
  9
$DIMASZ
 40
0.1875
  9
$DIMEXO
 40
0.0625
  9
$DIMDLI
 40
0.4443307087
  9
$DIMRND
 40
0.0
  9
$DIMDLE
 40
0.0
  9
$DIMEXE
 40
0.125
  9
$DIMTP
 40
0.01
  9
$DIMTM
 40
0.01
  9
$DIMTXT
 40
1.0
  9
$DIMCEN
 40
0.1052362205
  9
$DIMTSZ
 40
0.0
  9
$DIMTOL
 70
     1
  9
$DIMLIM
 70
     0
  9
$DIMTIH
 70
     0
  9
$DIMTOH
 70
     1
  9
$DIMSE1
 70
     0
  9
$DIMSE2
 70
     0
  9
$DIMTAD
 70
     0
  9
$DIMZIN
 70
     0
  9
$DIMBLK
  1

  9
$DIMASO
 70
     1
  9
$DIMSHO
 70
     1
  9
$DIMPOST
  1
\X
  9
$DIMAPOST
  1

  9
$DIMALT
 70
     1
  9
$DIMALTD
 70
     2
  9
$DIMALTF
 40
25.3999999999999986
  9
$DIMLFAC
 40
1.0
  9
$DIMTOFL
 70
     0
  9
$DIMTVP
 40
0.0
  9
$DIMTIX
 70
     0
  9
$DIMSOXD
 70
     0
  9
$DIMSAH
 70
     0
  9
$DIMBLK1
  1

  9
$DIMBLK2
  1

  9
$DIMSTYLE
  2
STANDARD
  9
$DIMCLRD
 70
     0
  9
$DIMCLRE
 70
     0
  9
$DIMCLRT
 70
     0
  9
$DIMTFAC
 40
1.0
  9
$DIMGAP
 40
0.09
  9
$LUNITS
 70
     2
  9
$LUPREC
 70
     4
  9
$SKETCHINC
 40
0.1
  9
$FILLETRAD
 40
0.0
  9
$AUNITS
 70
     0
  9
$AUPREC
 70
     0
  9
$MENU
  1
.
  9
$ELEVATION
 40
0.0
  9
$PELEVATION
 40
0.0
  9
$THICKNESS
 40
0.0
  9
$LIMCHECK
 70
     0
  9
$BLIPMODE
 70
     0
  9
$CHAMFERA
 40
0.0
  9
$CHAMFERB
 40
0.0
  9
$SKPOLY
 70
     0
  9
$TDCREATE
 40
2458172.5207638889551163
  9
$TDUPDATE
 40
2459107.7245023148134351
  9
$TDINDWG
 40
0.373970625
  9
$TDUSRTIMER
 40
0.373970625
  9
$USRTIMER
 70
     1
  9
$ANGBASE
 50
0.0
  9
$ANGDIR
 70
     0
  9
$PDMODE
 70
     0
  9
$PDSIZE
 40
0.3125
  9
$PLINEWID
 40
0.0
  9
$COORDS
 70
     1
  9
$SPLFRAME
 70
     0
  9
$SPLINETYPE
 70
     6
  9
$SPLINESEGS
 70
     8
  9
$ATTDIA
 70
     1
  9
$ATTREQ
 70
     1
  9
$HANDLING
 70
     1
  9
$HANDSEED
  5
AD8D
  9
$SURFTAB1
 70
     6
  9
$SURFTAB2
 70
     6
  9
$SURFTYPE
 70
     6
  9
$SURFU
 70
     6
  9
$SURFV
 70
     6
  9
$UCSNAME
  2

  9
$UCSORG
 10
0.0
 20
0.0
 30
0.0
  9
$UCSXDIR
 10
1.0
 20
0.0
 30
0.0
  9
$UCSYDIR
 10
0.0
 20
1.0
 30
0.0
  9
$PUCSNAME
  2

  9
$PUCSORG
 10
0.0
 20
0.0
 30
0.0
  9
$PUCSXDIR
 10
1.0
 20
0.0
 30
0.0
  9
$PUCSYDIR
 10
0.0
 20
1.0
 30
0.0
  9
$USERI1
 70
     0
  9
$USERI2
 70
     0
  9
$USERI3
 70
     0
  9
$USERI4
 70
     0
  9
$USERI5
 70
     0
  9
$USERR1
 40
0.0
  9
$USERR2
 40
0.0
  9
$USERR3
 40
0.0
  9
$USERR4
 40
0.0
  9
$USERR5
 40
0.0
  9
$WORLDVIEW
 70
     1
  9
$SHADEDGE
 70
     3
  9
$SHADEDIF
 70
    70
  9
$TILEMODE
 70
     1
  9
$MAXACTVP
 70
    64
  9
$PLIMCHECK
 70
     0
  9
$PEXTMIN
 10
1.0000000000000000E+20
 20
1.0000000000000000E+20
 30
1.0000000000000000E+20
  9
$PEXTMAX
 10
-1.0000000000000000E+20
 20
-1.0000000000000000E+20
 30
-1.0000000000000000E+20
  9
$PLIMMIN
 10
0.0
 20
0.0
  9
$PLIMMAX
 10
12.0
 20
9.0
  9
$UNITMODE
 70
     0
  9
$VISRETAIN
 70
     1
  9
$PLINEGEN
 70
     0
  9
$PSLTSCALE
 70
     1
  0
ENDSEC
  0
SECTION
  2
TABLES
  0
TABLE
  2
VPORT
 70
     1
  0
VPORT
  2
*ACTIVE
 70
     0
 10
0.0
 20
0.0
 11
1.0
 21
1.0
 12
206.4439508586206955
 22
20.8128706890785509
 13
0.0
 23
0.0
 14
1.0
 24
1.0
 15
0.0
 25
0.0
 16
0.0
 26
0.0
 36
24.1179433675886514
 17
466.74220170783002
 27
89.133147119929788
 37
0.0
 40
4.4545246482497021
 41
2.005224660397074
 42
50.0
 43
0.0
 44
0.0
 50
0.0
 51
0.0
 71
     0
 72
   100
 73
     1
 74
     1
 75
     0
 76
     0
 77
     0
 78
     0
  0
ENDTAB
  0
TABLE
  2
LTYPE
 70
     2
  0
LTYPE
  2
CONTINUOUS
 70
     0
  3
Solid line
 72
    65
 73
     0
 40
0.0
  0
LTYPE
  2
PHANTOM2
 70
     0
  3
___ _ _ ___ _ _ ___ _ _ ___ _ _
 72
    65
 73
     6
 40
1.25
 49
0.625
 49
-0.125
 49
0.125
 49
-0.125
 49
0.125
 49
-0.125
  0
ENDTAB
  0
TABLE
  2
LAYER
 70
     2
  0
LAYER
  2
0
 70
     0
 62
   255
  6
CONTINUOUS
  0
LAYER
  2
DEFPOINTS
 70
     0
 62
     7
  6
CONTINUOUS
  0
ENDTAB
  0
TABLE
  2
STYLE
 70
     1
  0
STYLE
  2
STANDARD
 70
     0
 40
0.0
 41
0.8
 50
0.0
 71
     0
 42
0.2
  3
txt
  4

  0
ENDTAB
  0
TABLE
  2
VIEW
 70
     0
  0
ENDTAB
  0
TABLE
  2
UCS
 70
     0
  0
ENDTAB
  0
TABLE
  2
APPID
 70
    11
  0
APPID
  2
ACAD
 70
     0
  0
APPID
  2
ACAD_MLEADERVER
 70
     0
  0
APPID
  2
ACAD_EXEMPT_FROM_CAD_STANDARDS
 70
     0
  0
APPID
  2
ACAD_DSTYLE_DIMJAG
 70
     0
  0
APPID
  2
ACAD_DSTYLE_DIMTALN
 70
     0
  0
APPID
  2
ACAD_NAV_VCDISPLAY
 70
     0
  0
APPID
  2
ACAECLAYERSTANDARD
 70
     0
  0
APPID
  2
ACCMTRANSPARENCY
 70
     0
  0
APPID
  2
DCO15
 70
     0
  0
APPID
  2
ACDBATTR
 70
     0
  0
APPID
  2
ACADANNOTATIVE
 70
     0
  0
ENDTAB
  0
TABLE
  2
DIMSTYLE
 70
     1
  0
DIMSTYLE
  2
STANDARD
 70
     0
  3

  4

  5

  6

  7

 40
1.0
 41
0.1875
 42
0.0625
 43
0.38
 44
0.125
 45
0.0
 46
0.0
 47
0.01
 48
0.01
140
0.15625
141
0.09
142
0.0
143
25.3999999999999986
144
1.0
145
0.0
146
1.0
147
0.09
 71
     1
 72
     0
 73
     1
 74
     1
 75
     0
 76
     0
 77
     0
 78
     4
170
     0
171
     2
172
     0
173
     0
174
     0
175
     0
176
     0
177
     0
178
     0
  0
ENDTAB
  0
ENDSEC
  0
SECTION
  2
BLOCKS
  0
BLOCK
  8
0
  2
$MODEL_SPACE
 70
     0
 10
0.0
 20
0.0
 30
0.0
  3
$MODEL_SPACE
  1

  0
ENDBLK
  5
21
  8
0
  0
BLOCK
 67
     1
  8
0
  2
$PAPER_SPACE
 70
     0
 10
0.0
 20
0.0
 30
0.0
  3
$PAPER_SPACE
  1

  0
ENDBLK
  5
1D
 67
     1
  8
0
  0
ENDSEC
  0
SECTION
  2
ENTITIES
  0
ATTDEF
  5
829
  8
DEFPOINTS
 10
673.1942240148874816
 20
110.1621442617716014
 30
0.0
 40
0.001
  1
K-75891T
  3

  2
MODELNUMBER
 70
     0
1001
ACDBATTR
1070
     0
1070
     1
  0
ATTDEF
  5
82A
  8
DEFPOINTS
 10
673.1942240148874816
 20
110.160477595104993
 30
0.0
 40
0.001
  1
NOTE
  3

  2
TRADENAME
 70
     0
1001
ACDBATTR
1070
     0
1070
     1
  0
ATTDEF
  5
82B
  8
DEFPOINTS
 10
673.1942240148874816
 20
110.1588109284382995
 30
0.0
 40
0.001
  1
FLUSH ACTUATOR PLATE
  3

  2
PRODUCT
 70
     0
1001
ACDBATTR
1070
     0
1070
     1
  0
LINE
  5
ACAD
  8
0
 10
674.2189566306564075
 20
109.7320610710798974
 30
0.0
 11
674.2189566306564075
 21
110.1572319371799011
 31
0.0
  0
LINE
  5
ACAE
  8
0
 10
674.3410038747563249
 20
109.7320610710798974
 30
0.0
 11
674.3410038747563249
 21
110.1572319371799011
 31
0.0
  0
LINE
  5
ACAF
  8
0
 10
674.3331038747562616
 20
109.7241610710799051
 30
0.0
 11
674.2268566306562434
 21
109.7241610710799051
 31
0.0
  0
ARC
  5
ACB0
  8
0
 10
674.3331038747562616
 20
109.7320610710798974
 30
0.0
 40
0.0079
 50
270.000000000019611
 51
359.9999999999740226
  0
ARC
  5
ACB1
  8
0
 10
674.2268566306562434
 20
109.7320610710798974
 30
0.0
 40
0.0079
 50
180.0000000000381988
 51
269.9999999999673719
  0
LINE
  5
ACB2
  8
0
 10
677.6264369456563372
 20
110.1572319371799011
 30
0.0
 11
668.7681692290633464
 21
110.1572319371799011
 31
0.0
  0
LINE
  5
ACB3
  8
0
 10
677.5811154498458109
 20
109.7628902223677017
 30
0.0
 11
675.9282046201564071
 21
109.7439954324799061
 31
0.0
  0
LINE
  5
ACB4
  8
0
 10
675.9282046201564071
 20
109.7439954324799061
 30
0.0
 11
674.3697742111362459
 21
109.747665006142995
 31
0.0
  0
LINE
  5
ACB5
  8
0
 10
674.3502211086511124
 20
109.767093911710802
 30
0.0
 11
674.3468164256563568
 21
110.1572319371799011
 31
0.0
  0
ARC
  5
ACB6
  8
0
 10
674.3698203623431482
 20
109.7672649518079027
 30
0.0
 40
0.0196
 50
180.5000000038706105
 51
269.865088172224489
  0
LINE
  5
ACB7
  8
0
 10
677.620058754689353
 20
109.8015811678969982
 30
0.0
 11
677.6264369456563372
 21
110.1572319367904953
 31
0.0
  0
ARC
  5
ACB8
  8
0
 10
677.5806650891408935
 20
109.8022876483652936
 30
0.0
 40
0.0394
 50
270.6549322229071208
 51
358.9725756712037992
  0
LINE
  5
ACB9
  8
0
 10
674.2097420344551892
 20
109.7673961665691991
 30
0.0
 11
674.2131440797563755
 21
110.1572319371799011
 31
0.0
  0
ARC
  5
ACBA
  8
0
 10
671.1501855961519141
 20
216.6264783851210893
 30
0.0
 40
106.8891355412603019
 50
268.7472212398799911
 51
270.4116881391723268
  0
ARC
  5
ACBB
  8
0
 10
668.8140900819619219
 20
109.8022833589667044
 30
0.0
 40
0.0394
 50
181.0514066987894921
 51
268.7472212397888143
  0
ARC
  5
ACBC
  8
0
 10
674.1103231051180273
 20
-195.3369742679986985
 30
0.0
 40
305.0849519156467977
 50
89.9850106117421973
 51
90.41168813917227
  0
ARC
  5
ACBD
  8
0
 10
674.1901427807631535
 20
109.7675672066686019
 30
0.0
 40
0.0196
 50
269.9850106117813198
 51
359.4999999895819087
  0
LINE
  5
ACBE
  8
0
 10
674.1511370700158068
 20
109.7334769301558026
 30
0.0
 11
671.5658829546853212
 21
109.7362898889391971
 31
0.0
  0
ARC
  5
ACBF
  8
0
 10
674.1513271742562665
 20
109.7728465498799011
 30
0.0
 40
0.039370078700009
 50
269.7233377901285962
 51
320.8108132734511742
  0
ARC
  5
ACC0
  8
0
 10
671.5654017222182119
 20
109.7658553400671053
 30
0.0
 40
0.029569367343387
 50
249.7698016151879017
 51
270.9325125668927967
  0
LINE
  5
ACC1
  8
0
 10
674.4156951919152334
 20
109.7334769301558026
 30
0.0
 11
675.8136686540564142
 21
109.7430147778799068
 31
0.0
  0
ARC
  5
ACC2
  8
0
 10
674.4155050876747737
 20
109.7728465498799011
 30
0.0
 40
0.039370078700009
 50
219.1891867265487974
 51
270.2766622098714038
  0
ARC
  5
ACC3
  8
0
 10
675.8128305767118036
 20
109.7823330764716019
 30
0.0
 40
0.0393272294699979
 50
271.2210860152961232
 51
284.4155821336173062
  0
LINE
  5
ACC4
  8
0
 10
674.2189566306564075
 20
109.9210114647798946
 30
0.0
 11
674.2110826148813203
 21
109.9210114647798946
 31
0.0
  0
LINE
  5
ACC5
  8
0
 10
674.3410038747563249
 20
109.9210114647798946
 30
0.0
 11
674.3488778905043546
 21
109.9210114647798946
 31
0.0
  0
LINE
  5
ACC6
  8
0
 10
668.7746967155768516
 20
109.8015603895022991
 30
0.0
 11
668.7681692290562978
 21
110.1572319371799011
 31
0.0
  0
ENDSEC
  0
EOF
