  0
SECTION
  2
HEADER
  9
$ACADVER
  1
AC1009
  9
$INSBASE
 10
668.6397765785925458
 20
109.045754683076197
 30
0.0
  9
$EXTMIN
 10
664.2005806980428133
 20
105.8517690052308069
 30
-0.0000000000000053
  9
$EXTMAX
 10
673.099328608186056
 20
112.2431225598792963
 30
0.0000000000000099
  9
$LIMMIN
 10
0.0
 20
0.0
  9
$LIMMAX
 10
11.6929133858000007
 20
8.2677165353999982
  9
$ORTHOMODE
 70
     0
  9
$REGENMODE
 70
     1
  9
$FILLMODE
 70
     1
  9
$QTEXTMODE
 70
     0
  9
$MIRRTEXT
 70
     0
  9
$DRAGMODE
 70
     2
  9
$LTSCALE
 40
0.6431102362
  9
$OSMODE
 70
  4095
  9
$ATTMODE
 70
     1
  9
$TEXTSIZE
 40
0.2
  9
$TRACEWID
 40
0.05
  9
$TEXTSTYLE
  7
STANDARD
  9
$CLAYER
  8
0
  9
$CELTYPE
  6
BYLAYER
  9
$CECOLOR
 62
   256
  9
$DIMSCALE
 40
1.0
  9
$DIMASZ
 40
0.1875
  9
$DIMEXO
 40
0.0625
  9
$DIMDLI
 40
0.4443307087
  9
$DIMRND
 40
0.0
  9
$DIMDLE
 40
0.0
  9
$DIMEXE
 40
0.125
  9
$DIMTP
 40
0.01
  9
$DIMTM
 40
0.01
  9
$DIMTXT
 40
1.0
  9
$DIMCEN
 40
0.1052362205
  9
$DIMTSZ
 40
0.0
  9
$DIMTOL
 70
     1
  9
$DIMLIM
 70
     0
  9
$DIMTIH
 70
     0
  9
$DIMTOH
 70
     1
  9
$DIMSE1
 70
     0
  9
$DIMSE2
 70
     0
  9
$DIMTAD
 70
     0
  9
$DIMZIN
 70
     0
  9
$DIMBLK
  1

  9
$DIMASO
 70
     1
  9
$DIMSHO
 70
     1
  9
$DIMPOST
  1
\X
  9
$DIMAPOST
  1

  9
$DIMALT
 70
     1
  9
$DIMALTD
 70
     2
  9
$DIMALTF
 40
25.3999999999999986
  9
$DIMLFAC
 40
1.0
  9
$DIMTOFL
 70
     0
  9
$DIMTVP
 40
0.0
  9
$DIMTIX
 70
     0
  9
$DIMSOXD
 70
     0
  9
$DIMSAH
 70
     0
  9
$DIMBLK1
  1

  9
$DIMBLK2
  1

  9
$DIMSTYLE
  2
STANDARD
  9
$DIMCLRD
 70
     0
  9
$DIMCLRE
 70
     0
  9
$DIMCLRT
 70
     0
  9
$DIMTFAC
 40
1.0
  9
$DIMGAP
 40
0.09
  9
$LUNITS
 70
     2
  9
$LUPREC
 70
     4
  9
$SKETCHINC
 40
0.1
  9
$FILLETRAD
 40
0.0
  9
$AUNITS
 70
     0
  9
$AUPREC
 70
     0
  9
$MENU
  1
.
  9
$ELEVATION
 40
0.0
  9
$PELEVATION
 40
0.0
  9
$THICKNESS
 40
0.0
  9
$LIMCHECK
 70
     0
  9
$BLIPMODE
 70
     0
  9
$CHAMFERA
 40
0.0
  9
$CHAMFERB
 40
0.0
  9
$SKPOLY
 70
     0
  9
$TDCREATE
 40
2458172.5207638889551163
  9
$TDUPDATE
 40
2459108.4803703702054918
  9
$TDINDWG
 40
0.374908125
  9
$TDUSRTIMER
 40
0.374908125
  9
$USRTIMER
 70
     1
  9
$ANGBASE
 50
0.0
  9
$ANGDIR
 70
     0
  9
$PDMODE
 70
     0
  9
$PDSIZE
 40
0.3125
  9
$PLINEWID
 40
0.0
  9
$COORDS
 70
     1
  9
$SPLFRAME
 70
     0
  9
$SPLINETYPE
 70
     6
  9
$SPLINESEGS
 70
     8
  9
$ATTDIA
 70
     1
  9
$ATTREQ
 70
     1
  9
$HANDLING
 70
     1
  9
$HANDSEED
  5
ADAF
  9
$SURFTAB1
 70
     6
  9
$SURFTAB2
 70
     6
  9
$SURFTYPE
 70
     6
  9
$SURFU
 70
     6
  9
$SURFV
 70
     6
  9
$UCSNAME
  2

  9
$UCSORG
 10
0.0
 20
0.0
 30
0.0
  9
$UCSXDIR
 10
1.0
 20
0.0
 30
0.0
  9
$UCSYDIR
 10
0.0
 20
1.0
 30
0.0
  9
$PUCSNAME
  2

  9
$PUCSORG
 10
0.0
 20
0.0
 30
0.0
  9
$PUCSXDIR
 10
1.0
 20
0.0
 30
0.0
  9
$PUCSYDIR
 10
0.0
 20
1.0
 30
0.0
  9
$USERI1
 70
     0
  9
$USERI2
 70
     0
  9
$USERI3
 70
     0
  9
$USERI4
 70
     0
  9
$USERI5
 70
     0
  9
$USERR1
 40
0.0
  9
$USERR2
 40
0.0
  9
$USERR3
 40
0.0
  9
$USERR4
 40
0.0
  9
$USERR5
 40
0.0
  9
$WORLDVIEW
 70
     1
  9
$SHADEDGE
 70
     3
  9
$SHADEDIF
 70
    70
  9
$TILEMODE
 70
     1
  9
$MAXACTVP
 70
    64
  9
$PLIMCHECK
 70
     0
  9
$PEXTMIN
 10
1.0000000000000000E+20
 20
1.0000000000000000E+20
 30
1.0000000000000000E+20
  9
$PEXTMAX
 10
-1.0000000000000000E+20
 20
-1.0000000000000000E+20
 30
-1.0000000000000000E+20
  9
$PLIMMIN
 10
0.0
 20
0.0
  9
$PLIMMAX
 10
12.0
 20
9.0
  9
$UNITMODE
 70
     0
  9
$VISRETAIN
 70
     1
  9
$PLINEGEN
 70
     0
  9
$PSLTSCALE
 70
     1
  0
ENDSEC
  0
SECTION
  2
TABLES
  0
TABLE
  2
VPORT
 70
     1
  0
VPORT
  2
*ACTIVE
 70
     0
 10
0.0
 20
0.0
 11
1.0
 21
1.0
 12
201.9077529452843862
 22
19.9142986626252707
 13
0.0
 23
0.0
 14
1.0
 24
1.0
 15
0.0
 25
0.0
 16
0.0
 26
0.0
 36
24.1179433675886514
 17
466.74220170783002
 27
89.133147119929788
 37
0.0
 40
6.4313829088529237
 41
2.005224660397074
 42
50.0
 43
0.0
 44
0.0
 50
0.0
 51
0.0
 71
     0
 72
   100
 73
     1
 74
     1
 75
     0
 76
     0
 77
     0
 78
     0
  0
ENDTAB
  0
TABLE
  2
LTYPE
 70
     2
  0
LTYPE
  2
CONTINUOUS
 70
     0
  3
Solid line
 72
    65
 73
     0
 40
0.0
  0
LTYPE
  2
PHANTOM2
 70
     0
  3
___ _ _ ___ _ _ ___ _ _ ___ _ _
 72
    65
 73
     6
 40
1.25
 49
0.625
 49
-0.125
 49
0.125
 49
-0.125
 49
0.125
 49
-0.125
  0
ENDTAB
  0
TABLE
  2
LAYER
 70
     2
  0
LAYER
  2
0
 70
     0
 62
   255
  6
CONTINUOUS
  0
LAYER
  2
DEFPOINTS
 70
     0
 62
     7
  6
CONTINUOUS
  0
ENDTAB
  0
TABLE
  2
STYLE
 70
     1
  0
STYLE
  2
STANDARD
 70
     0
 40
0.0
 41
0.8
 50
0.0
 71
     0
 42
0.2
  3
txt
  4

  0
ENDTAB
  0
TABLE
  2
VIEW
 70
     0
  0
ENDTAB
  0
TABLE
  2
UCS
 70
     0
  0
ENDTAB
  0
TABLE
  2
APPID
 70
    11
  0
APPID
  2
ACAD
 70
     0
  0
APPID
  2
ACAD_MLEADERVER
 70
     0
  0
APPID
  2
ACAD_EXEMPT_FROM_CAD_STANDARDS
 70
     0
  0
APPID
  2
ACAD_DSTYLE_DIMJAG
 70
     0
  0
APPID
  2
ACAD_DSTYLE_DIMTALN
 70
     0
  0
APPID
  2
ACAD_NAV_VCDISPLAY
 70
     0
  0
APPID
  2
ACAECLAYERSTANDARD
 70
     0
  0
APPID
  2
ACCMTRANSPARENCY
 70
     0
  0
APPID
  2
DCO15
 70
     0
  0
APPID
  2
ACDBATTR
 70
     0
  0
APPID
  2
ACADANNOTATIVE
 70
     0
  0
ENDTAB
  0
TABLE
  2
DIMSTYLE
 70
     1
  0
DIMSTYLE
  2
STANDARD
 70
     0
  3

  4

  5

  6

  7

 40
1.0
 41
0.1875
 42
0.0625
 43
0.38
 44
0.125
 45
0.0
 46
0.0
 47
0.01
 48
0.01
140
0.15625
141
0.09
142
0.0
143
25.3999999999999986
144
1.0
145
0.0
146
1.0
147
0.09
 71
     1
 72
     0
 73
     1
 74
     1
 75
     0
 76
     0
 77
     0
 78
     4
170
     0
171
     2
172
     0
173
     0
174
     0
175
     0
176
     0
177
     0
178
     0
  0
ENDTAB
  0
ENDSEC
  0
SECTION
  2
BLOCKS
  0
BLOCK
  8
0
  2
$MODEL_SPACE
 70
     0
 10
0.0
 20
0.0
 30
0.0
  3
$MODEL_SPACE
  1

  0
ENDBLK
  5
21
  8
0
  0
BLOCK
 67
     1
  8
0
  2
$PAPER_SPACE
 70
     0
 10
0.0
 20
0.0
 30
0.0
  3
$PAPER_SPACE
  1

  0
ENDBLK
  5
1D
 67
     1
  8
0
  0
ENDSEC
  0
SECTION
  2
ENTITIES
  0
ATTDEF
  5
829
  8
DEFPOINTS
 10
668.6364319832753154
 20
109.0505200873727034
 30
0.0
 40
0.001
  1
K-75891T
  3

  2
MODELNUMBER
 70
     0
1001
ACDBATTR
1070
     0
1070
     1
  0
ATTDEF
  5
82A
  8
DEFPOINTS
 10
668.6364319832753154
 20
109.0488534207059956
 30
0.0
 40
0.001
  1
NOTE
  3

  2
TRADENAME
 70
     0
1001
ACDBATTR
1070
     0
1070
     1
  0
ATTDEF
  5
82B
  8
DEFPOINTS
 10
668.6364319832753154
 20
109.0471867540394015
 30
0.0
 40
0.001
  1
FLUSH ACTUATOR PLATE
  3

  2
PRODUCT
 70
     0
1001
ACDBATTR
1070
     0
1070
     1
  0
LINE
  5
ACA5
  8
0
 10
673.0295104368890406
 20
105.896148383876195
 30
0.0
 11
669.8089899168888905
 21
105.896148383876195
 31
0.0
  0
LINE
  5
ACA6
  8
0
 10
669.6359175709890224
 20
105.896148383876195
 30
0.0
 11
664.2500427202890023
 21
105.896148383876195
 31
0.0
  0
LINE
  5
ACA7
  8
0
 10
673.0689104368890412
 20
112.1559609822761985
 30
0.0
 11
673.0689104368890412
 21
105.9355483838761955
 31
0.0
  0
LINE
  5
ACA8
  8
0
 10
664.2106427202890018
 20
112.1559609822761985
 30
0.0
 11
664.2106427202890018
 21
105.9355483838761955
 31
0.0
  0
LINE
  5
ACA9
  8
0
 10
669.6359175709890224
 20
112.195360982276199
 30
0.0
 11
664.2500427202890023
 21
112.195360982276199
 31
0.0
  0
ARC
  5
ACAA
  8
0
 10
673.0295104368890406
 20
112.1559609822761985
 30
0.0
 40
0.0394
 50
0.0
 51
90.0
  0
ARC
  5
ACAB
  8
0
 10
664.2500427202890023
 20
112.1559609822761985
 30
0.0
 40
0.0394
 50
90.0
 51
180.0
  0
ARC
  5
ACAC
  8
0
 10
664.2500427202890023
 20
105.9355483838761955
 30
0.0
 40
0.0394
 50
180.0000000000007958
 51
270.0
  0
ARC
  5
ACAD
  8
0
 10
673.0295104368890406
 20
105.9355483838761955
 30
0.0
 40
0.0394
 50
270.0
 51
359.9999999999992042
  0
LINE
  5
ACAE
  8
0
 10
669.6614301218889977
 20
112.2268310610761972
 30
0.0
 11
669.6614301218889977
 21
105.8646783050761968
 31
0.0
  0
LINE
  5
ACAF
  8
0
 10
669.7834773659890288
 20
112.2268310610761972
 30
0.0
 11
669.7834773659890288
 21
105.8646783050761968
 31
0.0
  0
ARC
  5
ACB0
  8
0
 10
669.7755773659889655
 20
112.2268310610761972
 30
0.0
 40
0.0079
 50
0.0
 51
90.0
  0
LINE
  5
ACB1
  8
0
 10
669.7755773659889655
 20
105.8567783050762046
 30
0.0
 11
669.6693301218889474
 21
105.8567783050762046
 31
0.0
  0
LINE
  5
ACB2
  8
0
 10
669.7755773659889655
 20
112.2347310610762037
 30
0.0
 11
669.6693301218889474
 21
112.2347310610762037
 31
0.0
  0
ARC
  5
ACB3
  8
0
 10
669.6693301218889474
 20
105.8646783050761968
 30
0.0
 40
0.0079
 50
180.0000000000098055
 51
269.9999999999869829
  0
ARC
  5
ACB4
  8
0
 10
669.7755773659889655
 20
105.8646783050761968
 30
0.0
 40
0.0079
 50
270.0
 51
0.0
  0
ARC
  5
ACB5
  8
0
 10
669.6693301218889474
 20
112.2268310610761972
 30
0.0
 40
0.0079
 50
90.0000000000260485
 51
179.9999999999739089
  0
LINE
  5
ACB6
  8
0
 10
669.6556175709890795
 20
106.0142586200762054
 30
0.0
 11
669.6556175709890795
 21
105.9158483838761953
 31
0.0
  0
ARC
  5
ACB7
  8
0
 10
669.6359175709890224
 20
112.1756609822761988
 30
0.0
 40
0.0197
 50
359.9565281274955737
 51
90.0000000000065086
  0
LINE
  5
ACB8
  8
0
 10
669.8089899168888905
 20
112.195360982276199
 30
0.0
 11
673.0295104368890406
 21
112.195360982276199
 31
0.0
  0
ARC
  5
ACB9
  8
0
 10
669.8089899168888905
 20
112.1756609822761988
 30
0.0
 40
0.0197
 50
89.9999999999869686
 51
180.0
  0
ARC
  5
ACBA
  8
0
 10
669.8089899168888905
 20
105.9158483838761953
 30
0.0
 40
0.0197
 50
180.0
 51
270.0000000000064801
  0
ARC
  5
ACBB
  8
0
 10
669.6359175709890224
 20
105.9158483838761953
 30
0.0
 40
0.0197
 50
270.0
 51
0.0000000000016284
  0
LINE
  5
ACBC
  8
0
 10
669.6556175709890795
 20
106.0142586200762054
 30
0.0
 11
669.6589188483890212
 21
106.0153581517761978
 31
0.0
  0
LINE
  5
ACBD
  8
0
 10
669.6589188483890212
 20
106.0153581517761978
 30
0.0
 11
669.6614301218889977
 21
106.0153581517761978
 31
0.0
  0
LINE
  5
ACBE
  8
0
 10
669.6556175709890795
 20
106.0142586200762054
 30
0.0
 11
669.6535561061890576
 21
106.0183818635984068
 31
0.0
  0
LINE
  5
ACBF
  8
0
 10
669.6535561061890576
 20
106.0183818635984068
 30
0.0
 11
669.6535561061890576
 21
106.8850710421847054
 31
0.0
  0
LINE
  5
ACC0
  8
0
 10
669.6535561061890576
 20
111.2065309603678003
 30
0.0
 11
669.6535561061890576
 21
112.0731275025541009
 31
0.0
  0
LINE
  5
ACC1
  8
0
 10
669.7892899168889471
 20
106.0142586200762054
 30
0.0
 11
669.7859886394890054
 21
106.0153581517761978
 31
0.0
  0
LINE
  5
ACC2
  8
0
 10
669.7859886394890054
 20
106.0153581517761978
 30
0.0
 11
669.7834773659890288
 21
106.0153581517761978
 31
0.0
  0
LINE
  5
ACC3
  8
0
 10
669.7892899168889471
 20
106.0142586200762054
 30
0.0
 11
669.7913513816890827
 21
106.0183818635984068
 31
0.0
  0
LINE
  5
ACC4
  8
0
 10
669.7913513816890827
 20
106.0183818635984068
 30
0.0
 11
669.7913513816890827
 21
106.9340514478745945
 31
0.0
  0
LINE
  5
ACC5
  8
0
 10
669.7913513816890827
 20
111.157550554677897
 30
0.0
 11
669.7913513816890827
 21
112.0731275025541009
 31
0.0
  0
LINE
  5
ACC6
  8
0
 10
669.7892899168889471
 20
105.9158483838761953
 30
0.0
 11
669.7892899168889471
 21
106.0142586200762054
 31
0.0
  0
LINE
  5
ACC7
  8
0
 10
669.6556175709890795
 20
112.0772507460762029
 30
0.0
 11
669.6589188483890212
 21
112.0761512143761962
 31
0.0
  0
LINE
  5
ACC8
  8
0
 10
669.6589188483890212
 20
112.0761512143761962
 30
0.0
 11
669.6614301218889977
 21
112.0761512143761962
 31
0.0
  0
LINE
  5
ACC9
  8
0
 10
669.6556175709890795
 20
112.0772507460762029
 30
0.0
 11
669.6535561061890576
 21
112.0731275025541009
 31
0.0
  0
LINE
  5
ACCA
  8
0
 10
669.7892899168889471
 20
112.0772507460762029
 30
0.0
 11
669.7859886394890054
 21
112.0761512143761962
 31
0.0
  0
LINE
  5
ACCB
  8
0
 10
669.7859886394890054
 20
112.0761512143761962
 30
0.0
 11
669.7834773659890288
 21
112.0761512143761962
 31
0.0
  0
LINE
  5
ACCC
  8
0
 10
669.7892899168889471
 20
112.0772507460762029
 30
0.0
 11
669.7913513816890827
 21
112.0731275025541009
 31
0.0
  0
LINE
  5
ACCD
  8
0
 10
669.7892899168889471
 20
112.0772507460762029
 30
0.0
 11
669.7892899168889471
 21
112.1756609822761988
 31
0.0
  0
LINE
  5
ACCE
  8
0
 10
669.6556175709890795
 20
112.0772507460762029
 30
0.0
 11
669.6556175653187211
 21
112.1756460353497005
 31
0.0
  0
ARC
  5
ACCF
  8
0
 10
669.1319532939889996
 20
109.0458010012762031
 30
0.0
 40
2.1985561594662801
 50
76.0645061871676802
 51
283.9354938128323056
  0
ARC
  5
ACD0
  8
0
 10
669.6338561061890005
 20
106.8850710421847054
 30
0.0
 40
0.0197
 50
0.0
 51
103.0769863574391962
  0
ARC
  5
ACD1
  8
0
 10
669.1319532939889996
 20
109.0458010012762031
 30
0.0
 40
2.1985561594662801
 50
287.2380145408849899
 51
72.7619854591150812
  0
ARC
  5
ACD2
  8
0
 10
669.8110513816890261
 20
106.9340514478745945
 30
0.0
 40
0.0197
 50
107.8267933036686941
 51
180.0
  0
ARC
  5
ACD3
  8
0
 10
669.6338561061890005
 20
111.2065309603678003
 30
0.0
 40
0.0197
 50
256.9230136425671276
 51
0.0
  0
ARC
  5
ACD4
  8
0
 10
669.8110513816890261
 20
111.157550554677897
 30
0.0
 40
0.0197
 50
180.0
 51
252.1732066963315901
  0
ARC
  5
ACD5
  8
0
 10
669.1316565742890816
 20
109.045754683076197
 30
0.0
 40
2.1654073672345509
 50
77.3721393798737438
 51
282.6278606201262278
  0
ARC
  5
ACD6
  8
0
 10
669.1316565742890816
 20
109.045754683076197
 30
0.0
 40
2.1654073672345509
 50
289.8535830745619251
 51
70.1464169254380749
  0
LINE
  5
ACD7
  8
0
 10
669.6358395520888962
 20
106.9711742172753048
 30
0.0
 11
669.6358395520888962
 21
111.1203351488772029
 31
0.0
  0
LINE
  5
ACD8
  8
0
 10
669.8142862739889551
 20
107.0461096049969996
 30
0.0
 11
669.8142862739889551
 21
111.0453997611554939
 31
0.0
  0
ARC
  5
ACD9
  8
0
 10
669.8536862739889557
 20
107.0461096049969996
 30
0.0
 40
0.0394
 50
180.0000000000023874
 51
289.8535830745552175
  0
ARC
  5
ACDA
  8
0
 10
669.5964395520888957
 20
106.9711742172753048
 30
0.0
 40
0.0394
 50
282.627860620126512
 51
0.0
  0
ARC
  5
ACDB
  8
0
 10
669.5964395520888957
 20
111.1203351488772029
 30
0.0
 40
0.0394
 50
0.0000000000024427
 51
77.3721393798670363
  0
ARC
  5
ACDC
  8
0
 10
669.8536862739889557
 20
111.0453997611554939
 30
0.0
 40
0.0394
 50
70.146416925445024
 51
179.9999999999974989
  0
ARC
  5
ACDE
  8
0
 10
669.5924537438889956
 20
111.2124776366761978
 30
0.0
 40
0.0314960630000008
 50
199.9769944042037935
 51
316.0250745139165929
  0
ARC
  5
ACDF
  8
0
 10
669.4862332714890272
 20
111.2322495453762059
 30
0.0
 40
0.0314960630000007
 50
202.5432826157739044
 51
319.0489248437937135
  0
ARC
  5
ACE0
  8
0
 10
669.1319025627890369
 20
111.2608727932762065
 30
0.0
 40
0.0314960630000004
 50
211.9747449184874881
 51
328.0278795415068203
  0
ARC
  5
ACE1
  8
0
 10
668.5213513816891009
 20
111.1749996907762039
 30
0.0
 40
0.0314960630000005
 50
227.8687707558491127
 51
344.1344125806467105
  0
ARC
  5
ACE2
  8
0
 10
668.777571854189091
 20
111.2322495453762059
 30
0.0
 40
0.0196850393999998
 50
245.90171290296081
 51
312.5112611855656155
  0
ARC
  5
ACE3
  8
0
 10
668.0243435076889682
 20
110.9641032388762056
 30
0.0
 40
0.0314960629999994
 50
242.0423866364313028
 51
357.9610842454201247
  0
ARC
  5
ACE4
  8
0
 10
668.5213513816891009
 20
106.9165096753762043
 30
0.0
 40
0.0314960629999999
 50
16.0557461888050916
 51
131.9423915238380971
  0
ARC
  5
ACE5
  8
0
 10
668.777571854189091
 20
106.8591798798761943
 30
0.0
 40
0.0196850393999998
 50
48.3966952586809924
 51
113.1917589994562974
  0
ARC
  5
ACE6
  8
0
 10
669.1319025627890369
 20
106.8306365728763012
 30
0.0
 40
0.0314960629999996
 50
32.1694893093903289
 51
147.8278863403708101
  0
ARC
  5
ACE7
  8
0
 10
669.4862332714890272
 20
106.8591798798761943
 30
0.0
 40
0.0314960629999996
 50
41.3127594294699065
 51
157.0936051523212029
  0
ARC
  5
ACE8
  8
0
 10
669.5924537438889956
 20
106.8790317294761962
 30
0.0
 40
0.031496063
 50
44.1674848574474268
 51
159.8294499694399917
  0
ARC
  5
ACE9
  8
0
 10
668.3021120876888972
 20
106.9919511869761948
 30
0.0
 40
0.0196850394000001
 50
35.6471879500246871
 51
100.3512763749414063
  0
ENDSEC
  0
EOF
