  0
SECTION
  2
HEADER
  9
$ACADVER
  1
AC1009
  9
$INSBASE
 10
133.096637681984987
 20
-97.3509159295239499
 30
0.0
  9
$EXTMIN
 10
132.6688770594817868
 20
-100.5011981826030052
 30
-0.0000000349181948
  9
$EXTMAX
 10
133.1157239127697949
 20
-94.1941182522842553
 30
0.0000000814935746
  9
$LIMMIN
 10
0.0
 20
0.0
  9
$LIMMAX
 10
11.6929133858000007
 20
8.2677165353999982
  9
$ORTHOMODE
 70
     0
  9
$REGENMODE
 70
     1
  9
$FILLMODE
 70
     1
  9
$QTEXTMODE
 70
     0
  9
$MIRRTEXT
 70
     0
  9
$DRAGMODE
 70
     2
  9
$LTSCALE
 40
0.6431102362
  9
$OSMODE
 70
  4095
  9
$ATTMODE
 70
     1
  9
$TEXTSIZE
 40
0.2
  9
$TRACEWID
 40
0.05
  9
$TEXTSTYLE
  7
STANDARD
  9
$CLAYER
  8
0
  9
$CELTYPE
  6
BYLAYER
  9
$CECOLOR
 62
   256
  9
$DIMSCALE
 40
1.0
  9
$DIMASZ
 40
0.1875
  9
$DIMEXO
 40
0.0625
  9
$DIMDLI
 40
0.4443307087
  9
$DIMRND
 40
0.0
  9
$DIMDLE
 40
0.0
  9
$DIMEXE
 40
0.125
  9
$DIMTP
 40
0.01
  9
$DIMTM
 40
0.01
  9
$DIMTXT
 40
1.0
  9
$DIMCEN
 40
0.1052362205
  9
$DIMTSZ
 40
0.0
  9
$DIMTOL
 70
     1
  9
$DIMLIM
 70
     0
  9
$DIMTIH
 70
     1
  9
$DIMTOH
 70
     1
  9
$DIMSE1
 70
     0
  9
$DIMSE2
 70
     0
  9
$DIMTAD
 70
     0
  9
$DIMZIN
 70
     0
  9
$DIMBLK
  1

  9
$DIMASO
 70
     1
  9
$DIMSHO
 70
     1
  9
$DIMPOST
  1
\X
  9
$DIMAPOST
  1

  9
$DIMALT
 70
     1
  9
$DIMALTD
 70
     2
  9
$DIMALTF
 40
25.3999999999999986
  9
$DIMLFAC
 40
1.0
  9
$DIMTOFL
 70
     0
  9
$DIMTVP
 40
0.0
  9
$DIMTIX
 70
     0
  9
$DIMSOXD
 70
     0
  9
$DIMSAH
 70
     0
  9
$DIMBLK1
  1

  9
$DIMBLK2
  1

  9
$DIMSTYLE
  2
STANDARD
  9
$DIMCLRD
 70
     0
  9
$DIMCLRE
 70
     0
  9
$DIMCLRT
 70
     0
  9
$DIMTFAC
 40
1.0
  9
$DIMGAP
 40
0.09
  9
$LUNITS
 70
     2
  9
$LUPREC
 70
     4
  9
$SKETCHINC
 40
0.1
  9
$FILLETRAD
 40
0.0
  9
$AUNITS
 70
     0
  9
$AUPREC
 70
     0
  9
$MENU
  1
.
  9
$ELEVATION
 40
0.0
  9
$PELEVATION
 40
0.0
  9
$THICKNESS
 40
0.0
  9
$LIMCHECK
 70
     0
  9
$BLIPMODE
 70
     0
  9
$CHAMFERA
 40
0.0
  9
$CHAMFERB
 40
0.0
  9
$SKPOLY
 70
     0
  9
$TDCREATE
 40
2458172.4620254631154239
  9
$TDUPDATE
 40
2459080.3907986111007631
  9
$TDINDWG
 40
0.1817651968
  9
$TDUSRTIMER
 40
0.1817651968
  9
$USRTIMER
 70
     1
  9
$ANGBASE
 50
0.0
  9
$ANGDIR
 70
     0
  9
$PDMODE
 70
     0
  9
$PDSIZE
 40
0.3125
  9
$PLINEWID
 40
0.0
  9
$COORDS
 70
     1
  9
$SPLFRAME
 70
     0
  9
$SPLINETYPE
 70
     6
  9
$SPLINESEGS
 70
     8
  9
$ATTDIA
 70
     1
  9
$ATTREQ
 70
     1
  9
$HANDLING
 70
     1
  9
$HANDSEED
  5
7F83
  9
$SURFTAB1
 70
     6
  9
$SURFTAB2
 70
     6
  9
$SURFTYPE
 70
     6
  9
$SURFU
 70
     6
  9
$SURFV
 70
     6
  9
$UCSNAME
  2

  9
$UCSORG
 10
0.0
 20
0.0
 30
0.0
  9
$UCSXDIR
 10
1.0
 20
0.0
 30
0.0
  9
$UCSYDIR
 10
0.0
 20
1.0
 30
0.0
  9
$PUCSNAME
  2

  9
$PUCSORG
 10
0.0
 20
0.0
 30
0.0
  9
$PUCSXDIR
 10
1.0
 20
0.0
 30
0.0
  9
$PUCSYDIR
 10
0.0
 20
1.0
 30
0.0
  9
$USERI1
 70
     0
  9
$USERI2
 70
     0
  9
$USERI3
 70
     0
  9
$USERI4
 70
     0
  9
$USERI5
 70
     0
  9
$USERR1
 40
0.0
  9
$USERR2
 40
0.0
  9
$USERR3
 40
0.0
  9
$USERR4
 40
0.0
  9
$USERR5
 40
0.0
  9
$WORLDVIEW
 70
     1
  9
$SHADEDGE
 70
     3
  9
$SHADEDIF
 70
    70
  9
$TILEMODE
 70
     1
  9
$MAXACTVP
 70
    64
  9
$PLIMCHECK
 70
     0
  9
$PEXTMIN
 10
1.0000000000000000E+20
 20
1.0000000000000000E+20
 30
1.0000000000000000E+20
  9
$PEXTMAX
 10
-1.0000000000000000E+20
 20
-1.0000000000000000E+20
 30
-1.0000000000000000E+20
  9
$PLIMMIN
 10
0.0
 20
0.0
  9
$PLIMMAX
 10
12.0
 20
9.0
  9
$UNITMODE
 70
     0
  9
$VISRETAIN
 70
     1
  9
$PLINEGEN
 70
     0
  9
$PSLTSCALE
 70
     1
  0
ENDSEC
  0
SECTION
  2
TABLES
  0
TABLE
  2
VPORT
 70
     1
  0
VPORT
  2
*ACTIVE
 70
     0
 10
0.0
 20
0.0
 11
1.0
 21
1.0
 12
8.2811418860531933
 22
-102.6599323878213994
 13
0.0
 23
0.0
 14
1.0
 24
1.0
 15
0.0
 25
0.0
 16
0.0
 26
0.0
 36
30.6214257250603907
 17
124.6111586000725993
 27
5.3122741703778242
 37
0.0
 40
6.3595660323740901
 41
2.6486111111111108
 42
50.0
 43
0.0
 44
0.0
 50
0.0
 51
0.0
 71
     0
 72
   100
 73
     1
 74
     1
 75
     0
 76
     0
 77
     0
 78
     0
  0
ENDTAB
  0
TABLE
  2
LTYPE
 70
     2
  0
LTYPE
  2
CONTINUOUS
 70
     0
  3
Solid line
 72
    65
 73
     0
 40
0.0
  0
LTYPE
  2
PHANTOM2
 70
     0
  3
___ _ _ ___ _ _ ___ _ _ ___ _ _
 72
    65
 73
     6
 40
1.25
 49
0.625
 49
-0.125
 49
0.125
 49
-0.125
 49
0.125
 49
-0.125
  0
ENDTAB
  0
TABLE
  2
LAYER
 70
     2
  0
LAYER
  2
0
 70
     0
 62
   255
  6
CONTINUOUS
  0
LAYER
  2
DEFPOINTS
 70
     0
 62
     7
  6
CONTINUOUS
  0
ENDTAB
  0
TABLE
  2
STYLE
 70
     1
  0
STYLE
  2
STANDARD
 70
     0
 40
0.0
 41
0.8
 50
0.0
 71
     0
 42
0.2
  3
txt
  4

  0
ENDTAB
  0
TABLE
  2
VIEW
 70
     0
  0
ENDTAB
  0
TABLE
  2
UCS
 70
     0
  0
ENDTAB
  0
TABLE
  2
APPID
 70
     9
  0
APPID
  2
ACAD
 70
     0
  0
APPID
  2
ACAD_MLEADERVER
 70
     0
  0
APPID
  2
ACAD_EXEMPT_FROM_CAD_STANDARDS
 70
     0
  0
APPID
  2
ACAD_DSTYLE_DIMJAG
 70
     0
  0
APPID
  2
ACAD_DSTYLE_DIMTALN
 70
     0
  0
APPID
  2
ACAD_NAV_VCDISPLAY
 70
     0
  0
APPID
  2
ACAECLAYERSTANDARD
 70
     0
  0
APPID
  2
ACCMTRANSPARENCY
 70
     0
  0
APPID
  2
ACDBATTR
 70
     0
  0
ENDTAB
  0
TABLE
  2
DIMSTYLE
 70
     1
  0
DIMSTYLE
  2
STANDARD
 70
     0
  3

  4

  5

  6

  7

 40
1.0
 41
0.1875
 42
0.0625
 43
0.38
 44
0.125
 45
0.0
 46
0.0
 47
0.01
 48
0.01
140
0.15625
141
0.09
142
0.0
143
25.3999999999999986
144
1.0
145
0.0
146
1.0
147
0.09
 71
     1
 72
     0
 73
     1
 74
     1
 75
     0
 76
     0
 77
     0
 78
     4
170
     0
171
     2
172
     0
173
     0
174
     0
175
     0
176
     0
177
     0
178
     0
  0
ENDTAB
  0
ENDSEC
  0
SECTION
  2
BLOCKS
  0
BLOCK
  8
0
  2
$MODEL_SPACE
 70
     0
 10
0.0
 20
0.0
 30
0.0
  3
$MODEL_SPACE
  1

  0
ENDBLK
  5
21
  8
0
  0
BLOCK
 67
     1
  8
0
  2
$PAPER_SPACE
 70
     0
 10
0.0
 20
0.0
 30
0.0
  3
$PAPER_SPACE
  1

  0
ENDBLK
  5
1D
 67
     1
  8
0
  0
BLOCK
  8
0
  2
_FILLED
 70
     0
 10
0.0
 20
0.0
 30
0.0
  3
_FILLED
  1

  0
SOLID
  5
6001
  8
0
  6
BYBLOCK
 62
     0
 10
0.0
 20
0.0
 30
0.0
 11
-1.0
 21
0.1666666667
 31
0.0
 12
-1.0
 22
-0.1666666667
 32
0.0
 13
-1.0
 23
-0.1666666667
 33
0.0
  0
ENDBLK
  5
6002
  8
0
  6
BYBLOCK
 62
     0
  0
ENDSEC
  0
SECTION
  2
ENTITIES
  0
ATTDEF
  5
76C0
  8
DEFPOINTS
 10
133.0969322591795105
 20
-97.3471101151177862
 30
0.0
 40
0.001
  1
K-75890IN-M
  3

  2
MODELNUMBER
 70
     0
1001
ACDBATTR
1070
     0
1070
     1
  0
ATTDEF
  5
76C1
  8
DEFPOINTS
 10
133.0969322591795105
 20
-97.3487767817844514
 30
0.0
 40
0.001
  1
LYNK
  3

  2
TRADENAME
 70
     0
1001
ACDBATTR
1070
     0
1070
     1
  0
ATTDEF
  5
76C2
  8
DEFPOINTS
 10
133.0969322591795105
 20
-97.3504434484511165
 30
0.0
 40
0.001
  1
FLUSH ACTUATOR PLATE
  3

  2
PRODUCT
 70
     0
1001
ACDBATTR
1070
     0
1070
     1
  0
LINE
  5
7BC8
  8
0
 10
133.0966376821849906
 20
-94.2013064798223354
 30
0.0
 11
132.7415845199957118
 21
-94.2075163141033869
 31
0.0
  0
ARC
  5
7BC9
  8
0
 10
132.7422818756299989
 20
-94.2477687237467734
 30
0.0
 40
0.0402584498829936
 50
90.9925253746525868
 51
178.7767606809356096
  0
ARC
  5
7BCA
  8
0
 10
132.7415784153834863
 20
-100.4547772745089986
 30
0.0
 40
0.0395445893354794
 50
180.3150487435410128
 51
270.0330649891066059
  0
LINE
  5
7BCB
  8
0
 10
132.7416012362851063
 20
-100.4943218572596066
 30
0.0
 11
133.0966376821849906
 21
-100.5005253792098046
 31
0.0
  0
LINE
  5
7BCC
  8
0
 10
133.0966376821849906
 20
-100.5005253792185016
 30
0.0
 11
133.0966376817850971
 21
-94.2013064798293271
 31
0.0
  0
LINE
  5
7BCD
  8
0
 10
132.702633437484991
 20
-94.2407870234061704
 30
0.0
 11
132.702633437484991
 21
-100.4616375399703969
 31
0.0
  0
ARC
  5
7BCE
  8
0
 10
436.2959924837929861
 20
-99.6235132645785342
 30
0.0
 40
303.6415655802206857
 50
178.9854063107796094
 51
179.2258480167724031
  0
ARC
  5
7BCF
  8
0
 10
179.7900987381003972
 20
-96.1575226996586707
 30
0.0
 40
47.112256110771078
 50
179.2258480167724031
 51
179.8089441246546016
  0
ARC
  5
7BD0
  8
0
 10
132.7336605247847103
 20
-96.0006098800366914
 30
0.0
 40
0.0555562800714715
 50
179.8089441246546016
 51
192.6342197870073107
  0
ARC
  5
7BD1
  8
0
 10
-308.6909230025855209
 20
-178.5380067984214065
 30
0.0
 40
449.019177550705308
 50
10.5823487047621096
 51
10.5905963238080396
  0
LINE
  5
7BD2
  8
0
 10
132.7020344238621874
 20
-100.4549947147900042
 30
0.0
 11
132.6893809151910943
 21
-99.7237660799780343
 31
0.0
  0
ARC
  5
7BD3
  8
0
 10
345.6644830038821965
 20
-96.6509692931599602
 30
0.0
 40
212.9972680336099984
 50
180.6565344733635925
 51
180.8266040045498073
  0
ARC
  5
7BD4
  8
0
 10
189.4050628759318897
 20
-98.4415756392304644
 30
0.0
 40
56.7275887934903125
 50
180.2636284706223933
 51
180.6565344733635925
  0
ARC
  5
7BD5
  8
0
 10
132.7449174261793132
 20
-98.7022812798473979
 30
0.0
 40
0.0668435652622542
 50
166.9574103436702899
 51
180.2636284706223933
  0
ARC
  5
7BD6
  8
0
 10
131.969955941581901
 20
-98.5227604639024719
 30
0.0
 40
0.728639323282084
 50
346.9574103436702899
 51
351.8981583322075721
  0
ARC
  5
7BD7
  8
0
 10
132.3681003464936055
 20
-98.9982120686364055
 30
0.0
 40
0.3142134809639533
 50
359.8285404820991857
 51
7.2059629339691771
  0
ARC
  5
7BD8
  8
0
 10
133.2672125169634967
 20
-99.0009026996180239
 30
0.0
 40
0.5849027154101001
 50
179.8285404820991005
 51
182.2179849190328866
  0
ARC
  5
7BD9
  8
0
 10
131.8236750516470863
 20
-99.0568116102174656
 30
0.0
 40
0.8597170338860818
 50
0.043893707614579
 51
2.217984919032908
  0
ARC
  5
7BDA
  8
0
 10
138.3699144020168887
 20
-98.9375981522602359
 30
0.0
 40
5.6877582732215961
 50
181.1943517065471951
 51
181.7530010217421932
  0
ARC
  5
7BDB
  8
0
 10
133.1025787114058971
 20
-99.1003562878828603
 30
0.0
 40
0.4179117093142263
 50
181.5405499910600042
 51
184.2921661603531902
  0
ARC
  5
7BDC
  8
0
 10
132.6910040627419107
 20
-99.1314832500967498
 30
0.0
 40
0.0051671689161159
 50
181.6695625221852879
 51
198.34393770717449
  0
ARC
  5
7BDD
  8
0
 10
132.6861809210215029
 20
-99.1330824559582169
 30
0.0
 40
0.0000858152144003
 50
198.3439377069693137
 51
341.6560622926207884
  0
ARC
  5
7BDE
  8
0
 10
132.6065840000553067
 20
-99.1223528277656669
 30
0.0
 40
0.0804011736796185
 50
352.3115131682604897
 51
359.0551174225133764
  0
ARC
  5
7BDF
  8
0
 10
128.9093017589549106
 20
-99.0180152137478444
 30
0.0
 40
3.7791499243494289
 50
358.3978248191394869
 51
358.9946325047594087
  0
ARC
  5
7BE0
  8
0
 10
127.0930620761889998
 20
-98.986142433863975
 30
0.0
 40
5.595669249694188
 50
358.9946325047594087
 51
359.5886693501062723
  0
ARC
  5
7BE1
  8
0
 10
568.2732901318969425
 20
-102.1534624206024944
 30
0.0
 40
435.5959280673725971
 50
179.556004153624599
 51
179.5886693501063007
  0
ARC
  5
7BE2
  8
0
 10
93.907681075146499
 20
-98.4774398966252562
 30
0.0
 40
38.7839241580129013
 50
359.5560041536244853
 51
359.7813432953402071
  0
ARC
  5
7BE3
  8
0
 10
218.4909105319352989
 20
-98.9528866203956454
 30
0.0
 40
85.8002125186524012
 50
179.6274076339188071
 51
179.7813432953402071
  0
ARC
  5
7BE4
  8
0
 10
-32.5609858535209469
 20
-97.3202822740096849
 30
0.0
 40
165.2569922687937947
 50
359.6274076339187786
 51
0.4316211226334054
  0
ARC
  5
7BE5
  8
0
 10
280.645815943183095
 20
-94.9607851197318951
 30
0.0
 40
147.958696863377412
 50
180.3020769845417988
 51
180.4316211226334019
  0
ARC
  5
7BE6
  8
0
 10
123.1275402820516973
 20
-95.7912666492289873
 30
0.0
 40
9.5617680509536331
 50
0.3020769845418085
 51
1.2898358031757691
  0
ARC
  5
7BE7
  8
0
 10
132.5892993652909979
 20
-95.5798164568488744
 30
0.0
 40
0.0976595666249722
 50
2.2211835608335528
 51
6.3909100118920987
  0
ARC
  5
7BE8
  8
0
 10
132.6862007152437002
 20
-95.5689627955000844
 30
0.0
 40
0.0001522664503212
 50
6.3909100117504822
 51
173.6090899879669109
  0
ARC
  5
7BE9
  8
0
 10
132.8469990746989993
 20
-95.5869733901910763
 30
0.0
 40
0.1619561413255493
 50
173.6090899879669109
 51
178.5240143750019968
  0
ARC
  5
7BEA
  8
0
 10
152.4342308071749983
 20
-96.0916679697336633
 30
0.0
 40
19.7556889036231098
 50
178.5240143750019968
 51
178.9477146444044138
  0
ARC
  5
7BEB
  8
0
 10
118.9153270941589966
 20
-95.4759957843764937
 30
0.0
 40
13.7688686380098595
 50
358.3907714490401872
 51
358.9477146444044138
  0
ENDSEC
  0
EOF
