  0
SECTION
  2
HEADER
  9
$ACADVER
  1
AC1009
  9
$INSBASE
 10
124.6000100077820036
 20
-97.3453052185810748
 30
0.0
  9
$EXTMIN
 10
120.167122791056002
 20
-100.5012115733608056
 30
-0.0000000349181948
  9
$EXTMAX
 10
129.0369616921792044
 20
-94.1946120439527874
 30
0.0000000814935746
  9
$LIMMIN
 10
0.0
 20
0.0
  9
$LIMMAX
 10
11.6929133858000007
 20
8.2677165353999982
  9
$ORTHOMODE
 70
     1
  9
$REGENMODE
 70
     1
  9
$FILLMODE
 70
     1
  9
$QTEXTMODE
 70
     0
  9
$MIRRTEXT
 70
     0
  9
$DRAGMODE
 70
     2
  9
$LTSCALE
 40
0.6431102362
  9
$OSMODE
 70
  4095
  9
$ATTMODE
 70
     1
  9
$TEXTSIZE
 40
0.2
  9
$TRACEWID
 40
0.05
  9
$TEXTSTYLE
  7
STANDARD
  9
$CLAYER
  8
0
  9
$CELTYPE
  6
BYLAYER
  9
$CECOLOR
 62
   256
  9
$DIMSCALE
 40
1.0
  9
$DIMASZ
 40
0.1875
  9
$DIMEXO
 40
0.0625
  9
$DIMDLI
 40
0.4443307087
  9
$DIMRND
 40
0.0
  9
$DIMDLE
 40
0.0
  9
$DIMEXE
 40
0.125
  9
$DIMTP
 40
0.01
  9
$DIMTM
 40
0.01
  9
$DIMTXT
 40
1.0
  9
$DIMCEN
 40
0.1052362205
  9
$DIMTSZ
 40
0.0
  9
$DIMTOL
 70
     1
  9
$DIMLIM
 70
     0
  9
$DIMTIH
 70
     1
  9
$DIMTOH
 70
     1
  9
$DIMSE1
 70
     0
  9
$DIMSE2
 70
     0
  9
$DIMTAD
 70
     0
  9
$DIMZIN
 70
     0
  9
$DIMBLK
  1

  9
$DIMASO
 70
     1
  9
$DIMSHO
 70
     1
  9
$DIMPOST
  1
\X
  9
$DIMAPOST
  1

  9
$DIMALT
 70
     1
  9
$DIMALTD
 70
     2
  9
$DIMALTF
 40
25.3999999999999986
  9
$DIMLFAC
 40
1.0
  9
$DIMTOFL
 70
     0
  9
$DIMTVP
 40
0.0
  9
$DIMTIX
 70
     0
  9
$DIMSOXD
 70
     0
  9
$DIMSAH
 70
     0
  9
$DIMBLK1
  1

  9
$DIMBLK2
  1

  9
$DIMSTYLE
  2
STANDARD
  9
$DIMCLRD
 70
     0
  9
$DIMCLRE
 70
     0
  9
$DIMCLRT
 70
     0
  9
$DIMTFAC
 40
1.0
  9
$DIMGAP
 40
0.09
  9
$LUNITS
 70
     2
  9
$LUPREC
 70
     4
  9
$SKETCHINC
 40
0.1
  9
$FILLETRAD
 40
0.0
  9
$AUNITS
 70
     0
  9
$AUPREC
 70
     0
  9
$MENU
  1
.
  9
$ELEVATION
 40
0.0
  9
$PELEVATION
 40
0.0
  9
$THICKNESS
 40
0.0
  9
$LIMCHECK
 70
     0
  9
$BLIPMODE
 70
     0
  9
$CHAMFERA
 40
0.0
  9
$CHAMFERB
 40
0.0
  9
$SKPOLY
 70
     0
  9
$TDCREATE
 40
2458172.4620254631154239
  9
$TDUPDATE
 40
2459080.3905902779661119
  9
$TDINDWG
 40
0.1830036227
  9
$TDUSRTIMER
 40
0.1830036227
  9
$USRTIMER
 70
     1
  9
$ANGBASE
 50
0.0
  9
$ANGDIR
 70
     0
  9
$PDMODE
 70
     0
  9
$PDSIZE
 40
0.3125
  9
$PLINEWID
 40
0.0
  9
$COORDS
 70
     1
  9
$SPLFRAME
 70
     0
  9
$SPLINETYPE
 70
     6
  9
$SPLINESEGS
 70
     8
  9
$ATTDIA
 70
     1
  9
$ATTREQ
 70
     1
  9
$HANDLING
 70
     1
  9
$HANDSEED
  5
81B3
  9
$SURFTAB1
 70
     6
  9
$SURFTAB2
 70
     6
  9
$SURFTYPE
 70
     6
  9
$SURFU
 70
     6
  9
$SURFV
 70
     6
  9
$UCSNAME
  2

  9
$UCSORG
 10
0.0
 20
0.0
 30
0.0
  9
$UCSXDIR
 10
1.0
 20
0.0
 30
0.0
  9
$UCSYDIR
 10
0.0
 20
1.0
 30
0.0
  9
$PUCSNAME
  2

  9
$PUCSORG
 10
0.0
 20
0.0
 30
0.0
  9
$PUCSXDIR
 10
1.0
 20
0.0
 30
0.0
  9
$PUCSYDIR
 10
0.0
 20
1.0
 30
0.0
  9
$USERI1
 70
     0
  9
$USERI2
 70
     0
  9
$USERI3
 70
     0
  9
$USERI4
 70
     0
  9
$USERI5
 70
     0
  9
$USERR1
 40
0.0
  9
$USERR2
 40
0.0
  9
$USERR3
 40
0.0
  9
$USERR4
 40
0.0
  9
$USERR5
 40
0.0
  9
$WORLDVIEW
 70
     1
  9
$SHADEDGE
 70
     3
  9
$SHADEDIF
 70
    70
  9
$TILEMODE
 70
     1
  9
$MAXACTVP
 70
    64
  9
$PLIMCHECK
 70
     0
  9
$PEXTMIN
 10
1.0000000000000000E+20
 20
1.0000000000000000E+20
 30
1.0000000000000000E+20
  9
$PEXTMAX
 10
-1.0000000000000000E+20
 20
-1.0000000000000000E+20
 30
-1.0000000000000000E+20
  9
$PLIMMIN
 10
0.0
 20
0.0
  9
$PLIMMAX
 10
12.0
 20
9.0
  9
$UNITMODE
 70
     0
  9
$VISRETAIN
 70
     1
  9
$PLINEGEN
 70
     0
  9
$PSLTSCALE
 70
     1
  0
ENDSEC
  0
SECTION
  2
TABLES
  0
TABLE
  2
VPORT
 70
     1
  0
VPORT
  2
*ACTIVE
 70
     0
 10
0.0
 20
0.0
 11
1.0
 21
1.0
 12
-0.0091163584550462
 22
-102.6601859790345941
 13
0.0
 23
0.0
 14
1.0
 24
1.0
 15
0.0
 25
0.0
 16
0.0
 26
0.0
 36
30.6214257250603907
 17
124.6111586000725993
 27
5.3122741703778242
 37
0.0
 40
6.3590816336750029
 41
2.6486111111111108
 42
50.0
 43
0.0
 44
0.0
 50
0.0
 51
0.0
 71
     0
 72
   100
 73
     1
 74
     1
 75
     0
 76
     0
 77
     0
 78
     0
  0
ENDTAB
  0
TABLE
  2
LTYPE
 70
     2
  0
LTYPE
  2
CONTINUOUS
 70
     0
  3
Solid line
 72
    65
 73
     0
 40
0.0
  0
LTYPE
  2
PHANTOM2
 70
     0
  3
___ _ _ ___ _ _ ___ _ _ ___ _ _
 72
    65
 73
     6
 40
1.25
 49
0.625
 49
-0.125
 49
0.125
 49
-0.125
 49
0.125
 49
-0.125
  0
ENDTAB
  0
TABLE
  2
LAYER
 70
     2
  0
LAYER
  2
0
 70
     0
 62
   255
  6
CONTINUOUS
  0
LAYER
  2
DEFPOINTS
 70
     0
 62
     7
  6
CONTINUOUS
  0
ENDTAB
  0
TABLE
  2
STYLE
 70
     1
  0
STYLE
  2
STANDARD
 70
     0
 40
0.0
 41
0.8
 50
0.0
 71
     0
 42
0.2
  3
txt
  4

  0
ENDTAB
  0
TABLE
  2
VIEW
 70
     0
  0
ENDTAB
  0
TABLE
  2
UCS
 70
     0
  0
ENDTAB
  0
TABLE
  2
APPID
 70
     9
  0
APPID
  2
ACAD
 70
     0
  0
APPID
  2
ACAD_MLEADERVER
 70
     0
  0
APPID
  2
ACAD_EXEMPT_FROM_CAD_STANDARDS
 70
     0
  0
APPID
  2
ACAD_DSTYLE_DIMJAG
 70
     0
  0
APPID
  2
ACAD_DSTYLE_DIMTALN
 70
     0
  0
APPID
  2
ACAD_NAV_VCDISPLAY
 70
     0
  0
APPID
  2
ACAECLAYERSTANDARD
 70
     0
  0
APPID
  2
ACCMTRANSPARENCY
 70
     0
  0
APPID
  2
ACDBATTR
 70
     0
  0
ENDTAB
  0
TABLE
  2
DIMSTYLE
 70
     1
  0
DIMSTYLE
  2
STANDARD
 70
     0
  3

  4

  5

  6

  7

 40
1.0
 41
0.1875
 42
0.0625
 43
0.38
 44
0.125
 45
0.0
 46
0.0
 47
0.01
 48
0.01
140
0.15625
141
0.09
142
0.0
143
25.3999999999999986
144
1.0
145
0.0
146
1.0
147
0.09
 71
     1
 72
     0
 73
     1
 74
     1
 75
     0
 76
     0
 77
     0
 78
     4
170
     0
171
     2
172
     0
173
     0
174
     0
175
     0
176
     0
177
     0
178
     0
  0
ENDTAB
  0
ENDSEC
  0
SECTION
  2
BLOCKS
  0
BLOCK
  8
0
  2
$MODEL_SPACE
 70
     0
 10
0.0
 20
0.0
 30
0.0
  3
$MODEL_SPACE
  1

  0
ENDBLK
  5
21
  8
0
  0
BLOCK
 67
     1
  8
0
  2
$PAPER_SPACE
 70
     0
 10
0.0
 20
0.0
 30
0.0
  3
$PAPER_SPACE
  1

  0
ENDBLK
  5
1D
 67
     1
  8
0
  0
BLOCK
  8
0
  2
_FILLED
 70
     0
 10
0.0
 20
0.0
 30
0.0
  3
_FILLED
  1

  0
SOLID
  5
6001
  8
0
  6
BYBLOCK
 62
     0
 10
0.0
 20
0.0
 30
0.0
 11
-1.0
 21
0.1666666667
 31
0.0
 12
-1.0
 22
-0.1666666667
 32
0.0
 13
-1.0
 23
-0.1666666667
 33
0.0
  0
ENDBLK
  5
6002
  8
0
  6
BYBLOCK
 62
     0
  0
ENDSEC
  0
SECTION
  2
ENTITIES
  0
ATTDEF
  5
67F2
  8
DEFPOINTS
 10
124.6003773259072034
 20
-97.3411096093522445
 30
0.0
 40
0.001
  1
K-75890IN-M
  3

  2
MODELNUMBER
 70
     0
1001
ACDBATTR
1070
     0
1070
     1
  0
ATTDEF
  5
67F3
  8
DEFPOINTS
 10
124.6003773259072034
 20
-97.3427762760188955
 30
0.0
 40
0.001
  1
LYNK
  3

  2
TRADENAME
 70
     0
1001
ACDBATTR
1070
     0
1070
     1
  0
ATTDEF
  5
67F4
  8
DEFPOINTS
 10
124.6003773259072034
 20
-97.3444429426855748
 30
0.0
 40
0.001
  1
FLUSH ACTUATOR PLATE
  3

  2
PRODUCT
 70
     0
1001
ACDBATTR
1070
     0
1070
     1
  0
LINE
  5
7DC4
  8
0
 10
128.9897821911775964
 20
-94.1956989929205264
 30
0.0
 11
120.2102378243863967
 21
-94.195698919381087
 31
0.0
  0
ARC
  5
7DC5
  8
0
 10
120.2102346366017969
 20
-94.2350606462664757
 30
0.0
 40
0.0393617270145025
 50
89.9953597920185757
 51
180.0047472726232058
  0
LINE
  5
7DC6
  8
0
 10
120.1708729097225046
 20
-94.2350639076035463
 30
0.0
 11
120.1708728361829941
 21
-100.4555498134787968
 31
0.0
  0
ARC
  5
7DC7
  8
0
 10
120.2102345767415983
 20
-100.4555496958222989
 30
0.0
 40
0.0393617405587619
 50
180.0001712633061004
 51
269.9999162165083249
  0
LINE
  5
7DC8
  8
0
 10
120.210234519183004
 20
-100.4949114363810025
 30
0.0
 11
128.9897788696735859
 21
-100.4949242746892963
 31
0.0
  0
ARC
  5
7DC9
  8
0
 10
128.9897789272422131
 20
-100.4555557160398962
 30
0.0
 40
0.0393685586494602
 50
269.9999162165083249
 51
0.0023110556895469
  0
LINE
  5
7DCA
  8
0
 10
129.0291474858595961
 20
-100.4555541280880959
 30
0.0
 11
129.0291405526830033
 21
-94.235063912645785
 31
0.0
  0
ARC
  5
7DCB
  8
0
 10
128.9897788259530955
 20
-94.2350607196361238
 30
0.0
 40
0.0393617268594495
 50
359.9953521861942249
 51
89.9951014885907767
  0
ARC
  5
7DCC
  8
0
 10
126.6669358282830018
 20
-97.3453052185810748
 30
0.0
 40
1.782295888028562
 50
236.8498119730492988
 51
123.1498887318884954
  0
ARC
  5
7DCD
  8
0
 10
126.1154794801140042
 20
-94.9203544711816676
 30
0.0
 40
1.3275967569918261
 50
219.8533788579827046
 51
230.4924455070353986
  0
ARC
  5
7DCE
  8
0
 10
125.4121171936188972
 20
-95.7666945961611162
 30
0.0
 40
0.2271856286688065
 50
231.5638493221470924
 51
259.3892604936506814
  0
ARC
  5
7DCF
  8
0
 10
125.3943506082837018
 20
-95.7718190356012968
 30
0.0
 40
0.2194998388388766
 50
263.7053282928515046
 51
291.6041758534041151
  0
ARC
  5
7DD0
  8
0
 10
125.160128095089803
 20
-95.2064765444796137
 30
0.0
 40
0.8314213352010659
 50
292.2666889280018836
 51
303.2063090352444874
  0
ARC
  5
7DD1
  8
0
 10
122.0573597059235027
 20
-90.2407031884319792
 30
0.0
 40
6.6866909375669037
 50
302.1485919234042967
 51
302.9298199689872035
  0
ARC
  5
7DD2
  8
0
 10
124.0261465035941058
 20
-101.373150393154603
 30
0.0
 40
3.0340664854185491
 50
56.6910784708730304
 51
59.5884514264872109
  0
ARC
  5
7DD3
  8
0
 10
125.2845104925810062
 20
-99.2293110574203183
 30
0.0
 40
0.5482010372856734
 50
59.5884514264872109
 51
72.6125250627040231
  0
ARC
  5
7DD4
  8
0
 10
125.3966758463453033
 20
-98.8818713184725624
 30
0.0
 40
0.1831469047570935
 50
73.6180016718898997
 51
124.6661698680801038
  0
ARC
  5
7DD5
  8
0
 10
125.7818850930475065
 20
-99.4129955992899852
 30
0.0
 40
0.8392199437859696
 50
125.6716464772664068
 51
136.9314986980249955
  0
ARC
  5
7DD6
  8
0
 10
128.2384462688451947
 20
-101.7092730542250933
 30
0.0
 40
4.2018949147696327
 50
136.9314986980249955
 51
138.3995065415778924
  0
ARC
  5
7DD7
  8
0
 10
123.3213741000324006
 20
-97.3436163686029943
 30
0.0
 40
2.3735561731809121
 50
180.0407675138391994
 51
318.3995065415779209
  0
ARC
  5
7DD8
  8
0
 10
123.320092844278804
 20
-97.3436172802516495
 30
0.0
 40
2.3722749171029669
 50
41.5189792086343914
 51
180.0407675138391994
  0
CIRCLE
  5
7DD9
  8
0
 10
123.3204791353829961
 20
-97.3453052185810748
 30
0.0
 40
1.5273975737000001
  0
CIRCLE
  5
7DDA
  8
0
 10
126.6669358282830018
 20
-97.3453052185810748
 30
0.0
 40
0.9368463926
  0
ENDSEC
  0
EOF
