  0
SECTION
  2
HEADER
  9
$ACADVER
  1
AC1009
  9
$INSBASE
 10
3720.094874230131154
 20
154.0377700917134973
 30
0.0
  9
$EXTMIN
 10
3712.7720395845299208
 20
144.6365839476135022
 30
0.0
  9
$EXTMAX
 10
3741.3547167498309136
 20
154.0423621821591098
 30
0.0
  9
$LIMMIN
 10
0.0
 20
0.0
  9
$LIMMAX
 10
11.6929133858000007
 20
8.2677165353999982
  9
$ORTHOMODE
 70
     0
  9
$REGENMODE
 70
     1
  9
$FILLMODE
 70
     1
  9
$QTEXTMODE
 70
     0
  9
$MIRRTEXT
 70
     0
  9
$DRAGMODE
 70
     2
  9
$LTSCALE
 40
0.6431102362
  9
$OSMODE
 70
  3839
  9
$ATTMODE
 70
     1
  9
$TEXTSIZE
 40
0.2
  9
$TRACEWID
 40
0.05
  9
$TEXTSTYLE
  7
STANDARD
  9
$CLAYER
  8
0
  9
$CELTYPE
  6
BYLAYER
  9
$CECOLOR
 62
   256
  9
$DIMSCALE
 40
1.0
  9
$DIMASZ
 40
0.1875
  9
$DIMEXO
 40
0.0625
  9
$DIMDLI
 40
0.4443307087
  9
$DIMRND
 40
0.0
  9
$DIMDLE
 40
0.0
  9
$DIMEXE
 40
0.125
  9
$DIMTP
 40
0.01
  9
$DIMTM
 40
0.01
  9
$DIMTXT
 40
2.0
  9
$DIMCEN
 40
0.1052362205
  9
$DIMTSZ
 40
0.0
  9
$DIMTOL
 70
     1
  9
$DIMLIM
 70
     0
  9
$DIMTIH
 70
     1
  9
$DIMTOH
 70
     1
  9
$DIMSE1
 70
     0
  9
$DIMSE2
 70
     0
  9
$DIMTAD
 70
     0
  9
$DIMZIN
 70
     0
  9
$DIMBLK
  1

  9
$DIMASO
 70
     1
  9
$DIMSHO
 70
     1
  9
$DIMPOST
  1
\X
  9
$DIMAPOST
  1

  9
$DIMALT
 70
     1
  9
$DIMALTD
 70
     2
  9
$DIMALTF
 40
25.3999999999999986
  9
$DIMLFAC
 40
1.0
  9
$DIMTOFL
 70
     0
  9
$DIMTVP
 40
0.0
  9
$DIMTIX
 70
     0
  9
$DIMSOXD
 70
     0
  9
$DIMSAH
 70
     0
  9
$DIMBLK1
  1

  9
$DIMBLK2
  1

  9
$DIMSTYLE
  2
STANDARD
  9
$DIMCLRD
 70
     0
  9
$DIMCLRE
 70
     0
  9
$DIMCLRT
 70
     0
  9
$DIMTFAC
 40
1.0
  9
$DIMGAP
 40
0.09
  9
$LUNITS
 70
     2
  9
$LUPREC
 70
     4
  9
$SKETCHINC
 40
0.1
  9
$FILLETRAD
 40
0.0
  9
$AUNITS
 70
     0
  9
$AUPREC
 70
     0
  9
$MENU
  1
.
  9
$ELEVATION
 40
0.0
  9
$PELEVATION
 40
0.0
  9
$THICKNESS
 40
0.0
  9
$LIMCHECK
 70
     0
  9
$BLIPMODE
 70
     0
  9
$CHAMFERA
 40
0.0
  9
$CHAMFERB
 40
0.0
  9
$SKPOLY
 70
     0
  9
$TDCREATE
 40
2458060.468368056230247
  9
$TDUPDATE
 40
2459029.6294212960638106
  9
$TDINDWG
 40
0.7147871528
  9
$TDUSRTIMER
 40
0.7147871528
  9
$USRTIMER
 70
     1
  9
$ANGBASE
 50
0.0
  9
$ANGDIR
 70
     0
  9
$PDMODE
 70
     0
  9
$PDSIZE
 40
0.3125
  9
$PLINEWID
 40
0.0
  9
$COORDS
 70
     1
  9
$SPLFRAME
 70
     0
  9
$SPLINETYPE
 70
     6
  9
$SPLINESEGS
 70
     8
  9
$ATTDIA
 70
     1
  9
$ATTREQ
 70
     1
  9
$HANDLING
 70
     1
  9
$HANDSEED
  5
EE51
  9
$SURFTAB1
 70
     6
  9
$SURFTAB2
 70
     6
  9
$SURFTYPE
 70
     6
  9
$SURFU
 70
     6
  9
$SURFV
 70
     6
  9
$UCSNAME
  2

  9
$UCSORG
 10
0.0
 20
0.0
 30
0.0
  9
$UCSXDIR
 10
1.0
 20
0.0
 30
0.0
  9
$UCSYDIR
 10
0.0
 20
1.0
 30
0.0
  9
$PUCSNAME
  2

  9
$PUCSORG
 10
0.0
 20
0.0
 30
0.0
  9
$PUCSXDIR
 10
1.0
 20
0.0
 30
0.0
  9
$PUCSYDIR
 10
0.0
 20
1.0
 30
0.0
  9
$USERI1
 70
     0
  9
$USERI2
 70
     0
  9
$USERI3
 70
     0
  9
$USERI4
 70
     0
  9
$USERI5
 70
     0
  9
$USERR1
 40
0.0
  9
$USERR2
 40
0.0
  9
$USERR3
 40
0.0
  9
$USERR4
 40
0.0
  9
$USERR5
 40
0.0
  9
$WORLDVIEW
 70
     1
  9
$SHADEDGE
 70
     3
  9
$SHADEDIF
 70
    70
  9
$TILEMODE
 70
     1
  9
$MAXACTVP
 70
    64
  9
$PLIMCHECK
 70
     0
  9
$PEXTMIN
 10
1.0000000000000000E+20
 20
1.0000000000000000E+20
 30
1.0000000000000000E+20
  9
$PEXTMAX
 10
-1.0000000000000000E+20
 20
-1.0000000000000000E+20
 30
-1.0000000000000000E+20
  9
$PLIMMIN
 10
0.0
 20
0.0
  9
$PLIMMAX
 10
12.0
 20
9.0
  9
$UNITMODE
 70
     0
  9
$VISRETAIN
 70
     1
  9
$PLINEGEN
 70
     0
  9
$PSLTSCALE
 70
     1
  0
ENDSEC
  0
SECTION
  2
TABLES
  0
TABLE
  2
VPORT
 70
     1
  0
VPORT
  2
*ACTIVE
 70
     0
 10
0.0
 20
0.0
 11
1.0
 21
1.0
 12
0.0
 22
0.0
 13
0.0
 23
0.0
 14
1.0
 24
1.0
 15
0.0
 25
0.0
 16
0.0
 26
0.0
 36
124.9224847110887993
 17
3727.0633544921879547
 27
149.3394718015287026
 37
0.0
 40
30.0905814309254787
 41
3.314341846758349
 42
50.0
 43
0.0
 44
0.0
 50
0.0
 51
0.0
 71
     0
 72
   100
 73
     1
 74
     1
 75
     0
 76
     0
 77
     0
 78
     0
  0
ENDTAB
  0
TABLE
  2
LTYPE
 70
     2
  0
LTYPE
  2
CONTINUOUS
 70
     0
  3
Solid line
 72
    65
 73
     0
 40
0.0
  0
LTYPE
  2
PHANTOM2
 70
     0
  3
___ _ _ ___ _ _ ___ _ _ ___ _ _
 72
    65
 73
     6
 40
1.25
 49
0.625
 49
-0.125
 49
0.125
 49
-0.125
 49
0.125
 49
-0.125
  0
ENDTAB
  0
TABLE
  2
LAYER
 70
     2
  0
LAYER
  2
0
 70
     0
 62
   255
  6
CONTINUOUS
  0
LAYER
  2
DEFPOINTS
 70
     0
 62
     7
  6
CONTINUOUS
  0
ENDTAB
  0
TABLE
  2
STYLE
 70
     1
  0
STYLE
  2
STANDARD
 70
     0
 40
0.0
 41
0.8
 50
0.0
 71
     0
 42
0.2
  3
txt
  4

  0
ENDTAB
  0
TABLE
  2
VIEW
 70
     0
  0
ENDTAB
  0
TABLE
  2
UCS
 70
     0
  0
ENDTAB
  0
TABLE
  2
APPID
 70
    10
  0
APPID
  2
ACAD
 70
     0
  0
APPID
  2
ACAD_MLEADERVER
 70
     0
  0
APPID
  2
ACAD_EXEMPT_FROM_CAD_STANDARDS
 70
     0
  0
APPID
  2
ACAD_NAV_VCDISPLAY
 70
     0
  0
APPID
  2
ACAECLAYERSTANDARD
 70
     0
  0
APPID
  2
ACCMTRANSPARENCY
 70
     0
  0
APPID
  2
ACAD_DSTYLE_DIMJAG
 70
     0
  0
APPID
  2
ACAD_DSTYLE_DIMTALN
 70
     0
  0
APPID
  2
ACDBATTR
 70
     0
  0
APPID
  2
ACAD_PSEXT
 70
     0
  0
ENDTAB
  0
TABLE
  2
DIMSTYLE
 70
     1
  0
DIMSTYLE
  2
STANDARD
 70
     0
  3

  4

  5

  6

  7

 40
1.0
 41
0.1875
 42
0.0625
 43
0.38
 44
0.125
 45
0.0
 46
0.0
 47
0.01
 48
0.01
140
0.15625
141
0.09
142
0.0
143
25.3999999999999986
144
1.0
145
0.0
146
1.0
147
0.09
 71
     1
 72
     0
 73
     1
 74
     1
 75
     0
 76
     0
 77
     0
 78
     4
170
     0
171
     2
172
     0
173
     0
174
     0
175
     0
176
     0
177
     0
178
     0
  0
ENDTAB
  0
ENDSEC
  0
SECTION
  2
BLOCKS
  0
BLOCK
  8
0
  2
$MODEL_SPACE
 70
     0
 10
0.0
 20
0.0
 30
0.0
  3
$MODEL_SPACE
  1

  0
ENDBLK
  5
21
  8
0
  0
BLOCK
 67
     1
  8
0
  2
$PAPER_SPACE
 70
     0
 10
0.0
 20
0.0
 30
0.0
  3
$PAPER_SPACE
  1

  0
ENDBLK
  5
1D
 67
     1
  8
0
  0
BLOCK
  8
0
  2
_FILLED
 70
     0
 10
0.0
 20
0.0
 30
0.0
  3
_FILLED
  1

  0
SOLID
  5
B630
  8
0
  6
BYBLOCK
 62
     0
 10
0.0
 20
0.0
 30
0.0
 11
-1.0
 21
0.1666666667
 31
0.0
 12
-1.0
 22
-0.1666666667
 32
0.0
 13
-1.0
 23
-0.1666666667
 33
0.0
  0
ENDBLK
  5
B631
  8
0
  6
BYBLOCK
 62
     0
  0
ENDSEC
  0
SECTION
  2
ENTITIES
  0
ATTDEF
  5
AA11
  8
DEFPOINTS
 10
3720.0951465067050776
 20
154.0413621821589913
 30
0.0
 40
0.001
  1
K-7469T-B4
  3

  2
MODELNUMBER
 70
     0
1001
ACDBATTR
1070
     0
1070
     1
  0
ATTDEF
  5
AA12
  8
DEFPOINTS
 10
3720.0951465067050776
 20
154.0396955154922978
 30
0.0
 40
0.001
  1
LOURE
  3

  2
TRADENAME
 70
     0
1001
ACDBATTR
1070
     0
1070
     1
  0
ATTDEF
  5
AA13
  8
DEFPOINTS
 10
3720.0951465067050776
 20
154.0380288488256895
 30
0.0
 40
0.001
  1
BATH AND SHOWER FAUCET
  3

  2
PRODUCT
 70
     0
1001
ACDBATTR
1070
     0
1070
     1
  0
LINE
  5
EC5C
  8
0
 10
3714.1893624191297931
 20
153.7606834775135098
 30
0.0
 11
3714.1893624191297931
 21
154.0077700917134962
 31
0.0
  0
LINE
  5
EC5D
  8
0
 10
3712.7720395845299208
 20
152.7371795405134947
 30
0.0
 11
3712.7720395845299208
 21
153.6741874145135114
 31
0.0
  0
LINE
  5
EC5E
  8
0
 10
3716.5515671435309741
 20
152.7371795405134947
 30
0.0
 11
3716.5515671435309741
 21
153.6741874145135114
 31
0.0
  0
LINE
  5
EC5F
  8
0
 10
3716.5515671435309741
 20
153.7606834775135098
 30
0.0
 11
3716.5515671435309741
 21
154.0077700917134962
 31
0.0
  0
LINE
  5
EC60
  8
0
 10
3719.3665277734307892
 20
153.7306834775135087
 30
0.0
 11
3719.3665277734307892
 21
144.6505033724135103
 31
0.0
  0
ARC
  5
EC61
  8
0
 10
3719.3874146230518818
 20
144.6591627012290928
 30
0.0
 40
0.022610715659675
 50
202.5180557176267087
 51
266.9531651018563139
  0
LINE
  5
EC62
  8
0
 10
3716.5200710805311246
 20
152.705683477513503
 30
0.0
 11
3712.8035356475311346
 21
152.705683477513503
 31
0.0
  0
LINE
  5
EC63
  8
0
 10
3712.8035356475311346
 20
153.705683477513503
 30
0.0
 11
3716.5200710805311246
 21
153.705683477513503
 31
0.0
  0
LINE
  5
EC64
  8
0
 10
3735.230701001829857
 20
153.705683477513503
 30
0.0
 11
3735.6677088758310674
 21
153.705683477513503
 31
0.0
  0
LINE
  5
EC65
  8
0
 10
3714.2193624191309027
 20
153.7306834775135087
 30
0.0
 11
3716.5215671435298646
 21
153.7306834775135087
 31
0.0
  0
LINE
  5
EC66
  8
0
 10
3714.2193624191309027
 20
154.0377700917134973
 30
0.0
 11
3716.5215671435298646
 21
154.0377700917134973
 31
0.0
  0
ARC
  5
EC67
  8
0
 10
3716.5215671435298646
 20
154.0077700917134962
 30
0.0
 40
0.029999999999994
 50
359.9999999999935199
 51
90.0
  0
ARC
  5
EC68
  8
0
 10
3716.5215671435298646
 20
153.7606834775135098
 30
0.0
 40
0.0300000000000011
 50
270.0
 51
0.0
  0
ARC
  5
EC69
  8
0
 10
3716.5200710805311246
 20
153.6741874145135114
 30
0.0
 40
0.0314960629999952
 50
359.9999999999935199
 51
90.0
  0
ARC
  5
EC6A
  8
0
 10
3716.5200710805311246
 20
152.7371795405134947
 30
0.0
 40
0.0314960629999961
 50
270.0
 51
0.0000000000065138
  0
ARC
  5
EC6B
  8
0
 10
3712.8035356475311346
 20
152.7371795405134947
 30
0.0
 40
0.0314960630000023
 50
180.0000000000065086
 51
270.0
  0
ARC
  5
EC6C
  8
0
 10
3712.8035356475311346
 20
153.6741874145135114
 30
0.0
 40
0.0314960630000023
 50
90.0
 51
180.0000000000065086
  0
ARC
  5
EC6D
  8
0
 10
3714.2193624191309027
 20
153.7606834775135098
 30
0.0
 40
0.0299999999999976
 50
179.9999999999934914
 51
270.0
  0
ARC
  5
EC6E
  8
0
 10
3714.2193624191309027
 20
154.0077700917134962
 30
0.0
 40
0.0299999999999932
 50
90.0
 51
180.0000000000129887
  0
LINE
  5
EC6F
  8
0
 10
3715.1779647813309566
 20
153.7306834775135087
 30
0.0
 11
3715.1779647813309566
 21
153.705683477513503
 31
0.0
  0
LINE
  5
EC70
  8
0
 10
3715.5629647813311749
 20
153.7306834775135087
 30
0.0
 11
3715.5629647813311749
 21
153.705683477513503
 31
0.0
  0
LINE
  5
EC71
  8
0
 10
3718.9137718679307909
 20
153.7606834775135098
 30
0.0
 11
3718.9137718679307909
 21
154.0077700917134962
 31
0.0
  0
LINE
  5
EC72
  8
0
 10
3721.2759765923310624
 20
153.7606834775135098
 30
0.0
 11
3721.2759765923310624
 21
154.0077700917134962
 31
0.0
  0
LINE
  5
EC73
  8
0
 10
3718.943771867930991
 20
153.7306834775135087
 30
0.0
 11
3721.2459765923308623
 21
153.7306834775135087
 31
0.0
  0
LINE
  5
EC74
  8
0
 10
3718.943771867930991
 20
154.0377700917134973
 30
0.0
 11
3721.2459765923308623
 21
154.0377700917134973
 31
0.0
  0
ARC
  5
EC75
  8
0
 10
3721.2459765923308623
 20
154.0077700917134962
 30
0.0
 40
0.029999999999994
 50
359.9999999999935199
 51
90.0
  0
ARC
  5
EC76
  8
0
 10
3721.2459765923308623
 20
153.7606834775135098
 30
0.0
 40
0.0300000000000011
 50
270.0
 51
0.0
  0
ARC
  5
EC77
  8
0
 10
3718.943771867930991
 20
153.7606834775135098
 30
0.0
 40
0.0299999999999976
 50
179.9999999999934914
 51
270.0
  0
ARC
  5
EC78
  8
0
 10
3718.943771867930991
 20
154.0077700917134962
 30
0.0
 40
0.0299999999999932
 50
90.0
 51
180.0000000000129887
  0
LINE
  5
EC79
  8
0
 10
3726.0003860411311507
 20
153.7606834775135098
 30
0.0
 11
3726.0003860411311507
 21
154.0077700917134962
 31
0.0
  0
LINE
  5
EC7A
  8
0
 10
3727.4177088757301135
 20
152.7371795405134947
 30
0.0
 11
3727.4177088757301135
 21
153.6741874145135114
 31
0.0
  0
LINE
  5
EC7B
  8
0
 10
3723.6381813167308792
 20
152.7371795405134947
 30
0.0
 11
3723.6381813167308792
 21
153.6741874145135114
 31
0.0
  0
LINE
  5
EC7C
  8
0
 10
3723.6381813167308792
 20
153.7606834775135098
 30
0.0
 11
3723.6381813167308792
 21
154.0077700917134962
 31
0.0
  0
LINE
  5
EC7D
  8
0
 10
3720.8232206868310641
 20
153.7306834775135087
 30
0.0
 11
3720.8232206868310641
 21
144.6505033724135103
 31
0.0
  0
ARC
  5
EC7E
  8
0
 10
3720.802333837209062
 20
144.6591627012290928
 30
0.0
 40
0.022610715659675
 50
273.0468348981436861
 51
337.4819442823733198
  0
LINE
  5
EC7F
  8
0
 10
3723.6696773797311835
 20
152.705683477513503
 30
0.0
 11
3727.3862128127311735
 21
152.705683477513503
 31
0.0
  0
LINE
  5
EC80
  8
0
 10
3727.3862128127311735
 20
153.705683477513503
 30
0.0
 11
3723.6696773797311835
 21
153.705683477513503
 31
0.0
  0
LINE
  5
EC81
  8
0
 10
3725.9703860411309506
 20
153.7306834775135087
 30
0.0
 11
3723.6681813167310793
 21
153.7306834775135087
 31
0.0
  0
LINE
  5
EC82
  8
0
 10
3725.9703860411309506
 20
154.0377700917134973
 30
0.0
 11
3723.6681813167310793
 21
154.0377700917134973
 31
0.0
  0
ARC
  5
EC83
  8
0
 10
3723.6681813167310793
 20
154.0077700917134962
 30
0.0
 40
0.029999999999994
 50
90.0
 51
180.0000000000065086
  0
ARC
  5
EC84
  8
0
 10
3723.6681813167310793
 20
153.7606834775135098
 30
0.0
 40
0.0300000000000011
 50
180.0
 51
270.0
  0
ARC
  5
EC85
  8
0
 10
3723.6696773797311835
 20
153.6741874145135114
 30
0.0
 40
0.0314960629999952
 50
90.0
 51
180.0000000000065086
  0
ARC
  5
EC86
  8
0
 10
3723.6696773797311835
 20
152.7371795405134947
 30
0.0
 40
0.0314960629999961
 50
179.9999999999934914
 51
270.0
  0
ARC
  5
EC87
  8
0
 10
3727.3862128127311735
 20
152.7371795405134947
 30
0.0
 40
0.0314960630000023
 50
270.0
 51
359.9999999999935199
  0
ARC
  5
EC88
  8
0
 10
3727.3862128127311735
 20
153.6741874145135114
 30
0.0
 40
0.0314960630000023
 50
359.9999999999935199
 51
90.0
  0
ARC
  5
EC89
  8
0
 10
3725.9703860411309506
 20
153.7606834775135098
 30
0.0
 40
0.0299999999999976
 50
270.0
 51
0.0000000000065138
  0
ARC
  5
EC8A
  8
0
 10
3725.9703860411309506
 20
154.0077700917134962
 30
0.0
 40
0.0299999999999932
 50
359.9999999999869829
 51
90.0
  0
LINE
  5
EC8B
  8
0
 10
3725.0117836789308967
 20
153.7306834775135087
 30
0.0
 11
3725.0117836789308967
 21
153.705683477513503
 31
0.0
  0
LINE
  5
EC8C
  8
0
 10
3724.6267836789311332
 20
153.7306834775135087
 30
0.0
 11
3724.6267836789311332
 21
153.705683477513503
 31
0.0
  0
LINE
  5
EC8D
  8
0
 10
3719.3862128128298536
 20
144.6365839476135022
 30
0.0
 11
3720.8035356474301807
 21
144.6365839476135022
 31
0.0
  0
LINE
  5
EC8E
  8
0
 10
3731.9058978522311918
 20
153.7606834775135098
 30
0.0
 11
3731.9058978522311918
 21
154.0077700917134962
 31
0.0
  0
LINE
  5
EC8F
  8
0
 10
3729.5436931278300108
 20
153.7606834775135098
 30
0.0
 11
3729.5436931278300108
 21
154.0077700917134962
 31
0.0
  0
LINE
  5
EC90
  8
0
 10
3731.8758978522300822
 20
153.7306834775135087
 30
0.0
 11
3729.5736931278311204
 21
153.7306834775135087
 31
0.0
  0
LINE
  5
EC91
  8
0
 10
3731.8758978522300822
 20
154.0377700917134973
 30
0.0
 11
3729.5736931278311204
 21
154.0377700917134973
 31
0.0
  0
ARC
  5
EC92
  8
0
 10
3729.5736931278311204
 20
154.0077700917134962
 30
0.0
 40
0.029999999999994
 50
90.0
 51
180.0000000000065086
  0
ARC
  5
EC93
  8
0
 10
3729.5736931278311204
 20
153.7606834775135098
 30
0.0
 40
0.0300000000000011
 50
180.0
 51
270.0
  0
ARC
  5
EC94
  8
0
 10
3731.8758978522300822
 20
153.7606834775135098
 30
0.0
 40
0.0299999999999976
 50
270.0
 51
0.0000000000065138
  0
ARC
  5
EC95
  8
0
 10
3731.8758978522300822
 20
154.0077700917134962
 30
0.0
 40
0.0299999999999932
 50
359.9999999999869829
 51
90.0
  0
LINE
  5
EC96
  8
0
 10
3736.6303073010308253
 20
153.7606834775135098
 30
0.0
 11
3736.6303073010308253
 21
154.0077700917134962
 31
0.0
  0
LINE
  5
EC97
  8
0
 10
3734.2681025766300991
 20
153.7606834775135098
 30
0.0
 11
3734.2681025766300991
 21
154.0077700917134962
 31
0.0
  0
LINE
  5
EC98
  8
0
 10
3736.6003073010301705
 20
153.7306834775135087
 30
0.0
 11
3734.2981025766312086
 21
153.7306834775135087
 31
0.0
  0
LINE
  5
EC99
  8
0
 10
3736.6003073010301705
 20
154.0377700917134973
 30
0.0
 11
3734.2981025766312086
 21
154.0377700917134973
 31
0.0
  0
ARC
  5
EC9A
  8
0
 10
3734.2981025766312086
 20
154.0077700917134962
 30
0.0
 40
0.029999999999994
 50
90.0
 51
180.0000000000065086
  0
ARC
  5
EC9B
  8
0
 10
3734.2981025766312086
 20
153.7606834775135098
 30
0.0
 40
0.0300000000000011
 50
180.0
 51
270.0
  0
ARC
  5
EC9C
  8
0
 10
3736.6003073010301705
 20
153.7606834775135098
 30
0.0
 40
0.0299999999999976
 50
270.0
 51
0.0000000000065138
  0
ARC
  5
EC9D
  8
0
 10
3736.6003073010301705
 20
154.0077700917134962
 30
0.0
 40
0.0299999999999932
 50
359.9999999999869829
 51
90.0
  0
LINE
  5
EC9E
  8
0
 10
3735.1992049388309169
 20
152.7364266856043002
 30
0.0
 11
3735.1992049388309169
 21
153.6741874145135114
 31
0.0
  0
CIRCLE
  5
EC9F
  8
0
 10
3730.7247929585378188
 20
152.3842255158795922
 30
0.0
 40
0.4527546367589926
  0
LINE
  5
ECA1
  8
0
 10
3735.6992049388309169
 20
152.7371795405134947
 30
0.0
 11
3735.6992049388309169
 21
153.6741874145135114
 31
0.0
  0
LINE
  5
ECA2
  8
0
 10
3738.9925120254310968
 20
153.7606834775135098
 30
0.0
 11
3738.9925120254310968
 21
154.0077700917134962
 31
0.0
  0
LINE
  5
ECA3
  8
0
 10
3741.3547167498309136
 20
153.7606834775135098
 30
0.0
 11
3741.3547167498309136
 21
154.0077700917134962
 31
0.0
  0
LINE
  5
ECA4
  8
0
 10
3739.0225120254308422
 20
153.7306834775135087
 30
0.0
 11
3741.3247167498311683
 21
153.7306834775135087
 31
0.0
  0
LINE
  5
ECA5
  8
0
 10
3739.0225120254308422
 20
154.0377700917134973
 30
0.0
 11
3741.3247167498311683
 21
154.0377700917134973
 31
0.0
  0
ARC
  5
ECA6
  8
0
 10
3741.3247167498311683
 20
154.0077700917134962
 30
0.0
 40
0.029999999999994
 50
359.9999999999935199
 51
90.0
  0
ARC
  5
ECA7
  8
0
 10
3741.3247167498311683
 20
153.7606834775135098
 30
0.0
 40
0.0300000000000011
 50
270.0
 51
0.0
  0
ARC
  5
ECA8
  8
0
 10
3739.0225120254308422
 20
153.7606834775135098
 30
0.0
 40
0.0299999999999976
 50
179.9999999999934914
 51
270.0
  0
ARC
  5
ECA9
  8
0
 10
3739.0225120254308422
 20
154.0077700917134962
 30
0.0
 40
0.0299999999999932
 50
90.0
 51
180.0000000000129887
  0
ARC
  5
ECAA
  8
0
 10
3735.2307074429850218
 20
152.7371953575434986
 30
0.0
 40
0.0315118806882859
 50
181.3977593777815969
 51
269.9882885145369755
  0
LINE
  5
ECAB
  8
0
 10
3735.230701001829857
 20
152.705683477513503
 30
0.0
 11
3735.6677088758310674
 21
152.705683477513503
 31
0.0
  0
ARC
  5
ECAC
  8
0
 10
3735.6677088758310674
 20
152.7371795405134947
 30
0.0
 40
0.0314960630000023
 50
270.0
 51
359.9999999999478746
  0
LINE
  5
ECAD
  8
0
 10
3730.3114096632311885
 20
153.7306834775135087
 30
0.0
 11
3730.3114096632311885
 21
152.5688901098534132
 31
0.0
  0
LINE
  5
ECAE
  8
0
 10
3731.1381813167308792
 20
153.7306834775135087
 30
0.0
 11
3731.1381813167308792
 21
152.5688787758498108
 31
0.0
  0
ARC
  5
ECAF
  8
0
 10
3735.230701001829857
 20
153.6741874145135114
 30
0.0
 40
0.0314960629999899
 50
90.0
 51
180.0000000000129887
  0
ARC
  5
ECB0
  8
0
 10
3735.6677088758310674
 20
153.6741874145135114
 30
0.0
 40
0.0314960630000023
 50
359.9999999999935199
 51
90.0
  0
LINE
  5
ECB1
  8
0
 10
3735.2567049388298983
 20
153.705683477513503
 30
0.0
 11
3735.2567049388298983
 21
153.7306834775135087
 31
0.0
  0
LINE
  5
ECB2
  8
0
 10
3735.6417049388310261
 20
153.705683477513503
 30
0.0
 11
3735.6417049388310261
 21
153.7306834775135087
 31
0.0
  0
LINE
  5
ECB4
  8
0
 10
3739.3862128128312179
 20
151.7897385956134997
 30
0.0
 11
3739.3862128128312179
 21
153.7306834775135087
 31
0.0
  0
ARC
  5
ECB5
  8
0
 10
3739.4137718679298814
 20
151.7897385956134997
 30
0.0
 40
0.0275590551000136
 50
180.0000000000293028
 51
269.9999999999739089
  0
LINE
  5
ECB6
  8
0
 10
3739.4137718679298814
 20
151.7621795405135003
 30
0.0
 11
3739.8192836789307876
 21
151.7621795405133867
 31
0.0
  0
ARC
  5
ECB7
  8
0
 10
3739.8192836789307876
 20
151.8015496192134037
 30
0.0
 40
0.0393700786999922
 50
269.9999999999739089
 51
0.0000000001661013
  0
LINE
  5
ECB8
  8
0
 10
3739.8586537576311457
 20
151.801549619213489
 30
0.0
 11
3739.8586537576297815
 21
151.8479080547872968
 31
0.0
  0
ARC
  5
ECB9
  8
0
 10
3740.1736143876310052
 20
155.1795023751132874
 30
0.0
 40
3.3464490005998249
 50
261.4511574443075119
 51
270.0
  0
ARC
  5
ECBA
  8
0
 10
3739.6790827504160006
 20
151.8897004185990909
 30
0.0
 40
0.0196850394371507
 50
188.5488426067225873
 51
261.4511574443075119
  0
ARC
  5
ECBB
  8
0
 10
3742.9688847141910628
 20
152.3842320556834125
 30
0.0
 40
3.3464490077602771
 50
171.4511574590978
 51
188.5488425353175899
  0
ARC
  5
ECBC
  8
0
 10
3739.6790827503909895
 20
152.878763693099387
 30
0.0
 40
0.0196850393626388
 50
98.548842513272632
 51
171.4511573876829971
  0
ARC
  5
ECBD
  8
0
 10
3740.173614390108014
 20
149.5889617033595016
 30
0.0
 40
3.3464490337540229
 50
90.0000000424177102
 51
98.548842513272632
  0
ARC
  5
ECBE
  8
0
 10
3740.1736143876310052
 20
155.179502375113799
 30
0.0
 40
3.3149529376002458
 50
261.6020926117109866
 51
270.0
  0
ARC
  5
ECBF
  8
0
 10
3742.9688847029729004
 20
152.3842320558134986
 30
0.0
 40
3.314952933642572
 50
171.6020926007201126
 51
188.3979073992782105
  0
ARC
  5
ECC0
  8
0
 10
3740.1736143876310052
 20
149.588961736513312
 30
0.0
 40
3.3149529376002489
 50
90.0
 51
98.3979073882889992
  0
ARC
  5
ECC1
  8
0
 10
3740.1673159687461521
 20
151.9634612517679955
 30
0.0
 40
0.1695685492081159
 50
258.0763654081986829
 51
272.1286721702231262
  0
ARC
  5
ECC2
  8
0
 10
3740.1670600683528392
 20
151.6401971236209079
 30
0.0
 40
0.1611517255071742
 50
87.6690386499628005
 51
102.4631003761529939
  0
LINE
  5
ECC3
  8
0
 10
3740.1322817831310203
 20
151.7975513403135039
 30
0.0
 11
3740.125285417041141
 21
151.8334023729888997
 31
0.0
  0
ARC
  5
ECC4
  8
0
 10
3740.1736143836310475
 20
151.9227878928305131
 30
0.0
 40
0.1270625121169467
 50
260.1893858816358147
 51
279.8106141183641853
  0
ARC
  5
ECC5
  8
0
 10
3740.1736143836310475
 20
151.6762406371015004
 30
0.0
 40
0.1232592049120174
 50
79.8835317095083468
 51
100.1164682904915963
  0
LINE
  5
ECC6
  8
0
 10
3740.095635249913812
 20
151.8339620349445909
 30
0.0
 11
3740.0848631948310867
 21
151.7964996297135087
 31
0.0
  0
ARC
  5
ECC7
  8
0
 10
3740.0646333974218578
 20
152.0395109610697091
 30
0.0
 40
0.2438519056121743
 50
255.2413098638338056
 51
274.7586901558880186
  0
LINE
  5
ECC8
  8
0
 10
3740.0025124613298431
 20
151.8037043853134946
 30
0.0
 11
3740.0001251586159015
 21
151.8262581610277095
 31
0.0
  0
ARC
  5
ECC9
  8
0
 10
3740.0234518796478369
 20
151.5688040580756137
 30
0.0
 40
0.2358317683772699
 50
74.9060200993239675
 51
95.0939799204016083
  0
ARC
  5
ECCA
  8
0
 10
3740.0330952318868185
 20
151.6785233035004978
 30
0.0
 40
0.1239839949783922
 50
74.9629720950438667
 51
95.0774626039688968
  0
ARC
  5
ECCB
  8
0
 10
3740.0545567155618301
 20
151.9248301622579049
 30
0.0
 40
0.1270202079529684
 50
255.2057836452094932
 51
274.8346510538210055
  0
LINE
  5
ECCC
  8
0
 10
3739.9629389656829517
 20
151.8287480055957985
 30
0.0
 11
3739.9524867933319001
 21
151.8006831394224037
 31
0.0
  0
ARC
  5
ECCD
  8
0
 10
3739.9545626168201125
 20
152.0494360769826869
 30
0.0
 40
0.2487615987004671
 50
250.3934289375766014
 51
269.521882373063022
  0
LINE
  5
ECCE
  8
0
 10
3739.871088272031102
 20
151.8150979308134936
 30
0.0
 11
3739.8704647813310658
 21
151.8468125860966893
 31
0.0
  0
ARC
  5
ECCF
  8
0
 10
3739.8711762125522
 20
151.5785634975663072
 30
0.0
 40
0.2365344495947934
 50
69.8940094629953848
 51
90.0213018476224249
  0
ARC
  5
ECD0
  8
0
 10
3739.8903253468170078
 20
151.6855464689647022
 30
0.0
 40
0.1261619944323995
 50
70.1674601852524233
 51
89.9313787843811951
  0
ARC
  5
ECD1
  8
0
 10
3739.9335855928411547
 20
151.9321310388363031
 30
0.0
 40
0.127906281887581
 50
250.3035470636783941
 51
269.795291905954798
  0
LINE
  5
ECD2
  8
0
 10
3740.0279450963298586
 20
151.8362253343661052
 30
0.0
 11
3740.0279450963298586
 21
151.824395444913506
 31
0.0
  0
LINE
  5
ECD3
  8
0
 10
3740.0279450963298586
 20
151.824395444913506
 30
0.0
 11
3739.8706985022258777
 21
151.834924072538513
 31
0.0
  0
ARC
  5
ECD4
  8
0
 10
3740.1736143876310052
 20
155.0771401704116954
 30
0.0
 40
3.3464566928982289
 50
265.4614815921926834
 51
270.0000001352519803
  0
ARC
  5
ECD5
  8
0
 10
3739.9097452510768562
 20
151.7529377604082015
 30
0.0
 40
0.0117980021326188
 50
182.9452764623129042
 51
265.4614815921926834
  0
LINE
  5
ECD6
  8
0
 10
3739.8979628333308938
 20
151.7523315538635131
 30
0.0
 11
3739.8974592671102073
 21
151.807317220963796
 31
0.0
  0
ARC
  5
ECD7
  8
0
 10
3740.9334569073298553
 20
151.7897385956134997
 30
0.0
 40
0.0275590551000136
 50
270.0000000000259774
 51
359.999999999970612
  0
LINE
  5
ECD8
  8
0
 10
3740.9334569073298553
 20
151.7621795405135003
 30
0.0
 11
3740.5279450963312229
 21
151.7621795405133867
 31
0.0
  0
ARC
  5
ECD9
  8
0
 10
3740.5279450963312229
 20
151.8015496192134037
 30
0.0
 40
0.0393700786999922
 50
179.9999999998339035
 51
270.0000000000259774
  0
LINE
  5
ECDA
  8
0
 10
3740.4885750176308647
 20
151.801549619213489
 30
0.0
 11
3740.4885750176308647
 21
151.8479080547872968
 31
0.0
  0
ARC
  5
ECDB
  8
0
 10
3740.1736143876310052
 20
155.1795023751132874
 30
0.0
 40
3.3464490005998249
 50
270.0
 51
278.5488425556926018
  0
ARC
  5
ECDC
  8
0
 10
3740.6681460248451003
 20
151.8897004185990909
 30
0.0
 40
0.0196850394371507
 50
278.5488425556926018
 51
351.451157393277299
  0
ARC
  5
ECDD
  8
0
 10
3737.3783440610700382
 20
152.3842320556834125
 30
0.0
 40
3.3464490077603171
 50
351.4511574646824101
 51
8.5488425409022373
  0
ARC
  5
ECDE
  8
0
 10
3740.6681460248710209
 20
152.878763693099387
 30
0.0
 40
0.0196850393626388
 50
8.5488426123169745
 51
81.4511574867273822
  0
ARC
  5
ECDF
  8
0
 10
3740.1736143851530869
 20
149.5889617033595016
 30
0.0
 40
3.3464490337540229
 50
81.4511574867273822
 51
89.9999999575822756
  0
ARC
  5
ECE0
  8
0
 10
3740.1736143876310052
 20
155.179502375113799
 30
0.0
 40
3.3149529376002458
 50
270.0
 51
278.3979073882890134
  0
ARC
  5
ECE1
  8
0
 10
3737.3783440722882006
 20
152.3842320558134986
 30
0.0
 40
3.314952933642572
 50
351.6020926007217895
 51
8.3979073992798448
  0
ARC
  5
ECE2
  8
0
 10
3740.1736143876310052
 20
149.588961736513312
 30
0.0
 40
3.3149529376002489
 50
81.602092611711015
 51
90.0
  0
ARC
  5
ECE3
  8
0
 10
3740.1799128065158584
 20
151.9634612517679955
 30
0.0
 40
0.1695685492081159
 50
267.8713278297768738
 51
281.9236345918013171
  0
ARC
  5
ECE4
  8
0
 10
3740.1801687069078071
 20
151.6401971236209079
 30
0.0
 40
0.1611517255071742
 50
77.5368996238469634
 51
92.3309613500372137
  0
LINE
  5
ECE5
  8
0
 10
3740.2149469921309901
 20
151.7975513403135039
 30
0.0
 11
3740.2219433582199599
 21
151.8334023729888997
 31
0.0
  0
ARC
  5
ECE6
  8
0
 10
3740.1736143916300534
 20
151.9227878928305131
 30
0.0
 40
0.1270625121169467
 50
260.1893858816358147
 51
279.8106141183641853
  0
ARC
  5
ECE7
  8
0
 10
3740.1736143916300534
 20
151.6762406371015004
 30
0.0
 40
0.1232592049120174
 50
79.8835317095083468
 51
100.1164682904915963
  0
LINE
  5
ECE8
  8
0
 10
3740.2515935253481985
 20
151.8339620349445909
 30
0.0
 11
3740.2623655804309237
 21
151.7964996297135087
 31
0.0
  0
ARC
  5
ECE9
  8
0
 10
3740.2825953778401527
 20
152.0395109610697091
 30
0.0
 40
0.2438519056121743
 50
265.2413098441119814
 51
284.7586901361661944
  0
LINE
  5
ECEA
  8
0
 10
3740.3447163139308032
 20
151.8037043853134946
 30
0.0
 11
3740.3471036166451995
 21
151.8262581610277095
 31
0.0
  0
ARC
  5
ECEB
  8
0
 10
3740.3237768956128093
 20
151.5688040580756137
 30
0.0
 40
0.2358317683772699
 50
84.9060200795984059
 51
105.093979900676004
  0
ARC
  5
ECEC
  8
0
 10
3740.3141335433751919
 20
151.6785233035004978
 30
0.0
 40
0.1239839949783922
 50
84.9225373960311174
 51
105.0370279049561049
  0
ARC
  5
ECED
  8
0
 10
3740.2926720597001804
 20
151.9248301622579049
 30
0.0
 40
0.1270202079529684
 50
265.1653489461791082
 51
284.7942163547904784
  0
LINE
  5
ECEE
  8
0
 10
3740.3842898095781493
 20
151.8287480055957985
 30
0.0
 11
3740.3947419819301103
 21
151.8006831394224037
 31
0.0
  0
ARC
  5
ECEF
  8
0
 10
3740.392666158441898
 20
152.0494360769826869
 30
0.0
 40
0.2487615987004671
 50
270.478117626936978
 51
289.6065710624234271
  0
LINE
  5
ECF0
  8
0
 10
3740.476140503229999
 20
151.8150979308134936
 30
0.0
 11
3740.4767639939309447
 21
151.8468125860966893
 31
0.0
  0
ARC
  5
ECF1
  8
0
 10
3740.4760525627098104
 20
151.5785634975663072
 30
0.0
 40
0.2365344495947934
 50
89.9786981523775893
 51
110.105990537004601
  0
ARC
  5
ECF2
  8
0
 10
3740.4569034284450026
 20
151.6855464689647022
 30
0.0
 40
0.1261619944323995
 50
90.0686212156188333
 51
109.8325398147475056
  0
ARC
  5
ECF3
  8
0
 10
3740.4136431824208557
 20
151.9321310388363031
 30
0.0
 40
0.127906281887581
 50
270.2047080940450883
 51
289.6964529363215775
  0
LINE
  5
ECF4
  8
0
 10
3740.3192836789298781
 20
151.8362253343661052
 30
0.0
 11
3740.3192836789298781
 21
151.824395444913506
 31
0.0
  0
LINE
  5
ECF5
  8
0
 10
3740.3192836789298781
 20
151.824395444913506
 30
0.0
 11
3740.4765302730352232
 21
151.834924072538513
 31
0.0
  0
ARC
  5
ECF6
  8
0
 10
3740.1736143876310052
 20
155.0771401704116954
 30
0.0
 40
3.3464566928982289
 50
269.9999998647480197
 51
274.5385184078072029
  0
ARC
  5
ECF7
  8
0
 10
3740.4374835241851542
 20
151.7529377604082015
 30
0.0
 40
0.0117980021326188
 50
274.5385184078072029
 51
357.0547235376870958
  0
LINE
  5
ECF8
  8
0
 10
3740.4492659419311167
 20
151.7523315538635131
 30
0.0
 11
3740.4497695081518032
 21
151.807317220963796
 31
0.0
  0
LINE
  5
ECF9
  8
0
 10
3740.9610159624307926
 20
151.7897385956134997
 30
0.0
 11
3740.9610159624307926
 21
153.7306834775135087
 31
0.0
  0
ARC
  5
ECFA
  8
0
 10
3740.9334569073298553
 20
151.7897385956134997
 30
0.0
 40
0.0275590551000136
 50
270.0000000000259774
 51
359.999999999970612
  0
LINE
  5
ECFB
  8
0
 10
3731.1381813167308792
 20
152.67556536731351
 30
0.0
 11
3739.3862128128312179
 21
152.67556536731351
 31
0.0
  0
LINE
  5
ECFC
  8
0
 10
3731.0713608892501725
 20
152.092888201913496
 30
0.0
 11
3739.3862128128312179
 21
152.092888201913496
 31
0.0
  0
ENDSEC
  0
EOF
