  0
SECTION
  2
HEADER
  9
$ACADVER
  1
AC1009
  9
$INSBASE
 10
-36243.0210645187980845
 20
-17315.9936343462286459
 30
0.0
  9
$EXTMIN
 10
-36248.1679628456113278
 20
-17319.3780135756787786
 30
0.0
  9
$EXTMAX
 10
-36243.0100514101068256
 20
-17314.6940353739300917
 30
0.0
  9
$LIMMIN
 10
0.0
 20
0.0
  9
$LIMMAX
 10
11.6929133858000007
 20
8.2677165353999982
  9
$ORTHOMODE
 70
     0
  9
$REGENMODE
 70
     1
  9
$FILLMODE
 70
     1
  9
$QTEXTMODE
 70
     0
  9
$MIRRTEXT
 70
     0
  9
$DRAGMODE
 70
     2
  9
$LTSCALE
 40
0.6431102362
  9
$OSMODE
 70
  4095
  9
$ATTMODE
 70
     1
  9
$TEXTSIZE
 40
0.2
  9
$TRACEWID
 40
0.05
  9
$TEXTSTYLE
  7
STANDARD
  9
$CLAYER
  8
0
  9
$CELTYPE
  6
BYLAYER
  9
$CECOLOR
 62
   256
  9
$DIMSCALE
 40
1.0
  9
$DIMASZ
 40
0.1875
  9
$DIMEXO
 40
0.0625
  9
$DIMDLI
 40
0.4443307087
  9
$DIMRND
 40
0.0
  9
$DIMDLE
 40
0.0
  9
$DIMEXE
 40
0.125
  9
$DIMTP
 40
0.01
  9
$DIMTM
 40
0.01
  9
$DIMTXT
 40
2.0
  9
$DIMCEN
 40
0.1052362205
  9
$DIMTSZ
 40
0.0
  9
$DIMTOL
 70
     1
  9
$DIMLIM
 70
     0
  9
$DIMTIH
 70
     1
  9
$DIMTOH
 70
     1
  9
$DIMSE1
 70
     0
  9
$DIMSE2
 70
     0
  9
$DIMTAD
 70
     0
  9
$DIMZIN
 70
     0
  9
$DIMBLK
  1

  9
$DIMASO
 70
     1
  9
$DIMSHO
 70
     1
  9
$DIMPOST
  1
\X
  9
$DIMAPOST
  1

  9
$DIMALT
 70
     1
  9
$DIMALTD
 70
     2
  9
$DIMALTF
 40
25.3999999999999986
  9
$DIMLFAC
 40
1.0
  9
$DIMTOFL
 70
     0
  9
$DIMTVP
 40
0.0
  9
$DIMTIX
 70
     0
  9
$DIMSOXD
 70
     0
  9
$DIMSAH
 70
     0
  9
$DIMBLK1
  1

  9
$DIMBLK2
  1

  9
$DIMSTYLE
  2
STANDARD
  9
$DIMCLRD
 70
     0
  9
$DIMCLRE
 70
     0
  9
$DIMCLRT
 70
     0
  9
$DIMTFAC
 40
1.0
  9
$DIMGAP
 40
0.09
  9
$LUNITS
 70
     2
  9
$LUPREC
 70
     4
  9
$SKETCHINC
 40
0.1
  9
$FILLETRAD
 40
0.0
  9
$AUNITS
 70
     0
  9
$AUPREC
 70
     0
  9
$MENU
  1
.
  9
$ELEVATION
 40
0.0
  9
$PELEVATION
 40
0.0
  9
$THICKNESS
 40
0.0
  9
$LIMCHECK
 70
     0
  9
$BLIPMODE
 70
     0
  9
$CHAMFERA
 40
0.0
  9
$CHAMFERB
 40
0.0
  9
$SKPOLY
 70
     0
  9
$TDCREATE
 40
2458060.468368056230247
  9
$TDUPDATE
 40
2459978.3781249998137355
  9
$TDINDWG
 40
0.3826806713
  9
$TDUSRTIMER
 40
0.3826806713
  9
$USRTIMER
 70
     1
  9
$ANGBASE
 50
0.0
  9
$ANGDIR
 70
     0
  9
$PDMODE
 70
     0
  9
$PDSIZE
 40
0.3125
  9
$PLINEWID
 40
0.0
  9
$COORDS
 70
     1
  9
$SPLFRAME
 70
     0
  9
$SPLINETYPE
 70
     6
  9
$SPLINESEGS
 70
     8
  9
$ATTDIA
 70
     1
  9
$ATTREQ
 70
     1
  9
$HANDLING
 70
     1
  9
$HANDSEED
  5
92D7
  9
$SURFTAB1
 70
     6
  9
$SURFTAB2
 70
     6
  9
$SURFTYPE
 70
     6
  9
$SURFU
 70
     6
  9
$SURFV
 70
     6
  9
$UCSNAME
  2

  9
$UCSORG
 10
0.0
 20
0.0
 30
0.0
  9
$UCSXDIR
 10
1.0
 20
0.0
 30
0.0
  9
$UCSYDIR
 10
0.0
 20
1.0
 30
0.0
  9
$PUCSNAME
  2

  9
$PUCSORG
 10
0.0
 20
0.0
 30
0.0
  9
$PUCSXDIR
 10
1.0
 20
0.0
 30
0.0
  9
$PUCSYDIR
 10
0.0
 20
1.0
 30
0.0
  9
$USERI1
 70
     0
  9
$USERI2
 70
     0
  9
$USERI3
 70
     0
  9
$USERI4
 70
     0
  9
$USERI5
 70
     0
  9
$USERR1
 40
0.0
  9
$USERR2
 40
0.0
  9
$USERR3
 40
0.0
  9
$USERR4
 40
0.0
  9
$USERR5
 40
0.0
  9
$WORLDVIEW
 70
     1
  9
$SHADEDGE
 70
     3
  9
$SHADEDIF
 70
    70
  9
$TILEMODE
 70
     1
  9
$MAXACTVP
 70
    64
  9
$PLIMCHECK
 70
     0
  9
$PEXTMIN
 10
1.0000000000000000E+20
 20
1.0000000000000000E+20
 30
1.0000000000000000E+20
  9
$PEXTMAX
 10
-1.0000000000000000E+20
 20
-1.0000000000000000E+20
 30
-1.0000000000000000E+20
  9
$PLIMMIN
 10
0.0
 20
0.0
  9
$PLIMMAX
 10
12.0
 20
9.0
  9
$UNITMODE
 70
     0
  9
$VISRETAIN
 70
     1
  9
$PLINEGEN
 70
     0
  9
$PSLTSCALE
 70
     1
  0
ENDSEC
  0
SECTION
  2
TABLES
  0
TABLE
  2
VPORT
 70
     1
  0
VPORT
  2
*ACTIVE
 70
     0
 10
0.0
 20
0.0
 11
1.0
 21
1.0
 12
-40160.4116389637783868
 22
-17436.2372459408688883
 13
0.0
 23
0.0
 14
1.0
 24
1.0
 15
0.0
 25
0.0
 16
0.0
 26
0.0
 36
60.2538140246172205
 17
3914.8226318359379547
 27
119.2012214660643963
 37
0.0
 40
4.7175150385191946
 41
2.2831541218637992
 42
50.0
 43
0.0
 44
0.0
 50
0.0
 51
0.0
 71
     0
 72
   100
 73
     1
 74
     1
 75
     0
 76
     0
 77
     0
 78
     0
  0
ENDTAB
  0
TABLE
  2
LTYPE
 70
     2
  0
LTYPE
  2
CONTINUOUS
 70
     0
  3
Solid line
 72
    65
 73
     0
 40
0.0
  0
LTYPE
  2
PHANTOM2
 70
     0
  3
___ _ _ ___ _ _ ___ _ _ ___ _ _
 72
    65
 73
     6
 40
1.25
 49
0.625
 49
-0.125
 49
0.125
 49
-0.125
 49
0.125
 49
-0.125
  0
ENDTAB
  0
TABLE
  2
LAYER
 70
     2
  0
LAYER
  2
0
 70
     0
 62
   255
  6
CONTINUOUS
  0
LAYER
  2
DEFPOINTS
 70
     0
 62
     7
  6
CONTINUOUS
  0
ENDTAB
  0
TABLE
  2
STYLE
 70
     1
  0
STYLE
  2
STANDARD
 70
     0
 40
0.0
 41
0.8
 50
0.0
 71
     0
 42
0.2
  3
txt
  4

  0
ENDTAB
  0
TABLE
  2
VIEW
 70
     0
  0
ENDTAB
  0
TABLE
  2
UCS
 70
     0
  0
ENDTAB
  0
TABLE
  2
APPID
 70
    10
  0
APPID
  2
ACAD
 70
     0
  0
APPID
  2
ACAD_MLEADERVER
 70
     0
  0
APPID
  2
ACAD_EXEMPT_FROM_CAD_STANDARDS
 70
     0
  0
APPID
  2
ACAD_NAV_VCDISPLAY
 70
     0
  0
APPID
  2
ACAECLAYERSTANDARD
 70
     0
  0
APPID
  2
ACCMTRANSPARENCY
 70
     0
  0
APPID
  2
ACAD_DSTYLE_DIMJAG
 70
     0
  0
APPID
  2
ACAD_DSTYLE_DIMTALN
 70
     0
  0
APPID
  2
ACDBATTR
 70
     0
  0
APPID
  2
ACADANNOTATIVE
 70
     0
  0
ENDTAB
  0
TABLE
  2
DIMSTYLE
 70
     1
  0
DIMSTYLE
  2
STANDARD
 70
     0
  3

  4

  5

  6

  7

 40
1.0
 41
0.1875
 42
0.0625
 43
0.38
 44
0.125
 45
0.0
 46
0.0
 47
0.01
 48
0.01
140
0.15625
141
0.09
142
0.0
143
25.3999999999999986
144
1.0
145
0.0
146
1.0
147
0.09
 71
     1
 72
     0
 73
     1
 74
     1
 75
     0
 76
     0
 77
     0
 78
     4
170
     0
171
     2
172
     0
173
     0
174
     0
175
     0
176
     0
177
     0
178
     0
  0
ENDTAB
  0
ENDSEC
  0
SECTION
  2
BLOCKS
  0
BLOCK
  8
0
  2
$MODEL_SPACE
 70
     0
 10
0.0
 20
0.0
 30
0.0
  3
$MODEL_SPACE
  1

  0
ENDBLK
  5
21
  8
0
  0
BLOCK
 67
     1
  8
0
  2
$PAPER_SPACE
 70
     0
 10
0.0
 20
0.0
 30
0.0
  3
$PAPER_SPACE
  1

  0
ENDBLK
  5
1D
 67
     1
  8
0
  0
ENDSEC
  0
SECTION
  2
ENTITIES
  0
ATTDEF
  5
8DD8
  8
DEFPOINTS
 10
-36243.0207180767174577
 20
-17315.9893591582913359
 30
0.0
 40
0.001
  1
K-74035ME-4
  3

  2
MODELNUMBER
 70
     0
1001
ACDBATTR
1070
     0
1070
     1
  0
ATTDEF
  5
8DD9
  8
DEFPOINTS
 10
-36243.0207180767174577
 20
-17315.9910258249583421
 30
0.0
 40
0.001
  1
TAUT
  3

  2
TRADENAME
 70
     0
1001
ACDBATTR
1070
     0
1070
     1
  0
ATTDEF
  5
8DDA
  8
DEFPOINTS
 10
-36243.0207180767174577
 20
-17315.9926924916289863
 30
0.0
 40
0.001
  1
SHOWER FAUCET
  3

  2
PRODUCT
 70
     0
1001
ACDBATTR
1070
     0
1070
     1
  0
LINE
  5
9111
  8
0
 10
-36248.1364657550511765
 20
-17319.3780095764814178
 30
0.0
 11
-36248.0116247311088955
 21
-17319.3780135755805532
 31
0.0
  0
LINE
  5
9112
  8
0
 10
-36247.8193914152070647
 20
-17317.0390738937603601
 30
0.0
 11
-36247.7799375940085156
 21
-17317.0390738835594675
 31
0.0
  0
LINE
  5
9113
  8
0
 10
-36247.7799375940085156
 20
-17317.0390738835703814
 30
0.0
 11
-36247.7769903563530534
 21
-17317.0390738827991299
 31
0.0
  0
LINE
  5
9114
  8
0
 10
-36247.495387088318239
 20
-17317.0390738097594294
 30
0.0
 11
-36247.2228280699127936
 21
-17317.0390737390589493
 31
0.0
  0
LINE
  5
9115
  8
0
 10
-36244.4888874364914955
 20
-17317.0390559999505058
 30
0.0
 11
-36244.610623138891242
 21
-17317.0390559999505058
 31
0.0
  0
LINE
  5
9116
  8
0
 10
-36247.0909387633000733
 20
-17317.0390559997686069
 30
0.0
 11
-36245.8310955797933275
 21
-17317.0390560373489279
 31
0.0
  0
LINE
  5
9117
  8
0
 10
-36248.1364667907109833
 20
-17315.3847400817285234
 30
0.0
 11
-36247.6083828714108677
 21
-17315.3847400817285234
 31
0.0
  0
LINE
  5
9118
  8
0
 10
-36247.090938136789191
 20
-17315.3847400817285234
 30
0.0
 11
-36244.488887436396908
 21
-17315.3847400817285234
 31
0.0
  0
LINE
  5
9119
  8
0
 10
-36247.2400298835127614
 20
-17316.148571651759994
 30
0.0
 11
-36247.5905421637071413
 21
-17315.3968963099614484
 31
0.0
  0
LINE
  5
911A
  8
0
 10
-36243.7918200269996305
 20
-17316.6110665565283853
 30
0.0
 11
-36243.3179630294034723
 21
-17317.2175758554294589
 31
0.0
  0
LINE
  5
911B
  8
0
 10
-36248.1679628456113278
 20
-17315.4170267401605088
 30
0.0
 11
-36248.1679618261114229
 21
-17319.3465135215810733
 31
0.0
  0
LINE
  5
911C
  8
0
 10
-36247.2031430356073542
 20
-17317.0193889851616404
 30
0.0
 11
-36247.203143146711227
 21
-17316.3149567937616666
 31
0.0
  0
LINE
  5
911D
  8
0
 10
-36247.1106238018910517
 20
-17315.4054389967495808
 30
0.0
 11
-36247.1106231761878007
 21
-17317.0193593478688854
 31
0.0
  0
LINE
  5
911E
  8
0
 10
-36247.9801688717125216
 20
-17319.3482931961807481
 30
0.0
 11
-36247.8508447991116554
 21
-17317.0687478819600074
 31
0.0
  0
LINE
  5
911F
  8
0
 10
-36245.693300297287351
 20
-17317.1357536420982797
 30
0.0
 11
-36245.693300256090879
 21
-17317.2420528546499554
 31
0.0
  0
LINE
  5
9120
  8
0
 10
-36243.8084660936001455
 20
-17315.4254590924283548
 30
0.0
 11
-36243.8084660936001455
 21
-17316.5625820746317913
 31
0.0
  0
LINE
  5
9121
  8
0
 10
-36243.3179630294034723
 20
-17317.2175758554294589
 30
0.0
 11
-36243.3179170294024516
 21
-17314.770465175028221
 31
0.0
  0
LINE
  5
9122
  8
0
 10
-36243.0210645187980845
 20
-17317.272775287830882
 30
0.0
 11
-36243.0210645187980845
 21
-17314.7144934046300477
 31
0.0
  0
LINE
  5
9123
  8
0
 10
-36243.7918200269996305
 20
-17315.3769743373304664
 30
0.0
 11
-36243.3179170293878997
 21
-17314.770465175020945
 31
0.0
  0
ARC
  5
9124
  8
0
 10
-36248.136465763207525
 20
-17319.3465135134792945
 30
0.0
 40
0.031496063
 50
180.0000148614143995
 51
270.0000148614143995
  0
ARC
  5
9125
  8
0
 10
-36247.3438885991490679
 20
-17318.3980492041082471
 30
0.0
 40
1.4502394541167569
 50
81.1566702039111334
 51
84.4306858946774952
  0
ARC
  5
9126
  8
0
 10
-36246.9670016079471679
 20
-17316.5174264410015894
 30
0.0
 40
1.0680187599565381
 50
98.2870970475164256
 51
119.9181032852047935
  0
ARC
  5
9127
  8
0
 10
-36247.5968439277930884
 20
-17316.3149568763183197
 30
0.0
 40
0.3937007810721356
 50
0.000012014112652
 51
25.0000137118694497
  0
ARC
  5
9128
  8
0
 10
-36248.1350610823064926
 20
-17315.4176171032013372
 30
0.0
 40
0.0329070593737417
 50
92.4482793414168498
 51
178.9720404731565111
  0
ARC
  5
9129
  8
0
 10
-36247.2228351716330508
 20
-17317.0193816029386653
 30
0.0
 40
0.0196921373965629
 50
270.0206629768736093
 51
359.9785208775807064
  0
ARC
  5
912A
  8
0
 10
-36247.0909381345263682
 20
-17317.0193709546983882
 30
0.0
 40
0.019685045087988
 50
179.9662168943980873
 51
269.998169897835794
  0
ARC
  5
912B
  8
0
 10
-36247.0890963717611157
 20
-17315.4062021543104493
 30
0.0
 40
0.0215409530307031
 50
94.9048135938725039
 51
177.9696878148627945
  0
ARC
  5
912C
  8
0
 10
-36245.8311248303434695
 20
-17317.1178261143504642
 30
0.0
 40
0.0787700824296746
 50
1.025791138819045
 51
89.978723734713455
  0
ARC
  5
912D
  8
0
 10
-36245.673614177510899
 20
-17317.2422916225987137
 30
0.0
 40
0.0196875266066205
 50
179.3051067261330047
 51
269.9969757011235743
  0
ARC
  5
912E
  8
0
 10
-36245.7326865428331075
 20
-17317.11631374479839
 30
0.0
 40
0.0196810942504465
 50
180.2974978253976133
 51
270.0013371858710798
  0
ARC
  5
912F
  8
0
 10
-36243.1588583697666763
 20
-17314.8963371460085909
 30
0.0
 40
0.2028383846337922
 50
94.1685859814238455
 51
141.6434702416638913
  0
ARC
  5
9130
  8
0
 10
-36243.1637165392676252
 20
-17317.0961643436203303
 30
0.0
 40
0.196297567267322
 50
218.2072238025577917
 51
270.2117178673836975
  0
ARC
  5
9131
  8
0
 10
-36243.7301460421222146
 20
-17315.4252484960816219
 30
0.0
 40
0.0783203346134608
 50
141.9486010242362966
 51
180.1540633901983028
  0
ARC
  5
9132
  8
0
 10
-36243.7293922142634983
 20
-17316.5625335889599228
 30
0.0
 40
0.0790738942052521
 50
180.0351320054662949
 51
217.8624018899452039
  0
ARC
  5
9133
  8
0
 10
-36243.0426820131178829
 20
-17314.7151860392405069
 30
0.0
 40
0.0216285876391299
 50
1.835155699576746
 51
77.9328368822332465
  0
ARC
  5
9134
  8
0
 10
-36243.040749558211246
 20
-17317.2727756679196318
 30
0.0
 40
0.0196850394062733
 50
270.2134494731632799
 51
0.0011063105527354
  0
ARC
  5
9135
  8
0
 10
-36244.4888874366297387
 20
-17317.0193709603117895
 30
0.0
 40
0.0196850397409847
 50
270.0000004110452778
 51
0.0081624389812819
  0
ARC
  5
9136
  8
0
 10
-36245.2246443425974576
 20
-17317.9063765553000849
 30
0.0
 40
1.0626697437727399
 50
54.7033433952544712
 51
78.312445048434455
  0
ARC
  5
9137
  8
0
 10
-36244.6357951850222889
 20
-17318.9675655220416957
 30
0.0
 40
2.2688966186830171
 50
116.6269184647504034
 51
121.7908540206077959
  0
ARC
  5
9138
  8
0
 10
-36247.8193891100308974
 20
-17317.0705830716506171
 30
0.0
 40
0.0315091779749767
 50
90.0041917009378665
 51
176.6610311671284137
  0
ARC
  5
9139
  8
0
 10
-36247.6105982560329721
 20
-17315.4071612137086049
 30
0.0
 40
0.0225303148726628
 50
27.103809595065389
 51
84.3570417222967563
  0
ARC
  5
913A
  8
0
 10
-36248.0116222025972093
 20
-17319.3465097218795563
 30
0.0
 40
0.0315038538074979
 50
269.9954014225576771
 51
356.7546760632008045
  0
LINE
  5
913B
  8
0
 10
-36243.0381603806090425
 20
-17314.6940353739300917
 30
0.0
 11
-36243.1736029719613725
 21
-17314.6940353739300917
 31
0.0
  0
LINE
  5
913C
  8
0
 10
-36243.0406762237980729
 20
-17317.2924605707303272
 30
0.0
 11
-36243.1629911872732919
 21
-17317.2924605707303272
 31
0.0
  0
LINE
  5
913D
  8
0
 10
-36244.4692023971001618
 20
-17317.0193681559503602
 30
0.0
 11
-36244.4692028920981102
 21
-17316.4152809866791358
 31
0.0
  0
LINE
  5
913E
  8
0
 10
-36244.4310171116230777
 20
-17316.415280971879838
 30
0.0
 11
-36244.488887436396908
 21
-17316.4152809942788735
 31
0.0
  0
LINE
  5
913F
  8
0
 10
-36244.4310170536991791
 20
-17316.5648883270805527
 30
0.0
 11
-36244.4310174956990522
 21
-17315.4231549875803466
 31
0.0
  0
LINE
  5
9140
  8
0
 10
-36244.4310174956990522
 20
-17315.4231549875803466
 30
0.0
 11
-36244.3719624004006619
 21
-17315.3640998466798919
 31
0.0
  0
LINE
  5
9141
  8
0
 10
-36244.3719624004006619
 20
-17315.3640998466798919
 30
0.0
 11
-36243.8995214555034181
 21
-17315.3640996637805074
 31
0.0
  0
LINE
  5
9142
  8
0
 10
-36243.8995214555034181
 20
-17315.3640996637805074
 30
0.0
 11
-36243.8404663145993254
 21
-17315.4231547589806723
 31
0.0
  0
LINE
  5
9143
  8
0
 10
-36243.8404663145993254
 20
-17315.4231547589806723
 30
0.0
 11
-36243.8404658725994523
 21
-17316.5648870424811321
 31
0.0
  0
LINE
  5
9144
  8
0
 10
-36243.8404658725994523
 20
-17316.5648870424811321
 30
0.0
 11
-36243.8995209678032552
 21
-17316.6239421834798122
 31
0.0
  0
LINE
  5
9145
  8
0
 10
-36243.8995209678032552
 20
-17316.6239421834798122
 30
0.0
 11
-36244.3719619127004989
 21
-17316.6239434223789431
 31
0.0
  0
LINE
  5
9146
  8
0
 10
-36244.3719619127004989
 20
-17316.6239434223789431
 30
0.0
 11
-36244.4310170536991791
 21
-17316.5648883270805527
 31
0.0
  0
LINE
  5
9147
  8
0
 10
-36243.8084660936001455
 20
-17316.5078004158785916
 30
0.0
 11
-36243.8404658946965355
 21
-17316.5078004282804613
 31
0.0
  0
LINE
  5
9148
  8
0
 10
-36243.8084662924884469
 20
-17315.4802413607794733
 30
0.0
 11
-36243.8404662925022421
 21
-17315.4802413731813431
 31
0.0
  0
LINE
  5
9149
  8
0
 10
-36244.4310174377897056
 20
-17315.5727612868795404
 30
0.0
 11
-36244.488887436396908
 21
-17315.5727613092785759
 31
0.0
  0
LINE
  5
914A
  8
0
 10
-36244.4692025660988293
 20
-17315.5727613016606483
 30
0.0
 11
-36244.4692017597990343
 21
-17315.4900846604796243
 31
0.0
  0
ARC
  5
914B
  8
0
 10
-36244.4790440804936225
 20
-17315.4900845644915535
 30
0.0
 40
0.009842320699323
 50
359.9994412255757084
 51
51.5005618881084573
  0
LINE
  5
914C
  8
0
 10
-36244.488887436396908
 20
-17315.4823818177792418
 30
0.0
 11
-36244.4692023969982984
 21
-17315.4823818253789796
 31
0.0
  0
LINE
  5
914D
  8
0
 10
-36244.4692023969982984
 20
-17315.4823818253789796
 30
0.0
 11
-36244.4692023969982984
 21
-17315.4054389949815231
 31
0.0
  0
ARC
  5
914E
  8
0
 10
-36244.4907299007609254
 20
-17315.4062021686986554
 30
0.0
 40
0.0215410271807496
 50
2.030348220284099
 51
85.0933364005531985
  0
ARC
  5
914F
  8
0
 10
-36245.2309059540129965
 20
-17317.8673884011695918
 30
0.0
 40
1.019427095026689
 50
89.4353538275629347
 51
114.4389789254278043
  0
ARC
  5
9150
  8
0
 10
-36245.3244606502776151
 20
-17319.3541566215717467
 30
0.0
 40
2.5082862645261379
 50
82.7835472417371108
 51
87.6328122229126478
  0
LINE
  5
9151
  8
0
 10
-36245.7326865428331075
 20
-17317.1359948390490899
 30
0.0
 11
-36244.7090328215999762
 21
-17317.1359945237782085
 31
0.0
  0
ARC
  5
9152
  8
0
 10
-36244.7090336911278428
 20
-17317.1163101383717731
 30
0.0
 40
0.0196843854289307
 50
270.0025309519442089
 51
358.9958332978687849
  0
ARC
  5
9153
  8
0
 10
-36244.6102321942817071
 20
-17317.118190056491585
 30
0.0
 40
0.0791350222233788
 50
90.2830550474267142
 51
178.8885894642880885
  0
LINE
  5
9154
  8
0
 10
-36244.748418407398276
 20
-17317.1359945390213397
 30
0.0
 11
-36244.7484183661872521
 21
-17317.2422937510782504
 31
0.0
  0
ARC
  5
9155
  8
0
 10
-36244.7681034071065369
 20
-17317.2422937587107299
 30
0.0
 40
0.0196850409197943
 50
269.977277942308092
 51
0.0000222118718974
  0
LINE
  5
9156
  8
0
 10
-36244.7681112136997399
 20
-17317.2619787980802357
 30
0.0
 11
-36245.6736152166995453
 21
-17317.2619791491815704
 31
0.0
  0
ARC
  5
9157
  8
0
 10
-36245.6007960535134771
 20
-17317.2816732283099554
 30
0.0
 40
0.0197005391966364
 50
0.0263949776652508
 51
88.5358986161292449
  0
LINE
  5
9158
  8
0
 10
-36245.5810955163979088
 20
-17317.2816641526806052
 30
0.0
 11
-36245.5810954935077461
 21
-17317.340697445339174
 31
0.0
  0
ARC
  5
9159
  8
0
 10
-36245.6007805483604898
 20
-17317.3407192508493608
 30
0.0
 40
0.0196850669254215
 50
270.0000449886185265
 51
0.0634676202656786
  0
LINE
  5
915A
  8
0
 10
-36245.6333592653973028
 20
-17317.3604043303785147
 30
0.0
 11
-36244.8083592654002132
 21
-17317.3604040109785274
 31
0.0
  0
LINE
  5
915B
  8
0
 10
-36244.8083592654002132
 20
-17317.3604040109785274
 30
0.0
 11
-36244.8083591709000757
 21
-17317.6044984991785896
 31
0.0
  0
LINE
  5
915C
  8
0
 10
-36244.8083591709000757
 20
-17317.6044984991785896
 30
0.0
 11
-36244.85954025349929
 21
-17317.6556796213808411
 31
0.0
  0
LINE
  5
915D
  8
0
 10
-36244.85954025349929
 20
-17317.6556796213808411
 30
0.0
 11
-36245.5821780487967771
 21
-17317.6556799010795658
 31
0.0
  0
LINE
  5
915E
  8
0
 10
-36245.5821780487967771
 20
-17317.6556799010795658
 30
0.0
 11
-36245.6333591708971653
 21
-17317.6044988185785769
 31
0.0
  0
LINE
  5
915F
  8
0
 10
-36245.6333591708971653
 20
-17317.6044988185785769
 30
0.0
 11
-36245.6333592653973028
 21
-17317.3604043303785147
 31
0.0
  0
LINE
  5
9160
  8
0
 10
-36245.6333591708971653
 20
-17317.6044988185785769
 30
0.0
 11
-36244.808359490300063
 21
-17317.6044988185785769
 31
0.0
  0
ARC
  5
9161
  8
0
 10
-36244.8408771921313019
 20
-17317.3406772161906702
 30
0.0
 40
0.0197459046622226
 50
180.121218723897897
 51
267.4799097552859166
  0
LINE
  5
9162
  8
0
 10
-36244.8606230525983847
 20
-17317.3407189919016673
 30
0.0
 11
-36244.8606230754012358
 21
-17317.2816640058990743
 31
0.0
  0
ARC
  5
9163
  8
0
 10
-36244.8411901745930663
 20
-17317.2814059369084134
 30
0.0
 40
0.0194346143062961
 50
91.5922464201245248
 51
180.7608434047552066
  0
ARC
  5
9164
  8
0
 10
-36247.6361885191581678
 20
-17317.8223285291787761
 30
0.0
 40
0.7958096496175714
 50
79.8090938311580516
 51
100.1909358928530054
  0
LINE
  5
9165
  8
0
 10
-36244.488887436396908
 20
-17315.3847400817285234
 30
0.0
 11
-36244.488887436396908
 21
-17317.0392972626796109
 31
0.0
  0
ARC
  5
9166
  8
0
 10
-36247.5815546056328458
 20
-17315.8786202485316608
 30
0.0
 40
1.6070210071297739
 50
358.379635434421516
 51
17.8981875537856396
  0
ARC
  5
9167
  8
0
 10
-36260.7147279486525804
 20
-17315.5071059050787881
 30
0.0
 40
14.7454480425490093
 50
355.8849525010077173
 51
358.379635434421516
  0
ARC
  5
9168
  8
0
 10
-36258.7388103332195897
 20
-17315.6492630491484306
 30
0.0
 40
12.7644232884012698
 50
354.1984100570163037
 51
355.8849525010077173
  0
ARC
  5
9169
  8
0
 10
-36234.7418328990825103
 20
-17319.7708194186816399
 30
0.0
 40
11.6476440221373991
 50
164.7493962726152859
 51
165.9317595848231122
  0
ARC
  5
916A
  8
0
 10
-36245.7953305030314368
 20
-17316.7571649589990557
 30
0.0
 40
0.1906844567589278
 50
139.1278789840662
 51
164.7493962726152859
  0
ARC
  5
916B
  8
0
 10
-36245.8003036199806957
 20
-17316.7626821687990741
 30
0.0
 40
0.1906789049338358
 50
96.5918352673565437
 51
136.8958574384834037
  0
ARC
  5
916C
  8
0
 10
-36245.7441117168564233
 20
-17317.5974071082491719
 30
0.0
 40
1.0271154388411881
 50
92.6157447676921208
 51
94.3598137218728965
  0
LINE
  5
916D
  8
0
 10
-36245.7909866992995376
 20
-17316.5713618554800632
 30
0.0
 11
-36245.575256988799083
 21
-17316.57127436015071
 31
0.0
  0
ARC
  5
916E
  8
0
 10
-36245.5735611034469912
 20
-17316.5383684284388437
 30
0.0
 40
0.0329496034699721
 50
267.0497361186988883
 51
303.1747171596016983
  0
ARC
  5
916F
  8
0
 10
-36245.5977530131131061
 20
-17316.5013636869189213
 30
0.0
 40
0.0771604549462715
 50
303.1747171596016983
 51
335.0628437095360255
  0
ARC
  5
9170
  8
0
 10
-36246.3763495594903361
 20
-17316.1754416097683134
 30
0.0
 40
0.9211675498227322
 50
337.0995667432574123
 51
356.6901485480474889
  0
ARC
  5
9171
  8
0
 10
-36247.9214403633013717
 20
-17315.9940445087995613
 30
0.0
 40
2.475859799734192
 50
354.5632173264871199
 51
3.9658385629648358
  0
ARC
  5
9172
  8
0
 10
-36247.3159062425183947
 20
-17315.9520642258612497
 30
0.0
 40
1.868872225250565
 50
3.9658385629648358
 51
11.5916631093016491
  0
ARC
  5
9173
  8
0
 10
-36245.967692001213436
 20
-17315.6755200204606808
 30
0.0
 40
0.4925879748164125
 50
11.5916631093016491
 51
25.8807671885498607
  0
ARC
  5
9174
  8
0
 10
-36245.6192799436321366
 20
-17315.5064847207504499
 30
0.0
 40
0.105336255108855
 50
25.8807671885498607
 51
53.006021778315251
  0
ARC
  5
9175
  8
0
 10
-36245.5733315757170203
 20
-17315.4495553349006514
 30
0.0
 40
0.0323107326840295
 50
57.3417761572850395
 51
88.9518412228390218
  0
LINE
  5
9176
  8
0
 10
-36245.572740521900414
 20
-17315.4172500086788204
 30
0.0
 11
-36245.9467194101016503
 21
-17315.4172515671816655
 31
0.0
  0
ARC
  5
9177
  8
0
 10
-36245.9489124175306642
 20
-17315.2623242837107682
 30
0.0
 40
0.1549430362526202
 50
253.4162444376156884
 51
270.8170240567825999
  0
ARC
  5
9178
  8
0
 10
-36245.8946894313703524
 20
-17315.1718919309605553
 30
0.0
 40
0.2584170408688771
 50
235.4530151104854099
 51
247.6068992491165943
  0
LINE
  5
9179
  8
0
 10
-36247.1209387372873607
 20
-17315.4605596415203763
 30
0.0
 11
-36247.1209387372873607
 21
-17316.9650496111717075
 31
0.0
  0
LINE
  5
917A
  8
0
 10
-36247.1106236677005654
 20
-17315.5432352930802153
 30
0.0
 11
-36247.1209387089911615
 21
-17315.5432352930802153
 31
0.0
  0
LINE
  5
917B
  8
0
 10
-36247.1106231494995882
 20
-17316.8818179702793714
 30
0.0
 11
-36247.1209387372873607
 21
-17316.8818179702793714
 31
0.0
  0
ARC
  5
917D
  8
0
 10
-36244.2253358769667102
 20
-17315.4825887246406637
 30
0.0
 40
0.1830624154380537
 50
143.2223168133859019
 51
216.7777275691437922
  0
LINE
  5
917E
  8
0
 10
-36244.3719623120996403
 20
-17315.5921904420792998
 30
0.0
 11
-36244.3719622413991601
 21
-17315.7748177850808133
 31
0.0
  0
ARC
  5
917F
  8
0
 10
-36243.7625201924020075
 20
-17315.9940208705702389
 30
0.0
 40
0.6476647309944279
 50
160.2174421983638126
 51
199.7826021581327893
  0
LINE
  5
9180
  8
0
 10
-36244.3719620716874488
 20
-17316.2132244278800499
 30
0.0
 11
-36244.3719620010015205
 21
-17316.3958517708815634
 31
0.0
  0
ARC
  5
9181
  8
0
 10
-36244.2390864892076934
 20
-17316.5054533801703656
 30
0.0
 40
0.1722452158815034
 50
140.4826770486423015
 51
219.517367280767786
  0
LINE
  5
9182
  8
0
 10
-36244.3719619162002346
 20
-17316.6150550922793627
 30
0.0
 11
-36244.3719619127004989
 21
-17316.6239434223789431
 31
0.0
  0
LINE
  5
9183
  8
0
 10
-36244.3719623969882377
 20
-17315.372987120779726
 30
0.0
 11
-36244.3719624004006619
 21
-17315.3640998466798919
 31
0.0
  0
ARC
  5
9184
  8
0
 10
-36244.046147003529768
 20
-17315.4825887246406637
 30
0.0
 40
0.1830624154380537
 50
323.2222724308562078
 51
36.7776831866140625
  0
LINE
  5
9185
  8
0
 10
-36243.8995205683968379
 20
-17315.5921904420792998
 30
0.0
 11
-36243.8995206390973181
 21
-17315.7748177850808133
 31
0.0
  0
ARC
  5
9186
  8
0
 10
-36244.5089626881017466
 20
-17315.9940208705702389
 30
0.0
 40
0.6476647309944279
 50
340.2173978418671254
 51
19.7825578016361483
  0
LINE
  5
9187
  8
0
 10
-36243.8995208088017534
 20
-17316.2132244278800499
 30
0.0
 11
-36243.8995208795095095
 21
-17316.3958517708815634
 31
0.0
  0
ARC
  5
9188
  8
0
 10
-36244.0323963912887848
 20
-17316.5054533801703656
 30
0.0
 40
0.1722452158815034
 50
320.4826327192320718
 51
39.5173229513576985
  0
LINE
  5
9189
  8
0
 10
-36243.8995209643035196
 20
-17316.6150550922793627
 30
0.0
 11
-36243.8995209678032552
 21
-17316.6239434223789431
 31
0.0
  0
LINE
  5
918A
  8
0
 10
-36243.8995204835009645
 20
-17315.372987120779726
 30
0.0
 11
-36243.8995204801030923
 21
-17315.3640998466798919
 31
0.0
  0
LINE
  5
918B
  8
0
 10
-36243.8995209643035196
 20
-17316.6150550922793627
 30
0.0
 11
-36244.3719619162002346
 21
-17316.6150550922793627
 31
0.0
  0
LINE
  5
918C
  8
0
 10
-36244.3719620010015205
 20
-17316.3958517708815634
 30
0.0
 11
-36243.8995208795095095
 21
-17316.3958517708815634
 31
0.0
  0
LINE
  5
918D
  8
0
 10
-36243.8995208088017534
 20
-17316.2132244278800499
 30
0.0
 11
-36244.3719620716874488
 21
-17316.2132246107794344
 31
0.0
  0
LINE
  5
918E
  8
0
 10
-36244.3719622413991601
 20
-17315.7748177850808133
 30
0.0
 11
-36243.8995206390973181
 21
-17315.7748177850808133
 31
0.0
  0
LINE
  5
918F
  8
0
 10
-36243.8995205683968379
 20
-17315.5921904420792998
 30
0.0
 11
-36244.3719623120996403
 21
-17315.5921906249714084
 31
0.0
  0
LINE
  5
9190
  8
0
 10
-36244.3719623969882377
 20
-17315.372987120779726
 30
0.0
 11
-36243.8995204835009645
 21
-17315.372987120779726
 31
0.0
  0
LINE
  5
9191
  8
0
 10
-36247.8505402396986028
 20
-17317.0661934808813385
 30
0.0
 11
-36247.9023203762990306
 21
-17316.5452828438792494
 31
0.0
  0
LINE
  5
9192
  8
0
 10
-36247.9023203762990306
 20
-17316.5452828438792494
 30
0.0
 11
-36247.9807663742976729
 21
-17319.3537469404800504
 31
0.0
  0
ENDSEC
  0
EOF
