  0
SECTION
  2
HEADER
  9
$ACADVER
  1
AC1009
  9
$INSBASE
 10
-36243.0093149568419904
 20
-17324.786702248849906
 30
0.0
  9
$EXTMIN
 10
-36247.2606728963364731
 20
-17328.1710795146791497
 30
0.0
  9
$EXTMAX
 10
-36238.7567360378307058
 20
-17323.4871031399597996
 30
0.0
  9
$LIMMIN
 10
0.0
 20
0.0
  9
$LIMMAX
 10
11.6929133858000007
 20
8.2677165353999982
  9
$ORTHOMODE
 70
     0
  9
$REGENMODE
 70
     1
  9
$FILLMODE
 70
     1
  9
$QTEXTMODE
 70
     0
  9
$MIRRTEXT
 70
     0
  9
$DRAGMODE
 70
     2
  9
$LTSCALE
 40
0.6431102362
  9
$OSMODE
 70
  4095
  9
$ATTMODE
 70
     1
  9
$TEXTSIZE
 40
0.2
  9
$TRACEWID
 40
0.05
  9
$TEXTSTYLE
  7
STANDARD
  9
$CLAYER
  8
0
  9
$CELTYPE
  6
BYLAYER
  9
$CECOLOR
 62
   256
  9
$DIMSCALE
 40
1.0
  9
$DIMASZ
 40
0.1875
  9
$DIMEXO
 40
0.0625
  9
$DIMDLI
 40
0.4443307087
  9
$DIMRND
 40
0.0
  9
$DIMDLE
 40
0.0
  9
$DIMEXE
 40
0.125
  9
$DIMTP
 40
0.01
  9
$DIMTM
 40
0.01
  9
$DIMTXT
 40
2.0
  9
$DIMCEN
 40
0.1052362205
  9
$DIMTSZ
 40
0.0
  9
$DIMTOL
 70
     1
  9
$DIMLIM
 70
     0
  9
$DIMTIH
 70
     1
  9
$DIMTOH
 70
     1
  9
$DIMSE1
 70
     0
  9
$DIMSE2
 70
     0
  9
$DIMTAD
 70
     0
  9
$DIMZIN
 70
     0
  9
$DIMBLK
  1

  9
$DIMASO
 70
     1
  9
$DIMSHO
 70
     1
  9
$DIMPOST
  1
\X
  9
$DIMAPOST
  1

  9
$DIMALT
 70
     1
  9
$DIMALTD
 70
     2
  9
$DIMALTF
 40
25.3999999999999986
  9
$DIMLFAC
 40
1.0
  9
$DIMTOFL
 70
     0
  9
$DIMTVP
 40
0.0
  9
$DIMTIX
 70
     0
  9
$DIMSOXD
 70
     0
  9
$DIMSAH
 70
     0
  9
$DIMBLK1
  1

  9
$DIMBLK2
  1

  9
$DIMSTYLE
  2
STANDARD
  9
$DIMCLRD
 70
     0
  9
$DIMCLRE
 70
     0
  9
$DIMCLRT
 70
     0
  9
$DIMTFAC
 40
1.0
  9
$DIMGAP
 40
0.09
  9
$LUNITS
 70
     2
  9
$LUPREC
 70
     4
  9
$SKETCHINC
 40
0.1
  9
$FILLETRAD
 40
0.0
  9
$AUNITS
 70
     0
  9
$AUPREC
 70
     0
  9
$MENU
  1
.
  9
$ELEVATION
 40
0.0
  9
$PELEVATION
 40
0.0
  9
$THICKNESS
 40
0.0
  9
$LIMCHECK
 70
     0
  9
$BLIPMODE
 70
     0
  9
$CHAMFERA
 40
0.0
  9
$CHAMFERB
 40
0.0
  9
$SKPOLY
 70
     0
  9
$TDCREATE
 40
2458060.468368056230247
  9
$TDUPDATE
 40
2459978.3785416670143604
  9
$TDINDWG
 40
0.3834792824
  9
$TDUSRTIMER
 40
0.3834792824
  9
$USRTIMER
 70
     1
  9
$ANGBASE
 50
0.0
  9
$ANGDIR
 70
     0
  9
$PDMODE
 70
     0
  9
$PDSIZE
 40
0.3125
  9
$PLINEWID
 40
0.0
  9
$COORDS
 70
     1
  9
$SPLFRAME
 70
     0
  9
$SPLINETYPE
 70
     6
  9
$SPLINESEGS
 70
     8
  9
$ATTDIA
 70
     1
  9
$ATTREQ
 70
     1
  9
$HANDLING
 70
     1
  9
$HANDSEED
  5
90E9
  9
$SURFTAB1
 70
     6
  9
$SURFTAB2
 70
     6
  9
$SURFTYPE
 70
     6
  9
$SURFU
 70
     6
  9
$SURFV
 70
     6
  9
$UCSNAME
  2

  9
$UCSORG
 10
0.0
 20
0.0
 30
0.0
  9
$UCSXDIR
 10
1.0
 20
0.0
 30
0.0
  9
$UCSYDIR
 10
0.0
 20
1.0
 30
0.0
  9
$PUCSNAME
  2

  9
$PUCSORG
 10
0.0
 20
0.0
 30
0.0
  9
$PUCSXDIR
 10
1.0
 20
0.0
 30
0.0
  9
$PUCSYDIR
 10
0.0
 20
1.0
 30
0.0
  9
$USERI1
 70
     0
  9
$USERI2
 70
     0
  9
$USERI3
 70
     0
  9
$USERI4
 70
     0
  9
$USERI5
 70
     0
  9
$USERR1
 40
0.0
  9
$USERR2
 40
0.0
  9
$USERR3
 40
0.0
  9
$USERR4
 40
0.0
  9
$USERR5
 40
0.0
  9
$WORLDVIEW
 70
     1
  9
$SHADEDGE
 70
     3
  9
$SHADEDIF
 70
    70
  9
$TILEMODE
 70
     1
  9
$MAXACTVP
 70
    64
  9
$PLIMCHECK
 70
     0
  9
$PEXTMIN
 10
1.0000000000000000E+20
 20
1.0000000000000000E+20
 30
1.0000000000000000E+20
  9
$PEXTMAX
 10
-1.0000000000000000E+20
 20
-1.0000000000000000E+20
 30
-1.0000000000000000E+20
  9
$PLIMMIN
 10
0.0
 20
0.0
  9
$PLIMMAX
 10
12.0
 20
9.0
  9
$UNITMODE
 70
     0
  9
$VISRETAIN
 70
     1
  9
$PLINEGEN
 70
     0
  9
$PSLTSCALE
 70
     1
  0
ENDSEC
  0
SECTION
  2
TABLES
  0
TABLE
  2
VPORT
 70
     1
  0
VPORT
  2
*ACTIVE
 70
     0
 10
0.0
 20
0.0
 11
1.0
 21
1.0
 12
-40157.8313363030174514
 22
-17445.0303127933912037
 13
0.0
 23
0.0
 14
1.0
 24
1.0
 15
0.0
 25
0.0
 16
0.0
 26
0.0
 36
60.2538140246172205
 17
3914.8226318359379547
 27
119.2012214660643963
 37
0.0
 40
4.7175131984113241
 41
2.2831541218637992
 42
50.0
 43
0.0
 44
0.0
 50
0.0
 51
0.0
 71
     0
 72
   100
 73
     1
 74
     1
 75
     0
 76
     0
 77
     0
 78
     0
  0
ENDTAB
  0
TABLE
  2
LTYPE
 70
     2
  0
LTYPE
  2
CONTINUOUS
 70
     0
  3
Solid line
 72
    65
 73
     0
 40
0.0
  0
LTYPE
  2
PHANTOM2
 70
     0
  3
___ _ _ ___ _ _ ___ _ _ ___ _ _
 72
    65
 73
     6
 40
1.25
 49
0.625
 49
-0.125
 49
0.125
 49
-0.125
 49
0.125
 49
-0.125
  0
ENDTAB
  0
TABLE
  2
LAYER
 70
     2
  0
LAYER
  2
0
 70
     0
 62
   255
  6
CONTINUOUS
  0
LAYER
  2
DEFPOINTS
 70
     0
 62
     7
  6
CONTINUOUS
  0
ENDTAB
  0
TABLE
  2
STYLE
 70
     1
  0
STYLE
  2
STANDARD
 70
     0
 40
0.0
 41
0.8
 50
0.0
 71
     0
 42
0.2
  3
txt
  4

  0
ENDTAB
  0
TABLE
  2
VIEW
 70
     0
  0
ENDTAB
  0
TABLE
  2
UCS
 70
     0
  0
ENDTAB
  0
TABLE
  2
APPID
 70
    10
  0
APPID
  2
ACAD
 70
     0
  0
APPID
  2
ACAD_MLEADERVER
 70
     0
  0
APPID
  2
ACAD_EXEMPT_FROM_CAD_STANDARDS
 70
     0
  0
APPID
  2
ACAD_NAV_VCDISPLAY
 70
     0
  0
APPID
  2
ACAECLAYERSTANDARD
 70
     0
  0
APPID
  2
ACCMTRANSPARENCY
 70
     0
  0
APPID
  2
ACAD_DSTYLE_DIMJAG
 70
     0
  0
APPID
  2
ACAD_DSTYLE_DIMTALN
 70
     0
  0
APPID
  2
ACDBATTR
 70
     0
  0
APPID
  2
ACADANNOTATIVE
 70
     0
  0
ENDTAB
  0
TABLE
  2
DIMSTYLE
 70
     2
  0
DIMSTYLE
  2
STANDARD
 70
     0
  3

  4

  5

  6

  7

 40
1.0
 41
0.1875
 42
0.0625
 43
0.38
 44
0.125
 45
0.0
 46
0.0
 47
0.01
 48
0.01
140
0.15625
141
0.09
142
0.0
143
25.3999999999999986
144
1.0
145
0.0
146
1.0
147
0.09
 71
     1
 72
     0
 73
     1
 74
     1
 75
     0
 76
     0
 77
     0
 78
     4
170
     0
171
     2
172
     0
173
     0
174
     0
175
     0
176
     0
177
     0
178
     0
  0
ENDTAB
  0
ENDSEC
  0
SECTION
  2
BLOCKS
  0
BLOCK
  8
0
  2
$MODEL_SPACE
 70
     0
 10
0.0
 20
0.0
 30
0.0
  3
$MODEL_SPACE
  1

  0
ENDBLK
  5
21
  8
0
  0
BLOCK
 67
     1
  8
0
  2
$PAPER_SPACE
 70
     0
 10
0.0
 20
0.0
 30
0.0
  3
$PAPER_SPACE
  1

  0
ENDBLK
  5
1D
 67
     1
  8
0
  0
ENDSEC
  0
SECTION
  2
ENTITIES
  0
LINE
  5
8CAD
  8
0
 10
-36246.3632913337423815
 20
-17325.2714279832616739
 30
0.0
 11
-36246.5824946550274035
 21
-17324.8917566934615024
 31
0.0
  0
LINE
  5
8CAE
  8
0
 10
-36243.5719855933566578
 20
-17328.1710795122598938
 30
0.0
 11
-36242.4454233408614527
 21
-17328.1710794450591493
 31
0.0
  0
LINE
  5
8CAF
  8
0
 10
-36243.8340400769302505
 20
-17325.0521276754589053
 30
0.0
 11
-36243.6505825236308738
 21
-17328.0970748776599066
 31
0.0
  0
LINE
  5
8CB0
  8
0
 10
-36245.9220904226312996
 20
-17325.3948244393614004
 30
0.0
 11
-36244.9378384538431419
 21
-17325.3948244393614004
 31
0.0
  0
LINE
  5
8CB1
  8
0
 10
-36241.0795707053330261
 20
-17325.3948244393614004
 30
0.0
 11
-36240.0953187360428274
 21
-17325.3948244393614004
 31
0.0
  0
LINE
  5
8CB2
  8
0
 10
-36246.0688246466015698
 20
-17325.3768679288587009
 30
0.0
 11
-36246.1806639906426426
 21
-17325.3768679288587009
 31
0.0
  0
LINE
  5
8CB3
  8
0
 10
-36239.8367455369298114
 20
-17325.3768668728589546
 30
0.0
 11
-36239.9485802622220945
 21
-17325.3768668728589546
 31
0.0
  0
LINE
  5
8CB4
  8
0
 10
-36239.6541181939319358
 20
-17324.3012044563583913
 30
0.0
 11
-36239.4349148725304985
 21
-17324.6808757461585628
 31
0.0
  0
LINE
  5
8CB5
  8
0
 10
-36242.3668249839392956
 20
-17328.0970747697610932
 30
0.0
 11
-36242.1832256415218581
 21
-17325.0497074524610071
 31
0.0
  0
LINE
  5
8CB6
  8
0
 10
-36246.1806639906426426
 20
-17324.1957655666592473
 30
0.0
 11
-36246.0688289601384895
 21
-17324.1957655666592473
 31
0.0
  0
LINE
  5
8CB7
  8
0
 10
-36239.948584448582551
 20
-17324.195764510659501
 30
0.0
 11
-36239.8367455369298114
 21
-17324.195764510659501
 31
0.0
  0
LINE
  5
8CB8
  8
0
 10
-36240.095318620056787
 20
-17324.1778079843606974
 30
0.0
 11
-36245.9220903141467716
 21
-17324.1778079843606974
 31
0.0
  0
LINE
  5
8CB9
  8
0
 10
-36246.5824946550274035
 20
-17324.6808768021583091
 30
0.0
 11
-36246.3632913337423815
 21
-17324.3012055123617756
 31
0.0
  0
LINE
  5
8CBA
  8
0
 10
-36239.4349148725304985
 20
-17324.8917556374617561
 30
0.0
 11
-36239.6541181939319358
 21
-17325.2714269272582897
 31
0.0
  0
ARC
  5
8CDB
  8
0
 10
-36244.9022130712983198
 20
-17329.5949734889582032
 30
0.0
 40
4.2003001329422576
 50
80.1786471855207452
 51
90.4859673053101545
  0
ARC
  5
8CDC
  8
0
 10
-36243.5720051512907958
 20
-17328.0923608680313919
 30
0.0
 40
0.0787186466562539
 50
183.4331706649668092
 51
270.0142353420932864
  0
ARC
  5
8CDD
  8
0
 10
-36245.9614602979272604
 20
-17324.7863157383617363
 30
0.0
 40
1.2992125984
 50
27.9283194796985192
 51
332.0001801053123245
  0
ARC
  5
8CDE
  8
0
 10
-36242.8775843197799986
 20
-17325.0001607017293281
 30
0.0
 40
0.9578664738643276
 50
176.7917820943542893
 51
183.1099855040658895
  0
ARC
  5
8CDF
  8
0
 10
-36245.9614606693430687
 20
-17324.7863167477589741
 30
0.0
 40
0.6299212598000001
 50
230.3641348061838983
 51
249.6358651938301136
  0
ARC
  5
8CE0
  8
0
 10
-36245.9614606693430687
 20
-17324.7863167477589741
 30
0.0
 40
0.6299212598000001
 50
110.3641348061699006
 51
129.6358651938159881
  0
ARC
  5
8CE1
  8
0
 10
-36245.9614606693430687
 20
-17324.7863167477589741
 30
0.0
 40
0.6299212598000001
 50
170.3641348063156897
 51
189.6358651936843103
  0
ARC
  5
8CE2
  8
0
 10
-36245.9233315110031981
 20
-17324.7863162117391767
 30
0.0
 40
0.6085094932348363
 50
89.8831318309662066
 51
270.1168579557407838
  0
ARC
  5
8CE3
  8
0
 10
-36242.4454023954021977
 20
-17328.092360762260796
 30
0.0
 40
0.0787186855826011
 50
269.984754747453394
 51
356.5668325883715966
  0
ARC
  5
8CE4
  8
0
 10
-36242.8489073926466517
 20
-17325.007677536799747
 30
0.0
 40
0.6670072770210915
 50
356.3872459241670754
 51
5.1528137213737368
  0
ARC
  5
8CE5
  8
0
 10
-36240.0559486362399184
 20
-17324.7863158749605645
 30
0.0
 40
1.2992125984
 50
207.9668811616919015
 51
152.0716737021186873
  0
ARC
  5
8CE6
  8
0
 10
-36240.0559488582293852
 20
-17324.7863156917592278
 30
0.0
 40
0.6299212598000001
 50
290.3641348061698864
 51
309.6358651938160733
  0
ARC
  5
8CE7
  8
0
 10
-36240.0559488582293852
 20
-17324.7863156917592278
 30
0.0
 40
0.6299212598000001
 50
350.3641348063156897
 51
9.6358651936843138
  0
ARC
  5
8CE8
  8
0
 10
-36240.0559488582293852
 20
-17324.7863156917592278
 30
0.0
 40
0.6299212598000001
 50
50.3641348061839409
 51
69.6358651938300994
  0
ARC
  5
8CE9
  8
0
 10
-36240.0952730545614031
 20
-17324.78631621185923
 30
0.0
 40
0.6085082292132201
 50
269.995698727972183
 51
90.0043012747682099
  0
ARC
  5
8D06
  8
0
 10
-36243.0093149568419904
 20
-17325.0044739400291292
 30
0.0
 40
0.8266661810942991
 50
3.9330668394086259
 51
175.9823077356263923
  0
ARC
  5
8D07
  8
0
 10
-36244.694139543469646
 20
-17328.1966750487808895
 30
0.0
 40
2.787203344581342
 50
71.3690889727048301
 51
79.49012238911628
  0
ARC
  5
8D08
  8
0
 10
-36241.1155155252708937
 20
-17329.5671268173209683
 30
0.0
 40
4.172457209269524
 50
89.5064030979578433
 51
100.5147920162120982
  0
ARC
  5
8D09
  8
0
 10
-36241.3032730691629695
 20
-17328.2622810823595501
 30
0.0
 40
2.855760390324535
 50
101.5885543841821033
 51
108.5906098896421952
  0
ATTDEF
  5
8DD5
  8
DEFPOINTS
 10
-36243.0235776765621267
 20
-17324.7889108288400166
 30
0.0
 40
0.001
  1
K-74035ME-4
  3

  2
MODELNUMBER
 70
     0
1001
ACDBATTR
1070
     0
1070
     1
  0
ATTDEF
  5
8DD6
  8
DEFPOINTS
 10
-36243.0235776765621267
 20
-17324.7905774955106608
 30
0.0
 40
0.001
  1
TAUT
  3

  2
TRADENAME
 70
     0
1001
ACDBATTR
1070
     0
1070
     1
  0
ATTDEF
  5
8DD7
  8
DEFPOINTS
 10
-36243.0235776765621267
 20
-17324.7922441621703911
 30
0.0
 40
0.001
  1
SHOWER FAUCET
  3

  2
PRODUCT
 70
     0
1001
ACDBATTR
1070
     0
1070
     1
  0
ENDSEC
  0
EOF
