  0
SECTION
  2
HEADER
  9
$ACADVER
  1
AC1009
  9
$INSBASE
 10
3604.2878365508590832
 20
296.5774920575026954
 30
0.0
  9
$EXTMIN
 10
3595.7188672658758151
 20
293.4015614783721162
 30
-0.0000000349181948
  9
$EXTMAX
 10
3604.5186889656570202
 20
297.85544027239348
 30
0.0000000814935746
  9
$LIMMIN
 10
0.0
 20
0.0
  9
$LIMMAX
 10
11.6929133858000007
 20
8.2677165353999982
  9
$ORTHOMODE
 70
     0
  9
$REGENMODE
 70
     1
  9
$FILLMODE
 70
     1
  9
$QTEXTMODE
 70
     0
  9
$MIRRTEXT
 70
     0
  9
$DRAGMODE
 70
     2
  9
$LTSCALE
 40
0.6431102362
  9
$OSMODE
 70
  2047
  9
$ATTMODE
 70
     1
  9
$TEXTSIZE
 40
0.2
  9
$TRACEWID
 40
0.05
  9
$TEXTSTYLE
  7
STANDARD
  9
$CLAYER
  8
0
  9
$CELTYPE
  6
BYLAYER
  9
$CECOLOR
 62
   256
  9
$DIMSCALE
 40
1.0
  9
$DIMASZ
 40
0.1875
  9
$DIMEXO
 40
0.0625
  9
$DIMDLI
 40
0.4443307087
  9
$DIMRND
 40
0.0
  9
$DIMDLE
 40
0.0
  9
$DIMEXE
 40
0.125
  9
$DIMTP
 40
0.01
  9
$DIMTM
 40
0.01
  9
$DIMTXT
 40
2.0
  9
$DIMCEN
 40
0.1052362205
  9
$DIMTSZ
 40
0.0
  9
$DIMTOL
 70
     1
  9
$DIMLIM
 70
     0
  9
$DIMTIH
 70
     1
  9
$DIMTOH
 70
     1
  9
$DIMSE1
 70
     0
  9
$DIMSE2
 70
     0
  9
$DIMTAD
 70
     0
  9
$DIMZIN
 70
     0
  9
$DIMBLK
  1

  9
$DIMASO
 70
     1
  9
$DIMSHO
 70
     1
  9
$DIMPOST
  1
\X
  9
$DIMAPOST
  1

  9
$DIMALT
 70
     1
  9
$DIMALTD
 70
     2
  9
$DIMALTF
 40
25.3999999999999986
  9
$DIMLFAC
 40
1.0
  9
$DIMTOFL
 70
     0
  9
$DIMTVP
 40
0.0
  9
$DIMTIX
 70
     0
  9
$DIMSOXD
 70
     0
  9
$DIMSAH
 70
     0
  9
$DIMBLK1
  1

  9
$DIMBLK2
  1

  9
$DIMSTYLE
  2
STANDARD
  9
$DIMCLRD
 70
     0
  9
$DIMCLRE
 70
     0
  9
$DIMCLRT
 70
     0
  9
$DIMTFAC
 40
1.0
  9
$DIMGAP
 40
0.09
  9
$LUNITS
 70
     2
  9
$LUPREC
 70
     4
  9
$SKETCHINC
 40
0.1
  9
$FILLETRAD
 40
0.0
  9
$AUNITS
 70
     0
  9
$AUPREC
 70
     0
  9
$MENU
  1
.
  9
$ELEVATION
 40
0.0
  9
$PELEVATION
 40
0.0
  9
$THICKNESS
 40
0.0
  9
$LIMCHECK
 70
     0
  9
$BLIPMODE
 70
     0
  9
$CHAMFERA
 40
0.0
  9
$CHAMFERB
 40
0.0
  9
$SKPOLY
 70
     0
  9
$TDCREATE
 40
2458060.468368056230247
  9
$TDUPDATE
 40
2459034.5074999998323619
  9
$TDINDWG
 40
0.4757508912
  9
$TDUSRTIMER
 40
0.4757508912
  9
$USRTIMER
 70
     1
  9
$ANGBASE
 50
0.0
  9
$ANGDIR
 70
     0
  9
$PDMODE
 70
     0
  9
$PDSIZE
 40
0.3125
  9
$PLINEWID
 40
0.0
  9
$COORDS
 70
     1
  9
$SPLFRAME
 70
     0
  9
$SPLINETYPE
 70
     6
  9
$SPLINESEGS
 70
     8
  9
$ATTDIA
 70
     1
  9
$ATTREQ
 70
     1
  9
$HANDLING
 70
     1
  9
$HANDSEED
  5
B5D2
  9
$SURFTAB1
 70
     6
  9
$SURFTAB2
 70
     6
  9
$SURFTYPE
 70
     6
  9
$SURFU
 70
     6
  9
$SURFV
 70
     6
  9
$UCSNAME
  2

  9
$UCSORG
 10
0.0
 20
0.0
 30
0.0
  9
$UCSXDIR
 10
1.0
 20
0.0
 30
0.0
  9
$UCSYDIR
 10
0.0
 20
1.0
 30
0.0
  9
$PUCSNAME
  2

  9
$PUCSORG
 10
0.0
 20
0.0
 30
0.0
  9
$PUCSXDIR
 10
1.0
 20
0.0
 30
0.0
  9
$PUCSYDIR
 10
0.0
 20
1.0
 30
0.0
  9
$USERI1
 70
     0
  9
$USERI2
 70
     0
  9
$USERI3
 70
     0
  9
$USERI4
 70
     0
  9
$USERI5
 70
     0
  9
$USERR1
 40
0.0
  9
$USERR2
 40
0.0
  9
$USERR3
 40
0.0
  9
$USERR4
 40
0.0
  9
$USERR5
 40
0.0
  9
$WORLDVIEW
 70
     1
  9
$SHADEDGE
 70
     3
  9
$SHADEDIF
 70
    70
  9
$TILEMODE
 70
     1
  9
$MAXACTVP
 70
    64
  9
$PLIMCHECK
 70
     0
  9
$PEXTMIN
 10
1.0000000000000000E+20
 20
1.0000000000000000E+20
 30
1.0000000000000000E+20
  9
$PEXTMAX
 10
-1.0000000000000000E+20
 20
-1.0000000000000000E+20
 30
-1.0000000000000000E+20
  9
$PLIMMIN
 10
0.0
 20
0.0
  9
$PLIMMAX
 10
12.0
 20
9.0
  9
$UNITMODE
 70
     0
  9
$VISRETAIN
 70
     1
  9
$PLINEGEN
 70
     0
  9
$PSLTSCALE
 70
     1
  0
ENDSEC
  0
SECTION
  2
TABLES
  0
TABLE
  2
VPORT
 70
     1
  0
VPORT
  2
*ACTIVE
 70
     0
 10
0.0
 20
0.0
 11
1.0
 21
1.0
 12
339.8024939360785197
 22
-8.5819330845781678
 13
0.0
 23
0.0
 14
1.0
 24
1.0
 15
0.0
 25
0.0
 16
0.0
 26
0.0
 36
48.4519809769821421
 17
3260.3162841796870453
 27
304.2104339599608807
 37
0.0
 40
4.4909429726124444
 41
2.6486111111111108
 42
50.0
 43
0.0
 44
0.0
 50
0.0
 51
0.0
 71
     0
 72
   100
 73
     1
 74
     1
 75
     0
 76
     0
 77
     0
 78
     1
  0
ENDTAB
  0
TABLE
  2
LTYPE
 70
     2
  0
LTYPE
  2
CONTINUOUS
 70
     0
  3
Solid line
 72
    65
 73
     0
 40
0.0
  0
LTYPE
  2
PHANTOM2
 70
     0
  3
___ _ _ ___ _ _ ___ _ _ ___ _ _
 72
    65
 73
     6
 40
1.25
 49
0.625
 49
-0.125
 49
0.125
 49
-0.125
 49
0.125
 49
-0.125
  0
ENDTAB
  0
TABLE
  2
LAYER
 70
     2
  0
LAYER
  2
0
 70
     0
 62
   255
  6
CONTINUOUS
  0
LAYER
  2
DEFPOINTS
 70
     0
 62
     7
  6
CONTINUOUS
  0
ENDTAB
  0
TABLE
  2
STYLE
 70
     1
  0
STYLE
  2
STANDARD
 70
     0
 40
0.0
 41
0.8
 50
0.0
 71
     0
 42
0.2
  3
txt
  4

  0
ENDTAB
  0
TABLE
  2
VIEW
 70
     0
  0
ENDTAB
  0
TABLE
  2
UCS
 70
     0
  0
ENDTAB
  0
TABLE
  2
APPID
 70
     9
  0
APPID
  2
ACAD
 70
     0
  0
APPID
  2
ACAD_MLEADERVER
 70
     0
  0
APPID
  2
ACAD_EXEMPT_FROM_CAD_STANDARDS
 70
     0
  0
APPID
  2
ACAD_NAV_VCDISPLAY
 70
     0
  0
APPID
  2
ACAECLAYERSTANDARD
 70
     0
  0
APPID
  2
ACCMTRANSPARENCY
 70
     0
  0
APPID
  2
ACAD_DSTYLE_DIMJAG
 70
     0
  0
APPID
  2
ACAD_DSTYLE_DIMTALN
 70
     0
  0
APPID
  2
ACDBATTR
 70
     0
  0
ENDTAB
  0
TABLE
  2
DIMSTYLE
 70
     1
  0
DIMSTYLE
  2
STANDARD
 70
     0
  3

  4

  5

  6

  7

 40
1.0
 41
0.1875
 42
0.0625
 43
0.38
 44
0.125
 45
0.0
 46
0.0
 47
0.01
 48
0.01
140
0.15625
141
0.09
142
0.0
143
25.3999999999999986
144
1.0
145
0.0
146
1.0
147
0.09
 71
     1
 72
     0
 73
     1
 74
     1
 75
     0
 76
     0
 77
     0
 78
     4
170
     0
171
     2
172
     0
173
     0
174
     0
175
     0
176
     0
177
     0
178
     0
  0
ENDTAB
  0
ENDSEC
  0
SECTION
  2
BLOCKS
  0
BLOCK
  8
0
  2
$MODEL_SPACE
 70
     0
 10
0.0
 20
0.0
 30
0.0
  3
$MODEL_SPACE
  1

  0
ENDBLK
  5
21
  8
0
  0
BLOCK
 67
     1
  8
0
  2
$PAPER_SPACE
 70
     0
 10
0.0
 20
0.0
 30
0.0
  3
$PAPER_SPACE
  1

  0
ENDBLK
  5
1D
 67
     1
  8
0
  0
BLOCK
  8
0
  2
_FILLED
 70
     0
 10
0.0
 20
0.0
 30
0.0
  3
_FILLED
  1

  0
SOLID
  5
75F5
  8
0
  6
BYBLOCK
 62
     0
 10
0.0
 20
0.0
 30
0.0
 11
-1.0
 21
0.1666666667
 31
0.0
 12
-1.0
 22
-0.1666666667
 32
0.0
 13
-1.0
 23
-0.1666666667
 33
0.0
  0
ENDBLK
  5
75F6
  8
0
  6
BYBLOCK
 62
     0
  0
BLOCK
  8
0
  2
A$C300D2B1E
 70
     0
 10
0.0
 20
0.0
 30
0.0
  3
A$C300D2B1E
  1

  0
LINE
  5
7B0F
  8
0
 10
0.7932906039658186
 20
6.1474004962999986
 30
0.0
 11
-3.1369707903000008
 21
6.1474004962999986
 31
0.0
  0
ARC
  5
7B10
  8
0
 10
-3.1369707903000008
 20
6.1159044332999786
 30
0.0
 40
0.031496063000021
 50
90.0
 51
180.0000680358353122
  0
LINE
  5
7B11
  8
0
 10
-3.1684668532999991
 20
6.1159043958999986
 30
0.0
 11
-3.1684667059084961
 21
5.9917799406033749
 31
0.0
  0
ARC
  5
7B12
  8
0
 10
-3.1359931681543252
 20
5.9917799791640567
 30
0.0
 40
0.0324735377541943
 50
180.0000680358355112
 51
265.1084260899637002
  0
LINE
  5
7B13
  8
0
 10
-3.1387621996000021
 20
5.959424714999999
 30
0.0
 11
-0.8564189899500007
 21
5.830052983199999
 31
0.0
  0
ARC
  5
7B14
  8
0
 10
-0.8603151488506277
 20
5.7987357644534061
 30
0.0
 40
0.0315586476928432
 50
0.1699571233959691
 51
82.9082998423400284
  0
LINE
  5
7B15
  8
0
 10
-0.8287566400000017
 20
5.7988293770922414
 30
0.0
 11
-0.8287566400000017
 21
5.758359363948597
 31
0.0
  0
ARC
  5
7B16
  8
0
 10
-1.6240993172408791
 20
5.6156259692066568
 30
0.0
 40
0.8081669181871118
 50
0.4979576855980052
 51
10.1725824177839694
  0
ARC
  5
7B17
  8
0
 10
-1.65092785481935
 20
5.6184291054406126
 30
0.0
 40
0.8349756010166363
 50
349.9531025931988211
 51
0.2896144699855655
  0
LINE
  5
7B18
  8
0
 10
-0.8287563628
 20
5.4727641061999988
 30
0.0
 11
-0.8287566400999999
 21
5.2022661413999991
 31
0.0
  0
ARC
  5
7B19
  8
0
 10
-0.8090716007707179
 20
5.2022661412292841
 30
0.0
 40
0.0196850392292838
 50
179.9999995031124911
 51
270.0000002126341201
  0
LINE
  5
7B1A
  8
0
 10
-0.8090716006976634
 20
5.1825811020000003
 30
0.0
 11
-0.1045943584232738
 21
5.1825811046144308
 31
0.0
  0
ARC
  5
7B1B
  8
0
 10
-0.1046396545377313
 20
5.5762816765276897
 30
0.0
 40
0.393700562507019
 50
269.9995733874852135
 51
295.0000016643201093
  0
LINE
  5
7B1C
  8
0
 10
0.0617454032000033
 20
5.2194677957999991
 30
0.0
 11
0.8134208665843942
 21
5.5699798474056879
 31
0.0
  0
LINE
  5
7B1D
  8
0
 10
0.8134208665843942
 20
5.5699798474056879
 30
0.0
 11
0.8247866670999997
 21
5.5878205387763291
 31
0.0
  0
LINE
  5
7B1E
  8
0
 10
0.8247866670999997
 20
5.5878205387763291
 30
0.0
 11
0.8247866670999997
 21
6.1159044332999999
 31
0.0
  0
ARC
  5
7B1F
  8
0
 10
0.793290604100001
 20
6.1159044332999981
 30
0.0
 40
0.0314960629999988
 50
0.0000000000016284
 51
90.0
  0
ARC
  5
7B20
  8
0
 10
-0.1058759049000706
 20
4.9704601186999708
 30
0.0
 40
0.8661417323000712
 50
7.9370563895858428
 51
35.297962656711249
  0
ARC
  5
7B21
  8
0
 10
0.1058759050004738
 20
4.970460118699882
 30
0.0
 40
0.866141732300489
 50
165.8238798575428916
 51
172.0629079588966874
  0
LINE
  5
7B22
  8
0
 10
0.8267693160999982
 20
5.0900614169000011
 30
0.0
 11
-0.8268140931999994
 21
5.0900614169000011
 31
0.0
  0
ARC
  5
7B23
  8
0
 10
-1.4292810908965621
 20
5.1031714199262881
 30
0.0
 40
0.602609621141963
 50
286.855181828750915
 51
358.7534100324513133
  0
ARC
  5
7B24
  8
0
 10
-4.535423484617124
 20
4.3065575317394176
 30
0.0
 40
0.0315056497205042
 50
91.4781965473869718
 51
179.9881338465783074
  0
LINE
  5
7B25
  8
0
 10
-4.5669291337000022
 20
4.3065650265999986
 30
0.0
 11
-4.5669009743134437
 21
3.5885219872317089
 31
0.0
  0
ARC
  5
7B26
  8
0
 10
-4.5355820146963159
 20
3.5896861087001199
 30
0.0
 40
0.0313405872678312
 50
182.1286963563993879
 51
255.4728429489879034
  0
ARC
  5
7B27
  8
0
 10
-4.4423751533248046
 20
3.8657360880038589
 30
0.0
 40
0.3226278941953013
 50
251.7438441207652886
 51
269.7497210927917877
  0
ARC
  5
7B28
  8
0
 10
-4.3027688265396744
 20
35.825290856928973
 30
0.0
 40
32.2824875771539013
 50
269.7497210927917877
 51
270.3082560533846959
  0
ARC
  5
7B29
  8
0
 10
-4.1045419430343042
 20
-1.0189303782880039
 30
0.0
 40
4.562266897899371
 50
88.0379458748542874
 51
90.3082560533847669
  0
ARC
  5
7B2A
  8
0
 10
-3.9531401490543661
 20
2.0250060983929501
 30
0.0
 40
1.515663258921278
 50
66.7999536345270712
 51
89.8185732688546636
  0
LINE
  5
7B2B
  8
0
 10
-3.3603786683000001
 20
3.4198593657999998
 30
0.0
 11
-1.8110255516000029
 21
3.3576004293000001
 31
0.0
  0
ARC
  5
7B2C
  8
0
 10
-1.625750330301055
 20
2.5412319383408342
 30
0.0
 40
0.8018200729077763
 50
355.1751721501752854
 51
48.9395775859007927
  0
ARC
  5
7B2D
  8
0
 10
-1.8101976493244081
 20
2.0577940367919139
 30
0.0
 40
1.299806656171242
 50
56.8315931809417378
 51
90.0364941272019479
  0
LINE
  5
7B2E
  8
0
 10
-0.8267693161000053
 20
2.4737906311999991
 30
0.0
 11
-0.8267693161000053
 21
0.3598548673999999
 31
0.0
  0
ARC
  5
7B2F
  8
0
 10
-0.8662910953799958
 20
0.3598548673999999
 30
0.0
 40
0.0395217792799905
 50
342.7044939130656189
 51
359.9999999999996021
  0
LINE
  5
7B30
  8
0
 10
-0.8285563280999994
 20
0.3481050428999999
 30
0.0
 11
-0.9233975914739609
 21
0.0450862340402737
 31
0.0
  0
ARC
  5
7B31
  8
0
 10
-0.8858260912999469
 20
0.0333224570999858
 30
0.0
 40
0.0393700911000571
 50
162.6144669781045025
 51
179.9999999999795079
  0
LINE
  5
7B32
  8
0
 10
-0.9251961824000041
 20
0.0333224570999999
 30
0.0
 11
-0.9251968503999989
 21
0.0
 31
0.0
  0
LINE
  5
7B33
  8
0
 10
-0.9251968503999989
 20
0.0
 30
0.0
 11
0.9251968503999989
 21
0.0
 31
0.0
  0
LINE
  5
7B34
  8
0
 10
0.9251968503999989
 20
0.0
 30
0.0
 11
0.9251961846054967
 21
0.0333272725999996
 31
0.0
  0
ARC
  5
7B35
  8
0
 10
0.8858524384513053
 20
0.0333264866115931
 30
0.0
 40
0.0393437461620425
 50
0.0011446245681504
 51
17.3913921651721388
  0
LINE
  5
7B36
  8
0
 10
0.9233975948636548
 20
0.0450862311681491
 30
0.0
 11
0.828493429725274
 21
0.3480853062898468
 31
0.0
  0
ARC
  5
7B37
  8
0
 10
0.8645138228680374
 20
0.3593674705598115
 30
0.0
 40
0.0377459395534633
 50
179.2596642379675131
 51
197.3913921651725047
  0
LINE
  5
7B38
  8
0
 10
0.8267710342999983
 20
0.3598551834692154
 30
0.0
 11
0.8267710342999983
 21
1.27933887434313
 31
0.0
  0
LINE
  5
7B39
  8
0
 10
0.8267710342999983
 20
1.729847817344889
 30
0.0
 11
0.8267710342999983
 21
5.0900614169000011
 31
0.0
  0
ARC
  5
7B3A
  8
0
 10
1.4909296744400391
 20
1.632872204886338
 30
0.0
 40
0.0043168086240248
 50
33.1565880834873212
 51
124.9452851473065067
  0
LINE
  5
7B3B
  8
0
 10
1.494543615757375
 20
1.635233192995442
 30
0.0
 11
1.5017901644999969
 21
1.619259100999999
 31
0.0
  0
ARC
  5
7B3C
  8
0
 10
1.4980347102710061
 20
1.619072098500183
 30
0.0
 40
0.0030406640307193
 50
77.5218700381962549
 51
117.7087810448064999
  0
ARC
  5
7B3D
  8
0
 10
1.5089283256299799
 20
1.5983305431297239
 30
0.0
 40
0.0264689156679002
 50
117.7087810448071963
 51
153.7002631540941877
  0
ARC
  5
7B3E
  8
0
 10
1.712815427526031
 20
1.473529615650043
 30
0.0
 40
0.2654225650497705
 50
149.0438836662941071
 51
169.1781795571073985
  0
ARC
  5
7B3F
  8
0
 10
1.5011353805648679
 20
1.509789160591372
 30
0.0
 40
0.0508670372387893
 50
164.5218000693083127
 51
186.4953805282391102
  0
ARC
  5
7B40
  8
0
 10
1.47257707792394
 20
1.5065376853890791
 30
0.0
 40
0.0221242339530634
 50
186.4953805282405881
 51
204.8201074357531866
  0
ARC
  5
7B41
  8
0
 10
1.4551001269232591
 20
1.498454756214328
 30
0.0
 40
0.0028686487808534
 50
204.8201074357446885
 51
287.852222308415719
  0
ARC
  5
7B42
  8
0
 10
1.4338641725431029
 20
1.5643904732691389
 30
0.0
 40
0.0721397433439395
 50
287.8522223084174811
 51
289.3776536974662008
  0
ARC
  5
7B43
  8
0
 10
1.386192360827305
 20
1.570107901749531
 30
0.0
 40
0.1028090796216053
 50
314.1474639961992921
 51
339.8438164162317889
  0
ARC
  5
7B44
  8
0
 10
1.251263749202415
 20
1.639592481997509
 30
0.0
 40
0.254108874641459
 50
335.615579543053002
 51
351.6014774226541135
  0
ARC
  5
7B45
  8
0
 10
1.449316592392847
 20
1.609356483393569
 30
0.0
 40
0.05377275124668
 50
352.6506907581552923
 51
7.8019337020849564
  0
ARC
  5
7B46
  8
0
 10
1.4902179599730581
 20
1.6142715910539289
 30
0.0
 40
0.0126012834902428
 50
10.9076160157955009
 51
23.315791406386559
  0
ARC
  5
7B47
  8
0
 10
1.4956230780546951
 20
1.6165587647816591
 30
0.0
 40
0.006732367407971
 50
23.6468109254115717
 51
38.0716535113556631
  0
ARC
  5
7B48
  8
0
 10
1.4980847700159501
 20
1.618487011925158
 30
0.0
 40
0.0036053777440086
 50
38.071653511390231
 51
80.3087159863891742
  0
ARC
  5
7B49
  8
0
 10
1.616780632995872
 20
1.5185783403013591
 30
0.0
 40
0.1742165580993484
 50
137.440488592719106
 51
163.8859384569697966
  0
ARC
  5
7B4A
  8
0
 10
1.674421075916011
 20
1.4822797639740499
 30
0.0
 40
0.240409103654742
 50
159.3830618450481893
 51
174.8354776126030004
  0
ARC
  5
7B4B
  8
0
 10
1.469764512820432
 20
1.501860962121933
 30
0.0
 40
0.0348374845193741
 50
176.6109376831585962
 51
195.3355383720696921
  0
ARC
  5
7B4C
  8
0
 10
1.443065633370892
 20
1.4946576017087161
 30
0.0
 40
0.0071850829217658
 50
196.2463370246626084
 51
231.5095494337228956
  0
ARC
  5
7B4D
  8
0
 10
1.439994707675047
 20
1.4907955979512399
 30
0.0
 40
0.0022509510171506
 50
231.509549433744894
 51
254.8595958243753898
  0
ARC
  5
7B4E
  8
0
 10
1.4409722894693919
 20
1.494408545208572
 30
0.0
 40
0.0059938181065489
 50
254.8595958243890038
 51
270.7532740564186042
  0
ARC
  5
7B4F
  8
0
 10
1.368318645989596
 20
1.6638497528381699
 30
0.0
 40
0.1899138612987728
 50
292.5181424906406278
 51
298.1100281909405112
  0
LINE
  5
7B50
  8
0
 10
1.439081962772778
 20
1.488738007801333
 30
0.0
 11
1.015904822389835
 21
1.640183111426144
 31
0.0
  0
LINE
  5
7B51
  8
0
 10
1.492072201496927
 20
1.6370350727224261
 30
0.0
 11
1.068969592199998
 21
1.7884512258
 31
0.0
  0
ARC
  5
7B52
  8
0
 10
1.0677169334345351
 20
1.7849509176660729
 30
0.0
 40
0.0037177023838822
 50
70.3091844655725282
 51
88.4323765472121011
  0
ARC
  5
7B53
  8
0
 10
1.068342994532514
 20
1.780174374096801
 30
0.0
 40
0.0085090262808703
 50
93.5330100845097547
 51
129.9195065024088933
  0
ARC
  5
7B54
  8
0
 10
1.2777280166648799
 20
1.6257845420416339
 30
0.0
 40
0.2684258227034124
 50
143.1673649573488944
 51
169.0244470405490915
  0
ARC
  5
7B55
  8
0
 10
1.090126438968098
 20
1.656875558152217
 30
0.0
 40
0.0787577022950565
 50
182.978855234551105
 51
187.4784991546046911
  0
ARC
  5
7B56
  8
0
 10
1.023266182422137
 20
1.648098762014786
 30
0.0
 40
0.0113238379846835
 50
187.4784991546113133
 51
212.5413657450586982
  0
ARC
  5
7B57
  8
0
 10
1.0178472887837979
 20
1.644641043401029
 30
0.0
 40
0.0048957569121123
 50
212.5413657450509959
 51
235.1489579910441137
  0
ARC
  5
7B58
  8
0
 10
1.017124873224883
 20
1.6436035969613081
 30
0.0
 40
0.0036315657259963
 50
235.1489579910004011
 51
250.4207756479162015
  0
ARC
  5
7B59
  8
0
 10
1.1320947832510231
 20
1.6512977227654031
 30
0.0
 40
0.1206287685898471
 50
167.7511097039904087
 51
179.294642055135796
  0
ARC
  5
7B5A
  8
0
 10
0.9923485056666372
 20
1.575395751312187
 30
0.0
 40
0.068937107832207
 50
70.0698536691252087
 51
163.9309275975118965
  0
ARC
  5
7B5B
  8
0
 10
0.7842245838004231
 20
1.642461542223931
 30
0.0
 40
0.008339345823941
 50
184.4125560333989995
 51
235.8969938032498135
  0
ARC
  5
7B5C
  8
0
 10
0.8886071764938989
 20
1.7966165643811161
 30
0.0
 40
0.1945099571289837
 50
235.8969938032508082
 51
251.4635834861909984
  0
ARC
  5
7B5D
  8
0
 10
1.067809464114041
 20
2.3310666210616251
 30
0.0
 40
0.7582034225639604
 50
251.4635834861907995
 51
256.1079658358630127
  0
ARC
  5
7B5E
  8
0
 10
0.9166488064084816
 20
1.719890371663054
 30
0.0
 40
0.1286115291386381
 50
256.1079658358634106
 51
270.4621031819444852
  0
ARC
  5
7B5F
  8
0
 10
0.9175525323367885
 20
1.607840593975784
 30
0.0
 40
0.0165581070564899
 50
270.4621031819467021
 51
296.7876786048745998
  0
ARC
  5
7B60
  8
0
 10
0.9228592247690485
 20
1.59597137430793
 30
0.0
 40
0.0036230880994671
 50
306.5140141873587822
 51
319.896971293718309
  0
ARC
  5
7B61
  8
0
 10
0.9237746638830692
 20
1.5952397321845491
 30
0.0
 40
0.0024517671329749
 50
319.1942618386240724
 51
341.8838260990743834
  0
LINE
  5
7B62
  8
0
 10
0.9261048919999979
 20
1.5944773681
 30
0.0
 11
0.6908766422953861
 21
0.8482114118853672
 31
0.0
  0
LINE
  5
7B63
  8
0
 10
0.7759096347999767
 20
1.641820034999927
 30
0.0
 11
0.6552217594999981
 21
1.258936102499999
 31
0.0
  0
ARC
  5
7B64
  8
0
 10
0.7051272118812797
 20
1.4832419644711701
 30
0.0
 40
0.0249914955420211
 50
19.964685569047159
 51
54.301464612361471
  0
ARC
  5
7B65
  8
0
 10
0.7158854115036207
 20
1.4982143911091641
 30
0.0
 40
0.006554781666053
 50
54.3014646123483615
 51
93.4926880890928231
  0
ARC
  5
7B66
  8
0
 10
0.7161267897008692
 20
1.4942596099421821
 30
0.0
 40
0.0105169221876425
 50
93.4926880890844387
 51
119.6195586796696944
  0
ARC
  5
7B67
  8
0
 10
0.7212845478827817
 20
1.4851875257509199
 30
0.0
 40
0.0209526867037865
 50
119.6195586796711012
 51
153.9104054737283889
  0
ARC
  5
7B68
  8
0
 10
1.014451657963217
 20
1.341632454543102
 30
0.0
 40
0.3473803401009768
 50
153.9104054737283889
 51
174.0600057675003995
  0
ARC
  5
7B69
  8
0
 10
-4.5366121794395857
 20
1.9191955771612981
 30
0.0
 40
5.2336490351603313
 50
352.7524459515116746
 51
354.0600057675002859
  0
ARC
  5
7B6A
  8
0
 10
0.7875751053066189
 20
0.8943145090956885
 30
0.0
 40
0.1071265061556628
 50
205.4904882236438084
 51
210.0851039680107988
  0
ARC
  5
7B6B
  8
0
 10
0.7362972634418945
 20
0.8632618767503474
 30
0.0
 40
0.0472048444529587
 50
208.6716197384909037
 51
223.3155496674872893
  0
ARC
  5
7B6C
  8
0
 10
0.9895291313826
 20
0.9768295147602989
 30
0.0
 40
0.325170610016675
 50
190.6322644347008861
 51
203.29967971044411
  0
ARC
  5
7B6D
  8
0
 10
1.4715305192796739
 20
1.0790171612288451
 30
0.0
 40
0.8178318044510026
 50
186.1228166310459073
 51
191.438076204300387
  0
ARC
  5
7B6E
  8
0
 10
1.955652726960561
 20
1.1307646613205251
 30
0.0
 40
1.3047117634466829
 50
181.0392401385167034
 51
186.114728373025514
  0
ARC
  5
7B6F
  8
0
 10
2.289121086544025
 20
1.139207854391294
 30
0.0
 40
1.638280154402812
 50
175.8089924942563016
 51
181.1229529883896134
  0
ARC
  5
7B70
  8
0
 10
-0.8182674599416941
 20
1.1109179015978261
 30
0.0
 40
1.5861986464662969
 50
352.9884407452764208
 51
359.3274586203634726
  0
ARC
  5
7B71
  8
0
 10
-0.6259599636746991
 20
5.0695117061561454
 30
0.0
 40
0.5764274947288556
 50
299.1895483769612269
 51
2.0430344681695551
  0
ARC
  5
7B72
  8
0
 10
-0.6893911655450397
 20
5.1830571094687912
 30
0.0
 40
0.7064893107401162
 50
283.0281245063782762
 51
299.1895483769609996
  0
ARC
  5
7B73
  8
0
 10
-1.2461158790450071
 20
8.1458372141637945
 30
0.0
 40
3.720625443371234
 50
270.6133885398443795
 51
281.0950721863306967
  0
ARC
  5
7B74
  8
0
 10
-1.787389630883641
 20
6.0127448500724601
 30
0.0
 40
1.578920385655544
 50
273.1650991836435196
 51
289.7227745410161788
  0
ARC
  5
7B75
  8
0
 10
-2.364287349465183
 20
13.0790871882844097
 30
0.0
 40
8.6683288288055831
 50
271.6841087037740863
 51
274.3936980376223005
  0
ARC
  5
7B76
  8
0
 10
48.595186089801679
 20
-1643.6418304695559982
 30
0.0
 40
1648.8361488446359999
 50
91.7622275783126469
 51
91.8465954532364037
  0
ARC
  5
7B77
  8
0
 10
-17.9622998417343211
 20
550.8053963035972629
 30
0.0
 40
546.636842060941035
 50
271.4074514844630244
 51
271.7565580466917936
  0
ARC
  5
7B78
  8
0
 10
-4.5353727096545446
 20
4.3019178712426243
 30
0.0
 40
0.0315563094011941
 50
90.5979316340247181
 51
179.8836280258040858
  0
LINE
  5
7B79
  8
0
 10
-3.372730777072273
 20
3.4251346908298119
 30
0.0
 11
-3.3896906091000001
 21
3.4165115263999999
 31
0.0
  0
LINE
  5
7B7A
  8
0
 10
-3.3896906091000001
 20
3.4165115263999999
 30
0.0
 11
-3.712778258008306
 21
3.5214890671489041
 31
0.0
  0
LINE
  5
7B7B
  8
0
 10
-3.55729655141069
 20
3.4709699982670958
 30
0.0
 11
-3.5741560616411538
 21
3.4190817611808781
 31
0.0
  0
LINE
  5
7B7C
  8
0
 10
-3.5741560616411538
 20
3.4190817611808781
 30
0.0
 11
-3.9483408188000011
 21
3.5406617587999998
 31
0.0
  0
LINE
  5
7B7D
  8
0
 10
-4.0454848397149572
 20
3.5429542658273951
 30
0.0
 11
-3.5937255899000009
 21
3.3961687876000002
 31
0.0
  0
LINE
  5
7B7E
  8
0
 10
-3.6039999902000011
 20
3.3909337190999991
 30
0.0
 11
-4.0727057096015509
 21
3.5432254390761022
 31
0.0
  0
LINE
  5
7B7F
  8
0
 10
-3.6039999902000011
 20
3.3909337190999991
 30
0.0
 11
-3.5937255899222378
 21
3.3961687876072251
 31
0.0
  0
ARC
  5
7B80
  8
0
 10
-3.611599232186447
 20
3.4312477851008749
 30
0.0
 40
0.0393700794125238
 50
297.0000003869909051
 51
341.9999995565062818
  0
ARC
  5
7B81
  8
0
 10
-3.7580256187000032
 20
3.9998277120999859
 30
0.0
 40
0.5883291529999861
 50
230.8979146479993858
 51
277.3807667043001857
  0
LINE
  5
7B82
  8
0
 10
-4.1233980325056763
 20
3.5432993087517661
 30
0.0
 11
-4.0974449855697648
 21
3.5236873155491479
 31
0.0
  0
LINE
  5
7B83
  8
0
 10
-4.0974449855697648
 20
3.5236873155491479
 30
0.0
 11
-4.0969925445912496
 21
3.5235115284817802
 31
0.0
  0
LINE
  5
7B84
  8
0
 10
-4.0969925445912496
 20
3.5235115284817802
 30
0.0
 11
-4.097366988300001
 21
3.5239273672999998
 31
0.0
  0
LINE
  5
7B85
  8
0
 10
-4.097366988300001
 20
3.5239273672999998
 30
0.0
 11
-4.1044917866451067
 21
3.5322822972937908
 31
0.0
  0
LINE
  5
7B86
  8
0
 10
-4.1044917866451067
 20
3.5322822972937908
 30
0.0
 11
-4.1188971598664601
 21
3.543309091216885
 31
0.0
  0
LINE
  5
7B87
  8
0
 10
-4.1031403654093621
 20
3.5364415441669741
 30
0.0
 11
-4.100900524272161
 21
3.543335066393809
 31
0.0
  0
LINE
  5
7B88
  8
0
 10
-4.1121937800483641
 20
3.5433237772702548
 30
0.0
 11
-4.1031403655024974
 21
3.53644154419232
 31
0.0
  0
LINE
  5
7B89
  8
0
 10
-4.1031403655024974
 20
3.53644154419232
 30
0.0
 11
-4.093522546807681
 21
3.5341910833732761
 31
0.0
  0
LINE
  5
7B8A
  8
0
 10
-4.093522546807681
 20
3.5341910833732761
 30
0.0
 11
-4.0995533474532939
 21
3.543333792228919
 31
0.0
  0
LINE
  5
7B8B
  8
0
 10
-4.0974958038037244
 20
3.5433310784448611
 30
0.0
 11
-4.0940750123981369
 21
3.5379555478069489
 31
0.0
  0
LINE
  5
7B8C
  8
0
 10
-4.0940750123981369
 20
3.5379555478069489
 30
0.0
 11
-4.0923319374324878
 21
3.5433201807487911
 31
0.0
  0
LINE
  5
7B8D
  8
0
 10
-4.0842764998321668
 20
3.5432915101650511
 30
0.0
 11
-4.0739782575807491
 21
3.5361048734334179
 31
0.0
  0
LINE
  5
7B8E
  8
0
 10
-4.0739782575807491
 20
3.5361048734334179
 30
0.0
 11
-4.0671745262553456
 21
3.5251935427779948
 31
0.0
  0
LINE
  5
7B8F
  8
0
 10
-4.0671745262553456
 20
3.5251935427779948
 30
0.0
 11
-4.0772139356859798
 21
3.5261464801977191
 31
0.0
  0
LINE
  5
7B90
  8
0
 10
-4.0772139356859798
 20
3.5261464801977191
 30
0.0
 11
-4.0940750123336587
 21
3.537955547756602
 31
0.0
  0
LINE
  5
7B91
  8
0
 10
-4.0659203838139417
 20
3.5410201008607389
 30
0.0
 11
-4.0742529194890231
 21
3.540724329635681
 31
0.0
  0
LINE
  5
7B92
  8
0
 10
-4.0742529194890231
 20
3.540724329635681
 30
0.0
 11
-4.0675836671000001
 21
3.529399115099999
 31
0.0
  0
LINE
  5
7B93
  8
0
 10
-4.0675836671000001
 20
3.529399115099999
 30
0.0
 11
-4.050414062581825
 21
3.51853959875594
 31
0.0
  0
LINE
  5
7B94
  8
0
 10
-4.050414062581825
 20
3.51853959875594
 30
0.0
 11
-4.0399490503855873
 21
3.5188965317318388
 31
0.0
  0
LINE
  5
7B95
  8
0
 10
-4.0399490503855873
 20
3.5188965317318388
 30
0.0
 11
-4.0466255813795904
 21
3.5301993448471989
 31
0.0
  0
LINE
  5
7B96
  8
0
 10
-4.0466255813795904
 20
3.5301993448471989
 30
0.0
 11
-4.0612368497974858
 21
3.539497731408388
 31
0.0
  0
LINE
  5
7B97
  8
0
 10
-4.0640093240000024
 20
3.5403998120999991
 30
0.0
 11
-4.0675836671000001
 21
3.529399115099999
 31
0.0
  0
LINE
  5
7B98
  8
0
 10
-4.0504140626000007
 20
3.518539598699999
 30
0.0
 11
-4.046625581379554
 21
3.530199344847178
 31
0.0
  0
LINE
  5
7B99
  8
0
 10
-4.1052796544068713
 20
3.5353222682594669
 30
0.0
 11
-4.0957756657528801
 21
3.5327214755828762
 31
0.0
  0
LINE
  5
7B9A
  8
0
 10
-4.0957756657528801
 20
3.5327214755828762
 30
0.0
 11
-4.097900911784075
 21
3.5261806399773059
 31
0.0
  0
LINE
  5
7B9B
  8
0
 10
-4.097900911784075
 20
3.5261806399773059
 30
0.0
 11
-4.1052796542458099
 21
3.535322268215392
 31
0.0
  0
LINE
  5
7B9C
  8
0
 10
-4.097900911784075
 20
3.5261806399773059
 30
0.0
 11
-4.0809988078000003
 21
3.514497841799999
 31
0.0
  0
LINE
  5
7B9D
  8
0
 10
-4.0809988078000003
 20
3.514497841799999
 30
0.0
 11
-4.0714979595067549
 21
3.511887383456624
 31
0.0
  0
LINE
  5
7B9E
  8
0
 10
-4.0714979595067549
 20
3.511887383456624
 30
0.0
 11
-4.0788961268218769
 21
3.5209692283127518
 31
0.0
  0
LINE
  5
7B9F
  8
0
 10
-4.0788961268218769
 20
3.5209692283127518
 30
0.0
 11
-4.0957756655404314
 21
3.5327214754292608
 31
0.0
  0
LINE
  5
7BA0
  8
0
 10
-4.0809988063921017
 20
3.514497841413164
 30
0.0
 11
-4.078896126836824
 21
3.5209692282866718
 31
0.0
  0
LINE
  5
7BA1
  8
0
 10
-4.0795462885603211
 20
3.5244330153694352
 30
0.0
 11
-4.0696225881961121
 21
3.5231239613713821
 31
0.0
  0
LINE
  5
7BA2
  8
0
 10
-4.0696225881961121
 20
3.5231239613713821
 30
0.0
 11
-4.0722700771594598
 21
3.5149758281648729
 31
0.0
  0
LINE
  5
7BA3
  8
0
 10
-4.0722700771594598
 20
3.5149758281648729
 30
0.0
 11
-4.0795462883992597
 21
3.5244330153253598
 31
0.0
  0
LINE
  5
7BA4
  8
0
 10
-4.0722700771594598
 20
3.5149758281648729
 30
0.0
 11
-4.0550586816863126
 21
3.5042449355561738
 31
0.0
  0
LINE
  5
7BA5
  8
0
 10
-4.0550586816863126
 20
3.5042449355561738
 30
0.0
 11
-4.0451466441246149
 21
3.5028999760237132
 31
0.0
  0
LINE
  5
7BA6
  8
0
 10
-4.0451466441246149
 20
3.5028999760237132
 30
0.0
 11
-4.0524579264591649
 21
3.5123499971989078
 31
0.0
  0
LINE
  5
7BA7
  8
0
 10
-4.0524579264591649
 20
3.5123499971989078
 30
0.0
 11
-4.0696225879836643
 21
3.5231239612177672
 31
0.0
  0
LINE
  5
7BA8
  8
0
 10
-4.0550586802784148
 20
3.5042449351693379
 30
0.0
 11
-4.0524579264741121
 21
3.5123499971728278
 31
0.0
  0
LINE
  5
7BA9
  8
0
 10
-4.052942728901793
 20
3.5162219429861858
 30
0.0
 11
-4.0425969076454962
 21
3.5162120369397361
 31
0.0
  0
LINE
  5
7BAA
  8
0
 10
-4.0425969076454962
 20
3.5162120369397361
 30
0.0
 11
-4.0457791369908387
 21
3.5064181407500361
 31
0.0
  0
LINE
  5
7BAB
  8
0
 10
-4.0457791369908387
 20
3.5064181407500361
 30
0.0
 11
-4.0529427287407334
 21
3.5162219429421109
 31
0.0
  0
LINE
  5
7BAC
  8
0
 10
-4.0457791369908387
 20
3.5064181407500361
 30
0.0
 11
-4.0282489188869777
 21
3.4966684868034279
 31
0.0
  0
LINE
  5
7BAD
  8
0
 10
-4.0282489188869777
 20
3.4966684868034279
 30
0.0
 11
-4.0179404627831232
 21
3.4965435825749549
 31
0.0
  0
LINE
  5
7BAE
  8
0
 10
-4.0179404627831232
 20
3.4965435825749549
 30
0.0
 11
-4.0251071947714632
 21
3.506337719491345
 31
0.0
  0
LINE
  5
7BAF
  8
0
 10
-4.0251071947714632
 20
3.506337719491345
 30
0.0
 11
-4.0425969074330466
 21
3.5162120367861212
 31
0.0
  0
LINE
  5
7BB0
  8
0
 10
-4.0282489174790799
 20
3.4966684864165929
 30
0.0
 11
-4.0251071947864094
 21
3.506337719465265
 31
0.0
  0
LINE
  5
7BB1
  8
0
 10
-4.0572345242365211
 20
3.5030131555182371
 30
0.0
 11
-4.0474343209313917
 21
3.5013240175099112
 31
0.0
  0
LINE
  5
7BB2
  8
0
 10
-4.0474343209313917
 20
3.5013240175099112
 30
0.0
 11
-4.0495039600699823
 21
3.4949543217419912
 31
0.0
  0
LINE
  5
7BB3
  8
0
 10
-4.0495039600699823
 20
3.4949543217419912
 30
0.0
 11
-4.0572345240754606
 21
3.503013155474163
 31
0.0
  0
LINE
  5
7BB4
  8
0
 10
-4.0495039600699823
 20
3.4949543217419912
 30
0.0
 11
-4.0319662853901148
 21
3.485227601340894
 31
0.0
  0
LINE
  5
7BB5
  8
0
 10
-4.0319662853901148
 20
3.485227601340894
 30
0.0
 11
-4.0221730701058691
 21
3.4835169567152371
 31
0.0
  0
LINE
  5
7BB6
  8
0
 10
-4.0221730701058691
 20
3.4835169567152371
 30
0.0
 11
-4.0299106212394094
 21
3.4915542848345731
 31
0.0
  0
LINE
  5
7BB7
  8
0
 10
-4.0299106212394094
 20
3.4915542848345731
 30
0.0
 11
-4.0474343207189429
 21
3.5013240173562958
 31
0.0
  0
LINE
  5
7BB8
  8
0
 10
-4.031966283982217
 20
3.4852276009540581
 30
0.0
 11
-4.0299106212543547
 21
3.4915542848084939
 31
0.0
  0
LINE
  5
7BB9
  8
0
 10
-4.0306340019091449
 20
3.4947927348840402
 30
0.0
 11
-4.0204222100453251
 21
3.4943703289876962
 31
0.0
  0
LINE
  5
7BBA
  8
0
 10
-4.0204222100453251
 20
3.4943703289876962
 30
0.0
 11
-4.023013327635268
 21
3.486395687154316
 31
0.0
  0
LINE
  5
7BBB
  8
0
 10
-4.023013327635268
 20
3.486395687154316
 30
0.0
 11
-4.0306340017480853
 21
3.4947927348399652
 31
0.0
  0
LINE
  5
7BBC
  8
0
 10
-4.023013327635268
 20
3.486395687154316
 30
0.0
 11
-4.0051804942785481
 21
3.4775773920041591
 31
0.0
  0
LINE
  5
7BBD
  8
0
 10
-4.0051804942785481
 20
3.4775773920041591
 30
0.0
 11
-3.994981394475404
 21
3.477115918954965
 31
0.0
  0
LINE
  5
7BBE
  8
0
 10
-3.994981394475404
 20
3.477115918954965
 30
0.0
 11
-4.0026025698484977
 21
3.4855114161604761
 31
0.0
  0
LINE
  5
7BBF
  8
0
 10
-4.0026025698484977
 20
3.4855114161604761
 30
0.0
 11
-4.0204222098328763
 21
3.4943703288340808
 31
0.0
  0
LINE
  5
7BC0
  8
0
 10
-4.0051804928706503
 20
3.477577391617324
 30
0.0
 11
-4.002602569863444
 21
3.485511416134397
 31
0.0
  0
LINE
  5
7BC1
  8
0
 10
-4.0073970096221627
 20
3.4762204335373998
 30
0.0
 11
-3.9973090731182408
 21
3.4754168440131572
 31
0.0
  0
LINE
  5
7BC2
  8
0
 10
-3.9973090731182408
 20
3.4754168440131572
 30
0.0
 11
-3.9993460272175891
 21
3.4691477480799802
 31
0.0
  0
LINE
  5
7BC3
  8
0
 10
-3.9993460272175891
 20
3.4691477480799802
 30
0.0
 11
-4.0073970094611031
 21
3.4762204334933249
 31
0.0
  0
LINE
  5
7BC4
  8
0
 10
-3.9993460272175891
 20
3.4691477480799802
 30
0.0
 11
-3.9811214530849788
 21
3.4612582722650291
 31
0.0
  0
LINE
  5
7BC5
  8
0
 10
-3.9811214530849788
 20
3.4612582722650291
 30
0.0
 11
-3.9711279221264362
 21
3.4604409485532011
 31
0.0
  0
LINE
  5
7BC6
  8
0
 10
-3.9711279221264362
 20
3.4604409485532011
 30
0.0
 11
-3.9791779057292191
 21
3.4675167162069149
 31
0.0
  0
LINE
  5
7BC7
  8
0
 10
-3.9791779057292191
 20
3.4675167162069149
 30
0.0
 11
-3.9973090729057921
 21
3.4754168438595419
 31
0.0
  0
LINE
  5
7BC8
  8
0
 10
-3.981121451677081
 20
3.4612582718781941
 30
0.0
 11
-3.979177905744165
 21
3.4675167161808349
 31
0.0
  0
LINE
  5
7BC9
  8
0
 10
-4.0254670134460158
 20
3.5106950899761791
 30
0.0
 11
-4.014690062464723
 21
3.5120120667416792
 31
0.0
  0
LINE
  5
7BCA
  8
0
 10
-4.014690062464723
 20
3.5120120667416792
 30
0.0
 11
-4.0184278770898452
 21
3.5005082612597711
 31
0.0
  0
LINE
  5
7BCB
  8
0
 10
-4.0184278770898452
 20
3.5005082612597711
 30
0.0
 11
-4.0254670132849562
 21
3.5106950899321041
 31
0.0
  0
LINE
  5
7BCC
  8
0
 10
-4.0184278770898452
 20
3.5005082612597711
 30
0.0
 11
-4.0004212318137897
 21
3.49163387080285
 31
0.0
  0
LINE
  5
7BCD
  8
0
 10
-4.0004212318137897
 20
3.49163387080285
 30
0.0
 11
-3.9898684760775072
 21
3.492851863911385
 31
0.0
  0
LINE
  5
7BCE
  8
0
 10
-3.9898684760775072
 20
3.492851863911385
 30
0.0
 11
-3.9969010539074712
 21
3.503058884365629
 31
0.0
  0
LINE
  5
7BCF
  8
0
 10
-3.9969010539074712
 20
3.503058884365629
 30
0.0
 11
-4.0146900622522743
 21
3.5120120665880639
 31
0.0
  0
LINE
  5
7BD0
  8
0
 10
-4.0004212304058919
 20
3.4916338704160141
 30
0.0
 11
-3.996901053922417
 21
3.5030588843395489
 31
0.0
  0
LINE
  5
7BD1
  8
0
 10
-3.9971035228677638
 20
3.5079005283967271
 30
0.0
 11
-3.9858792090831079
 21
3.5105943520076548
 31
0.0
  0
LINE
  5
7BD2
  8
0
 10
-3.9858792090831079
 20
3.5105943520076548
 30
0.0
 11
-3.9902029981454321
 21
3.4972870961919118
 31
0.0
  0
LINE
  5
7BD3
  8
0
 10
-3.9902029981454321
 20
3.4972870961919118
 30
0.0
 11
-3.9971035227067029
 21
3.5079005283526521
 31
0.0
  0
LINE
  5
7BD4
  8
0
 10
-3.9902029981454321
 20
3.4972870961919118
 30
0.0
 11
-3.972096443560774
 21
3.4893112203833621
 31
0.0
  0
LINE
  5
7BD5
  8
0
 10
-3.972096443560774
 20
3.4893112203833621
 30
0.0
 11
-3.9609061105731849
 21
3.491900449595605
 31
0.0
  0
LINE
  5
7BD6
  8
0
 10
-3.9609061105731849
 20
3.491900449595605
 30
0.0
 11
-3.9677886565619138
 21
3.5025692207972932
 31
0.0
  0
LINE
  5
7BD7
  8
0
 10
-3.9677886565619138
 20
3.5025692207972932
 30
0.0
 11
-3.9858792088706601
 21
3.5105943518540399
 31
0.0
  0
LINE
  5
7BD8
  8
0
 10
-3.9720964421528762
 20
3.489311219996527
 30
0.0
 11
-3.9677886565768601
 21
3.5025692207712131
 31
0.0
  0
LINE
  5
7BD9
  8
0
 10
-4.0031822968218611
 20
3.4891919858640978
 30
0.0
 11
-3.9925511007002661
 21
3.4900603736481539
 31
0.0
  0
LINE
  5
7BDA
  8
0
 10
-3.9925511007002661
 20
3.4900603736481539
 30
0.0
 11
-3.9956805820542711
 21
3.480428818297455
 31
0.0
  0
LINE
  5
7BDB
  8
0
 10
-3.9956805820542711
 20
3.480428818297455
 30
0.0
 11
-4.0031822966608006
 21
3.4891919858200229
 31
0.0
  0
LINE
  5
7BDC
  8
0
 10
-3.9956805820542711
 20
3.480428818297455
 30
0.0
 11
-3.9775548782493759
 21
3.4725118716697252
 31
0.0
  0
LINE
  5
7BDD
  8
0
 10
-3.9775548782493759
 20
3.4725118716697252
 30
0.0
 11
-3.9669415393312342
 21
3.473325309853422
 31
0.0
  0
LINE
  5
7BDE
  8
0
 10
-3.9669415393312342
 20
3.473325309853422
 30
0.0
 11
-3.974436188450944
 21
3.4821102140358451
 31
0.0
  0
LINE
  5
7BDF
  8
0
 10
-3.974436188450944
 20
3.4821102140358451
 30
0.0
 11
-3.9925511004878169
 21
3.490060373494539
 31
0.0
  0
LINE
  5
7BE0
  8
0
 10
-3.977554876841479
 20
3.4725118712828889
 30
0.0
 11
-3.9744361884658899
 21
3.4821102140097651
 31
0.0
  0
LINE
  5
7BE1
  8
0
 10
-3.9748648983860551
 20
3.4862555667928672
 30
0.0
 11
-3.9637998405037509
 21
3.4884592442437721
 31
0.0
  0
LINE
  5
7BE2
  8
0
 10
-3.9637998405037509
 20
3.4884592442437721
 30
0.0
 11
-3.9674932607635269
 21
3.4770920631725302
 31
0.0
  0
LINE
  5
7BE3
  8
0
 10
-3.9674932607635269
 20
3.4770920631725302
 30
0.0
 11
-3.974864898224995
 21
3.4862555667487918
 31
0.0
  0
LINE
  5
7BE4
  8
0
 10
-3.9674932607635269
 20
3.4770920631725302
 30
0.0
 11
-3.9490728059846609
 21
3.470082280292758
 31
0.0
  0
LINE
  5
7BE5
  8
0
 10
-3.9490728059846609
 20
3.470082280292758
 30
0.0
 11
-3.938030408992871
 21
3.4722162102191132
 31
0.0
  0
LINE
  5
7BE6
  8
0
 10
-3.938030408992871
 20
3.4722162102191132
 30
0.0
 11
-3.9453859176413899
 21
3.4814293516327379
 31
0.0
  0
LINE
  5
7BE7
  8
0
 10
-3.9453859176413899
 20
3.4814293516327379
 30
0.0
 11
-3.9637998402913031
 21
3.4884592440901581
 31
0.0
  0
LINE
  5
7BE8
  8
0
 10
-3.9490728045767631
 20
3.470082279905923
 30
0.0
 11
-3.9453859176563362
 21
3.4814293516066588
 31
0.0
  0
LINE
  5
7BE9
  8
0
 10
-3.9799631825909709
 20
3.4705646616954242
 30
0.0
 11
-3.969464679268401
 21
3.4710246666005329
 31
0.0
  0
LINE
  5
7BEA
  8
0
 10
-3.969464679268401
 20
3.4710246666005329
 30
0.0
 11
-3.9720267845812911
 21
3.4631393201728331
 31
0.0
  0
LINE
  5
7BEB
  8
0
 10
-3.9720267845812911
 20
3.4631393201728331
 30
0.0
 11
-3.97996318242991
 21
3.4705646616513488
 31
0.0
  0
LINE
  5
7BEC
  8
0
 10
-3.9720267845812911
 20
3.4631393201728331
 30
0.0
 11
-3.953598673775244
 21
3.4561530782802721
 31
0.0
  0
LINE
  5
7BED
  8
0
 10
-3.953598673775244
 20
3.4561530782802721
 30
0.0
 11
-3.9431111941986479
 21
3.4565791609638241
 31
0.0
  0
LINE
  5
7BEE
  8
0
 10
-3.9431111941986479
 20
3.4565791609638241
 30
0.0
 11
-3.9510408472090588
 21
3.464025268284451
 31
0.0
  0
LINE
  5
7BEF
  8
0
 10
-3.9510408472090588
 20
3.464025268284451
 30
0.0
 11
-3.9694646790559531
 21
3.471024666446918
 31
0.0
  0
LINE
  5
7BF0
  8
0
 10
-3.9535986723673471
 20
3.4561530778934362
 30
0.0
 11
-3.9510408472240051
 21
3.464025268258371
 31
0.0
  0
LINE
  5
7BF1
  8
0
 10
-3.9456535008926639
 20
3.4860705942434831
 30
0.0
 11
-3.9341324106176101
 21
3.4896777969335022
 31
0.0
  0
LINE
  5
7BF2
  8
0
 10
-3.9341324106176101
 20
3.4896777969335022
 30
0.0
 11
-3.9384257211000029
 21
3.4764643497000001
 31
0.0
  0
LINE
  5
7BF3
  8
0
 10
-3.9384257211000029
 20
3.4764643497000001
 30
0.0
 11
-3.9456535007316029
 21
3.4860705941994081
 31
0.0
  0
LINE
  5
7BF4
  8
0
 10
-3.9384257211000029
 20
3.4764643497000001
 30
0.0
 11
-3.9197041376078992
 21
3.4703813383868352
 31
0.0
  0
LINE
  5
7BF5
  8
0
 10
-3.9197041376078992
 20
3.4703813383868352
 30
0.0
 11
-3.9082103287113088
 21
3.47390457014939
 31
0.0
  0
LINE
  5
7BF6
  8
0
 10
-3.9082103287113088
 20
3.47390457014939
 30
0.0
 11
-3.9154219706603999
 21
3.4835981820563009
 31
0.0
  0
LINE
  5
7BF7
  8
0
 10
-3.9154219706603999
 20
3.4835981820563009
 30
0.0
 11
-3.9341324104051618
 21
3.4896777967798869
 31
0.0
  0
LINE
  5
7BF8
  8
0
 10
-3.9197041362000009
 20
3.4703813379999988
 30
0.0
 11
-3.9154219706753461
 21
3.4835981820302222
 31
0.0
  0
LINE
  5
7BF9
  8
0
 10
-3.9225209423163099
 20
3.4671768788730999
 30
0.0
 11
-3.9111548641546552
 21
3.4703070081237239
 31
0.0
  0
LINE
  5
7BFA
  8
0
 10
-3.9111548641546552
 20
3.4703070081237239
 30
0.0
 11
-3.914841751011183
 21
3.4589599364273438
 31
0.0
  0
LINE
  5
7BFB
  8
0
 10
-3.914841751011183
 20
3.4589599364273438
 30
0.0
 11
-3.9225209421552498
 21
3.4671768788290249
 31
0.0
  0
LINE
  5
7BFC
  8
0
 10
-3.914841751011183
 20
3.4589599364273438
 30
0.0
 11
-3.8958190403932971
 21
3.4538036988317851
 31
0.0
  0
LINE
  5
7BFD
  8
0
 10
-3.8958190403932971
 20
3.4538036988317851
 30
0.0
 11
-3.8844690874927621
 21
3.4568841875645151
 31
0.0
  0
LINE
  5
7BFE
  8
0
 10
-3.8844690874927621
 20
3.4568841875645151
 30
0.0
 11
-3.8921256168961822
 21
3.4651708761397
 31
0.0
  0
LINE
  5
7BFF
  8
0
 10
-3.8921256168961822
 20
3.4651708761397
 30
0.0
 11
-3.911154863942206
 21
3.470307007970109
 31
0.0
  0
LINE
  5
7C00
  8
0
 10
-3.8958190389853988
 20
3.4538036984449501
 30
0.0
 11
-3.892125616911128
 21
3.46517087611362
 31
0.0
  0
LINE
  5
7C01
  8
0
 10
-3.9516800679422839
 20
3.467522728034139
 30
0.0
 11
-3.9407579061774398
 21
3.469286619126744
 31
0.0
  0
LINE
  5
7C02
  8
0
 10
-3.9407579061774398
 20
3.469286619126744
 30
0.0
 11
-3.9438668297868378
 21
3.4597183385296262
 31
0.0
  0
LINE
  5
7C03
  8
0
 10
-3.9438668297868378
 20
3.4597183385296262
 30
0.0
 11
-3.9516800677812229
 21
3.467522727990064
 31
0.0
  0
LINE
  5
7C04
  8
0
 10
-3.9438668297868378
 20
3.4597183385296262
 30
0.0
 11
-3.925145241429616
 21
3.4536353279309848
 31
0.0
  0
LINE
  5
7C05
  8
0
 10
-3.925145241429616
 20
3.4536353279309848
 30
0.0
 11
-3.91423689578727
 21
3.4553567041016242
 31
0.0
  0
LINE
  5
7C06
  8
0
 10
-3.91423689578727
 20
3.4553567041016242
 30
0.0
 11
-3.9220363222887702
 21
3.4632036070870931
 31
0.0
  0
LINE
  5
7C07
  8
0
 10
-3.9220363222887702
 20
3.4632036070870931
 30
0.0
 11
-3.9407579059649911
 21
3.4692866189731291
 31
0.0
  0
LINE
  5
7C08
  8
0
 10
-3.9251452400217182
 20
3.4536353275441489
 30
0.0
 11
-3.922036322303716
 21
3.463203607061013
 31
0.0
  0
LINE
  5
7C09
  8
0
 10
-3.9276017276574331
 20
3.4515398296346711
 30
0.0
 11
-3.9168097927688819
 21
3.4529029244912448
 31
0.0
  0
LINE
  5
7C0A
  8
0
 10
-3.9168097927688819
 20
3.4529029244912448
 30
0.0
 11
-3.9193676230827741
 21
3.4450307342336202
 31
0.0
  0
LINE
  5
7C0B
  8
0
 10
-3.9193676230827741
 20
3.4450307342336202
 30
0.0
 11
-3.927601727496373
 21
3.451539829590597
 31
0.0
  0
LINE
  5
7C0C
  8
0
 10
-3.9193676230827741
 20
3.4450307342336202
 30
0.0
 11
-3.9003525573319671
 21
3.4398509539535671
 31
0.0
  0
LINE
  5
7C0D
  8
0
 10
-3.9003525573319671
 20
3.4398509539535671
 30
0.0
 11
-3.8895673716946551
 21
3.4411932823335381
 31
0.0
  0
LINE
  5
7C0E
  8
0
 10
-3.8895673716946551
 20
3.4411932823335381
 30
0.0
 11
-3.8977904536450749
 21
3.4477362991836391
 31
0.0
  0
LINE
  5
7C0F
  8
0
 10
-3.8977904536450749
 20
3.4477362991836391
 30
0.0
 11
-3.9168097925564331
 21
3.4529029243376299
 31
0.0
  0
LINE
  5
7C10
  8
0
 10
-3.9003525559240688
 20
3.4398509535667312
 30
0.0
 11
-3.8977904536600221
 21
3.4477362991575591
 31
0.0
  0
LINE
  5
7C11
  8
0
 10
-3.8924440053324871
 20
3.46965576299278
 30
0.0
 11
-3.88060496437507
 21
3.4742415219887199
 31
0.0
  0
LINE
  5
7C12
  8
0
 10
-3.88060496437507
 20
3.4742415219887199
 30
0.0
 11
-3.8849127475198251
 21
3.4609835187390989
 31
0.0
  0
LINE
  5
7C13
  8
0
 10
-3.8849127475198251
 20
3.4609835187390989
 30
0.0
 11
-3.8924440051714271
 21
3.469655762948705
 31
0.0
  0
LINE
  5
7C14
  8
0
 10
-3.8849127475198251
 20
3.4609835187390989
 30
0.0
 11
-3.865576137353532
 21
3.4567933743427131
 31
0.0
  0
LINE
  5
7C15
  8
0
 10
-3.865576137353532
 20
3.4567933743427131
 30
0.0
 11
-3.8537550732575641
 21
3.4613237937706258
 31
0.0
  0
LINE
  5
7C16
  8
0
 10
-3.8537550732575641
 20
3.4613237937706258
 30
0.0
 11
-3.8612523447195191
 21
3.4701006275955399
 31
0.0
  0
LINE
  5
7C17
  8
0
 10
-3.8612523447195191
 20
3.4701006275955399
 30
0.0
 11
-3.8806049641626208
 21
3.474241521835105
 31
0.0
  0
LINE
  5
7C18
  8
0
 10
-3.8655761359456342
 20
3.456793373955878
 30
0.0
 11
-3.8612523447344649
 21
3.4701006275694608
 31
0.0
  0
LINE
  5
7C19
  8
0
 10
-3.8680131384676222
 20
3.4529733380872281
 30
0.0
 11
-3.856764721842679
 21
3.4575258308216541
 31
0.0
  0
LINE
  5
7C1A
  8
0
 10
-3.8604823323021171
 20
3.4460842046430562
 30
0.0
 11
-3.8567647321664209
 21
3.457525826643399
 31
0.0
  0
LINE
  5
7C1B
  8
0
 10
-3.8604823323700219
 20
3.4460842047016218
 30
0.0
 11
-3.8680131383065621
 21
3.4529733380431531
 31
0.0
  0
LINE
  5
7C1C
  8
0
 10
-3.8604823323700219
 20
3.4460842047016218
 30
0.0
 11
-3.8408483772580051
 21
3.4428091840108999
 31
0.0
  0
LINE
  5
7C1D
  8
0
 10
-3.8408483772580051
 20
3.4428091840108999
 30
0.0
 11
-3.82916592518146
 21
3.446913000142076
 31
0.0
  0
LINE
  5
7C1E
  8
0
 10
-3.82916592518146
 20
3.446913000142076
 30
0.0
 11
-3.837110562985055
 21
3.4543129888260791
 31
0.0
  0
LINE
  5
7C1F
  8
0
 10
-3.837110562985055
 20
3.4543129888260791
 30
0.0
 11
-3.8567647216302312
 21
3.4575258306680392
 31
0.0
  0
LINE
  5
7C20
  8
0
 10
-3.8408483758501069
 20
3.4428091836240649
 30
0.0
 11
-3.8371105630000009
 21
3.4543129887999999
 31
0.0
  0
LINE
  5
7C21
  8
0
 10
-3.8984794340662718
 20
3.4510806232563258
 30
0.0
 11
-3.8872413710395182
 21
3.4538167588718149
 31
0.0
  0
LINE
  5
7C22
  8
0
 10
-3.8872413710395182
 20
3.4538167588718149
 30
0.0
 11
-3.8903711881945151
 21
3.444184174036272
 31
0.0
  0
LINE
  5
7C23
  8
0
 10
-3.8903711881945151
 20
3.444184174036272
 30
0.0
 11
-3.8984794339052118
 21
3.4510806232122508
 31
0.0
  0
LINE
  5
7C24
  8
0
 10
-3.8903711881945151
 20
3.444184174036272
 30
0.0
 11
-3.8710537183188141
 21
3.4399350976296401
 31
0.0
  0
LINE
  5
7C25
  8
0
 10
-3.8710537183188141
 20
3.4399350976296401
 30
0.0
 11
-3.8598338472135012
 21
3.4426152512738768
 31
0.0
  0
LINE
  5
7C26
  8
0
 10
-3.8598338472135012
 20
3.4426152512738768
 30
0.0
 11
-3.8679242374194942
 21
3.4495666516130128
 31
0.0
  0
LINE
  5
7C27
  8
0
 10
-3.8679242374194942
 20
3.4495666516130128
 30
0.0
 11
-3.887241370827069
 21
3.4538167587182
 31
0.0
  0
LINE
  5
7C28
  8
0
 10
-3.8710537169109158
 20
3.4399350972428042
 30
0.0
 11
-3.86792423743444
 21
3.4495666515869341
 31
0.0
  0
LINE
  5
7C29
  8
0
 10
-3.8735666504931312
 20
3.437665877167341
 30
0.0
 11
-3.8624662409086592
 21
3.4399783630415008
 31
0.0
  0
LINE
  5
7C2A
  8
0
 10
-3.8624662409086592
 20
3.4399783630415008
 30
0.0
 11
-3.8650441617459999
 21
3.4320443374999399
 31
0.0
  0
LINE
  5
7C2B
  8
0
 10
-3.8650441617459999
 20
3.4320443374999399
 30
0.0
 11
-3.8735666503320711
 21
3.437665877123266
 31
0.0
  0
LINE
  5
7C2C
  8
0
 10
-3.8650441617459999
 20
3.4320443374999399
 30
0.0
 11
-3.8454338298078978
 21
3.428696611986835
 31
0.0
  0
LINE
  5
7C2D
  8
0
 10
-3.8454338298078978
 20
3.428696611986835
 30
0.0
 11
-3.834332913611179
 21
3.4310106449705811
 31
0.0
  0
LINE
  5
7C2E
  8
0
 10
-3.834332913611179
 20
3.4310106449705811
 30
0.0
 11
-3.8428427093445849
 21
3.4366712513544031
 31
0.0
  0
LINE
  5
7C2F
  8
0
 10
-3.8428427093445849
 20
3.4366712513544031
 30
0.0
 11
-3.86246624069621
 21
3.4399783628878859
 31
0.0
  0
LINE
  5
7C30
  8
0
 10
-3.8454338284
 20
3.4286966115999991
 30
0.0
 11
-3.8428427093595321
 21
3.4366712513283231
 31
0.0
  0
LINE
  5
7C31
  8
0
 10
-3.7869018639234091
 20
3.43412743443267
 30
0.0
 11
-3.7749840094565008
 21
3.4389557539415119
 31
0.0
  0
LINE
  5
7C32
  8
0
 10
-3.7749840094565008
 20
3.4389557539415119
 30
0.0
 11
-3.7782196882662671
 21
3.4289973601019859
 31
0.0
  0
LINE
  5
7C33
  8
0
 10
-3.7782196882662671
 20
3.4289973601019859
 30
0.0
 11
-3.7869018637623491
 21
3.434127434388595
 31
0.0
  0
LINE
  5
7C34
  8
0
 10
-3.7782196882662671
 20
3.4289973601019859
 30
0.0
 11
-3.757637596391123
 21
3.428640404738462
 31
0.0
  0
LINE
  5
7C35
  8
0
 10
-3.757637596391123
 20
3.428640404738462
 30
0.0
 11
-3.7457014525243699
 21
3.4335250039006868
 31
0.0
  0
LINE
  5
7C36
  8
0
 10
-3.7457014525243699
 20
3.4335250039006868
 30
0.0
 11
-3.7543653368013699
 21
3.438711374443697
 31
0.0
  0
LINE
  5
7C37
  8
0
 10
-3.7543653368013699
 20
3.438711374443697
 30
0.0
 11
-3.7749840092440521
 21
3.438955753787897
 31
0.0
  0
LINE
  5
7C38
  8
0
 10
-3.7576375949832261
 20
3.4286404043516261
 30
0.0
 11
-3.754365336816317
 21
3.438711374417617
 31
0.0
  0
LINE
  5
7C39
  8
0
 10
-3.8178266225898021
 20
3.4290392235052378
 30
0.0
 11
-3.806392912923898
 21
3.4323775010183781
 31
0.0
  0
LINE
  5
7C3A
  8
0
 10
-3.806392912923898
 20
3.4323775010183781
 30
0.0
 11
-3.8090170717174061
 21
3.4243011699257111
 31
0.0
  0
LINE
  5
7C3B
  8
0
 10
-3.8090170717174061
 20
3.4243011699257111
 30
0.0
 11
-3.8178266224287412
 21
3.4290392234611629
 31
0.0
  0
LINE
  5
7C3C
  8
0
 10
-3.8090170717174061
 20
3.4243011699257111
 30
0.0
 11
-3.7887852999079001
 21
3.4228660403868352
 31
0.0
  0
LINE
  5
7C3D
  8
0
 10
-3.7887852999079001
 20
3.4228660403868352
 30
0.0
 11
-3.7773399227160631
 21
3.4262402148010129
 31
0.0
  0
LINE
  5
7C3E
  8
0
 10
-3.7773399227160631
 20
3.4262402148010129
 30
0.0
 11
-3.7861378082325921
 21
3.4310141724817149
 31
0.0
  0
LINE
  5
7C3F
  8
0
 10
-3.7861378082325921
 20
3.4310141724817149
 30
0.0
 11
-3.8063929127114502
 21
3.4323775008647628
 31
0.0
  0
LINE
  5
7C40
  8
0
 10
-3.7887852985000019
 20
3.4228660400000002
 30
0.0
 11
-3.7861378082475379
 21
3.4310141724556358
 31
0.0
  0
LINE
  5
7C41
  8
0
 10
-3.8435730799158181
 20
3.4398881854047909
 30
0.0
 11
-3.832018224912451
 21
3.4435993101536142
 31
0.0
  0
LINE
  5
7C42
  8
0
 10
-3.832018224912451
 20
3.4435993101536142
 30
0.0
 11
-3.835177886554928
 21
3.4338748706709241
 31
0.0
  0
LINE
  5
7C43
  8
0
 10
-3.835177886554928
 20
3.4338748706709241
 30
0.0
 11
-3.843573079754758
 21
3.4398881853607159
 31
0.0
  0
LINE
  5
7C44
  8
0
 10
-3.835177886554928
 20
3.4338748706709241
 30
0.0
 11
-3.8152470003079002
 21
3.431513710586835
 31
0.0
  0
LINE
  5
7C45
  8
0
 10
-3.8152470003079002
 20
3.431513710586835
 30
0.0
 11
-3.8036890018428759
 21
3.4352344978021221
 31
0.0
  0
LINE
  5
7C46
  8
0
 10
-3.8036890018428759
 20
3.4352344978021221
 30
0.0
 11
-3.8120647685089848
 21
3.4413076028833518
 31
0.0
  0
LINE
  5
7C47
  8
0
 10
-3.8120647685089848
 20
3.4413076028833518
 30
0.0
 11
-3.8320182247000019
 21
3.4435993099999989
 31
0.0
  0
LINE
  5
7C48
  8
0
 10
-3.815246998900002
 20
3.4315137102
 30
0.0
 11
-3.8120647685239311
 21
3.4413076028572731
 31
0.0
  0
LINE
  5
7C49
  8
0
 10
-3.8478056873502271
 20
3.4268615596230259
 30
0.0
 11
-3.8368216532424659
 21
3.428815877355925
 31
0.0
  0
LINE
  5
7C4A
  8
0
 10
-3.8368216532424659
 20
3.428815877355925
 30
0.0
 11
-3.8388713057982962
 21
3.4224883503230732
 31
0.0
  0
LINE
  5
7C4B
  8
0
 10
-3.8388713057982962
 20
3.4224883503230732
 30
0.0
 11
-3.847805687189167
 21
3.4268615595789509
 31
0.0
  0
LINE
  5
7C4C
  8
0
 10
-3.8388713057982962
 20
3.4224883503230732
 30
0.0
 11
-3.818971821644209
 21
3.4200498891750768
 31
0.0
  0
LINE
  5
7C4D
  8
0
 10
-3.818971821644209
 20
3.4200498891750768
 30
0.0
 11
-3.807975314046121
 21
3.422023240161991
 31
0.0
  0
LINE
  5
7C4E
  8
0
 10
-3.807975314046121
 20
3.422023240161991
 30
0.0
 11
-3.8167731995626499
 21
3.426797197842693
 31
0.0
  0
LINE
  5
7C4F
  8
0
 10
-3.8167731995626499
 20
3.426797197842693
 30
0.0
 11
-3.8368216530300181
 21
3.4288158772023101
 31
0.0
  0
LINE
  5
7C50
  8
0
 10
-3.8189718202363121
 20
3.4200498887882418
 30
0.0
 11
-3.816902180619715
 21
3.4264195843812471
 31
0.0
  0
LINE
  5
7C51
  8
0
 10
-3.9026658168285211
 20
3.4381962620184758
 30
0.0
 11
-3.8919942158908749
 21
3.4391890170458681
 31
0.0
  0
LINE
  5
7C52
  8
0
 10
-3.8919942158908749
 20
3.4391890170458681
 30
0.0
 11
-3.894024469543921
 21
3.4329405307768401
 31
0.0
  0
LINE
  5
7C53
  8
0
 10
-3.894024469543921
 20
3.4329405307768401
 30
0.0
 11
-3.902665816667461
 21
3.4381962619744009
 31
0.0
  0
LINE
  5
7C54
  8
0
 10
-3.894024469543921
 20
3.4329405307768401
 30
0.0
 11
-3.8747191641811169
 21
3.4286540255365949
 31
0.0
  0
LINE
  5
7C55
  8
0
 10
-3.8747191641811169
 20
3.4286540255365949
 30
0.0
 11
-3.8640485620835991
 21
3.429643699491383
 31
0.0
  0
LINE
  5
7C56
  8
0
 10
-3.8640485620835991
 20
3.429643699491383
 30
0.0
 11
-3.872741361550605
 21
3.434935130435445
 31
0.0
  0
LINE
  5
7C57
  8
0
 10
-3.872741361550605
 20
3.434935130435445
 30
0.0
 11
-3.8919942156784262
 21
3.4391890168922541
 31
0.0
  0
LINE
  5
7C58
  8
0
 10
-3.8747191627732191
 20
3.428654025149759
 30
0.0
 11
-3.8727413615655522
 21
3.4349351304093649
 31
0.0
  0
LINE
  5
7C59
  8
0
 10
-3.9558606543419801
 20
3.4546562057209029
 30
0.0
 11
-3.9454849068293001
 21
3.4547384114494988
 31
0.0
  0
LINE
  5
7C5A
  8
0
 10
-3.9454849068293001
 20
3.4547384114494988
 30
0.0
 11
-3.9473773925313149
 21
3.4484633411742762
 31
0.0
  0
LINE
  5
7C5B
  8
0
 10
-3.9473773925313149
 20
3.4484633411742762
 30
0.0
 11
-3.95586065418092
 21
3.454656205676828
 31
0.0
  0
LINE
  5
7C5C
  8
0
 10
-3.9473773925313149
 20
3.4484633411742762
 30
0.0
 11
-3.9287875144549602
 21
3.4424255782799529
 31
0.0
  0
LINE
  5
7C5D
  8
0
 10
-3.9287875144549602
 20
3.4424255782799529
 30
0.0
 11
-3.9184174844035322
 21
3.442490182352778
 31
0.0
  0
LINE
  5
7C5E
  8
0
 10
-3.9184174844035322
 20
3.442490182352778
 30
0.0
 11
-3.9267871459459012
 21
3.4486626938293821
 31
0.0
  0
LINE
  5
7C5F
  8
0
 10
-3.9267871459459012
 20
3.4486626938293821
 30
0.0
 11
-3.9454849066168509
 21
3.4547384112958839
 31
0.0
  0
LINE
  5
7C60
  8
0
 10
-3.928787513047062
 20
3.442425577893117
 30
0.0
 11
-3.926787145960847
 21
3.448662693803302
 31
0.0
  0
LINE
  5
7C61
  8
0
 10
-3.81253325573556
 20
3.445330538379705
 30
0.0
 11
-3.8005839729192501
 21
3.4502555802350581
 31
0.0
  0
LINE
  5
7C62
  8
0
 10
-3.8005839729192501
 20
3.4502555802350581
 30
0.0
 11
-3.8038900997465488
 21
3.4385562095807209
 31
0.0
  0
LINE
  5
7C63
  8
0
 10
-3.8038900997465488
 20
3.4385562095807209
 30
0.0
 11
-3.8125332555745
 21
3.4453305383356301
 31
0.0
  0
LINE
  5
7C64
  8
0
 10
-3.8038900997465488
 20
3.4385562095807209
 30
0.0
 11
-3.7840988924312651
 21
3.437289327456738
 31
0.0
  0
LINE
  5
7C65
  8
0
 10
-3.7840988924312651
 20
3.437289327456738
 30
0.0
 11
-3.772046555861821
 21
3.4425315296754802
 31
0.0
  0
LINE
  5
7C66
  8
0
 10
-3.772046555861821
 20
3.4425315296754802
 30
0.0
 11
-3.7786138688934812
 21
3.447668555228105
 31
0.0
  0
LINE
  5
7C67
  8
0
 10
-3.7832977536953978
 20
3.44918984473165
 30
0.0
 11
-3.8005839727068009
 21
3.4502555800814432
 31
0.0
  0
LINE
  5
7C68
  8
0
 10
-3.7840988910233668
 20
3.4372893270699021
 30
0.0
 11
-3.7805245453
 21
3.4482900238999989
 31
0.0
  0
LINE
  5
7C69
  8
0
 10
-3.837466899559753
 20
3.4586810765402252
 30
0.0
 11
-3.8271364344800789
 21
3.4634340629975431
 31
0.0
  0
LINE
  5
7C6A
  8
0
 10
-3.8257224497025391
 20
3.4629757132921908
 30
0.0
 11
-3.8296467344949141
 21
3.4508980062762769
 31
0.0
  0
LINE
  5
7C6B
  8
0
 10
-3.8296467344949141
 20
3.4508980062762769
 30
0.0
 11
-3.8374668993986929
 21
3.4586810764961502
 31
0.0
  0
LINE
  5
7C6C
  8
0
 10
-3.8296467344949141
 20
3.4508980062762769
 30
0.0
 11
-3.8095561859859881
 21
3.4486489562089528
 31
0.0
  0
LINE
  5
7C6D
  8
0
 10
-3.8095561859859881
 20
3.4486489562089528
 30
0.0
 11
-3.798110808794152
 21
3.454002991349836
 31
0.0
  0
LINE
  5
7C6E
  8
0
 10
-3.8095561845780899
 20
3.4486489558221178
 30
0.0
 11
-3.8070008647
 21
3.4568927015999988
 31
0.0
  0
LINE
  5
7C6F
  8
0
 10
-3.79122529714805
 20
3.4208212752385738
 30
0.0
 11
-3.7799018796124511
 21
3.4238201084536142
 31
0.0
  0
LINE
  5
7C70
  8
0
 10
-3.7799018796124511
 20
3.4238201084536142
 30
0.0
 11
-3.782004562474913
 21
3.4173487218910621
 31
0.0
  0
LINE
  5
7C71
  8
0
 10
-3.782004562474913
 20
3.4173487218910621
 30
0.0
 11
-3.79122529698699
 21
3.4208212751944989
 31
0.0
  0
LINE
  5
7C72
  8
0
 10
-3.782004562474913
 20
3.4173487218910621
 30
0.0
 11
-3.761463498226854
 21
3.4168654963008791
 31
0.0
  0
LINE
  5
7C73
  8
0
 10
-3.761463498226854
 20
3.4168654963008791
 30
0.0
 11
-3.7501206520562649
 21
3.4199241130375899
 31
0.0
  0
LINE
  5
7C74
  8
0
 10
-3.7501206520562649
 20
3.4199241130375899
 30
0.0
 11
-3.7593382479270221
 21
3.423406331986615
 31
0.0
  0
LINE
  5
7C75
  8
0
 10
-3.7593382479270221
 20
3.423406331986615
 30
0.0
 11
-3.7799018794000019
 21
3.4238201082999988
 31
0.0
  0
LINE
  5
7C76
  8
0
 10
-3.7614634968189562
 20
3.4168654959140441
 30
0.0
 11
-3.7593382479419679
 21
3.423406331960535
 31
0.0
  0
LINE
  5
7C77
  8
0
 10
-3.9678217238876652
 20
3.507932229062432
 30
0.0
 11
-3.9583729084187822
 21
3.506076460044993
 31
0.0
  0
LINE
  5
7C78
  8
0
 10
-3.9583729084187822
 20
3.506076460044993
 30
0.0
 11
-3.9610770983632921
 21
3.4969487635694958
 31
0.0
  0
LINE
  5
7C79
  8
0
 10
-3.9610770983632921
 20
3.4969487635694958
 30
0.0
 11
-3.9678217237266038
 21
3.507932229018357
 31
0.0
  0
LINE
  5
7C7A
  8
0
 10
-3.9610770983632921
 20
3.4969487635694958
 30
0.0
 11
-3.9426681735594058
 21
3.4897937075044561
 31
0.0
  0
LINE
  5
7C7B
  8
0
 10
-3.9426681735594058
 20
3.4897937075044561
 30
0.0
 11
-3.931013184084386
 21
3.4938130145529338
 31
0.0
  0
LINE
  5
7C7C
  8
0
 10
-3.942668172151508
 20
3.489793707117621
 30
0.0
 11
-3.9393824622491329
 21
3.499906090044
 31
0.0
  0
LINE
  5
7C7D
  8
0
 10
-4.0375330046000011
 20
3.5317971345000001
 30
0.0
 11
-4.0402079191411966
 21
3.5235645970595399
 31
0.0
  0
LINE
  5
7C7E
  8
0
 10
-4.0402079191411966
 20
3.5235645970595399
 30
0.0
 11
-4.0464237399252481
 21
3.534684753498412
 31
0.0
  0
LINE
  5
7C7F
  8
0
 10
-4.0402079191411966
 20
3.5235645970595399
 30
0.0
 11
-4.0227357059021509
 21
3.5136364161412228
 31
0.0
  0
LINE
  5
7C80
  8
0
 10
-4.0227357059021509
 20
3.5136364161412228
 30
0.0
 11
-4.0118342843656878
 21
3.51533647429997
 31
0.0
  0
LINE
  5
7C81
  8
0
 10
-4.0118342843656878
 20
3.51533647429997
 30
0.0
 11
-4.0177743155145356
 21
3.5253771471950528
 31
0.0
  0
LINE
  5
7C82
  8
0
 10
-4.0227357044942531
 20
3.5136364157543869
 30
0.0
 11
-4.0188114216980138
 21
3.5257141234211602
 31
0.0
  0
LINE
  5
7C83
  8
0
 10
-4.0829856877254453
 20
3.5138476331401951
 30
0.0
 11
-4.0735953719927016
 21
3.5108969897643498
 31
0.0
  0
LINE
  5
7C84
  8
0
 10
-4.0735953719927016
 20
3.5108969897643498
 30
0.0
 11
-4.056372560211865
 21
3.5002012286369708
 31
0.0
  0
LINE
  5
7C85
  8
0
 10
-4.056372560211865
 20
3.5002012286369708
 30
0.0
 11
-4.0485268614607062
 21
3.4924967436455461
 31
0.0
  0
LINE
  5
7C86
  8
0
 10
-4.0485268614607062
 20
3.4924967436455461
 30
0.0
 11
-4.0829856877254427
 21
3.5138476331401951
 31
0.0
  0
LINE
  5
7C87
  8
0
 10
-4.0339952690858327
 20
3.484447817663463
 30
0.0
 11
-4.0243110307752552
 21
3.4824017756097732
 31
0.0
  0
LINE
  5
7C88
  8
0
 10
-4.0243110307752552
 20
3.4824017756097732
 30
0.0
 11
-4.0064717285972513
 21
3.4736033768986099
 31
0.0
  0
LINE
  5
7C89
  8
0
 10
-4.0064717285972513
 20
3.4736033768986099
 30
0.0
 11
-3.9983091517000018
 21
3.4668741424999991
 31
0.0
  0
LINE
  5
7C8A
  8
0
 10
-3.9983091517000018
 20
3.4668741424999991
 30
0.0
 11
-4.0339952690858327
 21
3.484447817663463
 31
0.0
  0
LINE
  5
7C8B
  8
0
 10
-3.9832818586687662
 20
3.4603508266502612
 30
0.0
 11
-3.9733102681660948
 21
3.4591891635686438
 31
0.0
  0
LINE
  5
7C8C
  8
0
 10
-3.9733102681660948
 20
3.4591891635686438
 30
0.0
 11
-3.9548800648636422
 21
3.452209371011997
 31
0.0
  0
LINE
  5
7C8D
  8
0
 10
-3.9548800648636422
 20
3.452209371011997
 30
0.0
 11
-3.9464190116000011
 21
3.4463987526999991
 31
0.0
  0
LINE
  5
7C8E
  8
0
 10
-3.9464190116000011
 20
3.4463987526999991
 30
0.0
 11
-3.9832818586687662
 21
3.4603508266502612
 31
0.0
  0
LINE
  5
7C8F
  8
0
 10
-3.9309095428122598
 20
3.4413594208269771
 30
0.0
 11
-3.9206490111492531
 21
3.4410870274362049
 31
0.0
  0
LINE
  5
7C90
  8
0
 10
-3.9206490111492531
 20
3.4410870274362049
 30
0.0
 11
-3.9016360443799272
 21
3.4359007965578301
 31
0.0
  0
LINE
  5
7C91
  8
0
 10
-3.9016360443799272
 20
3.4359007965578301
 30
0.0
 11
-3.8928860498933018
 21
3.4309794479103362
 31
0.0
  0
LINE
  5
7C92
  8
0
 10
-3.8928860498933018
 20
3.4309794479103362
 30
0.0
 11
-3.9309095427999998
 21
3.4413594208
 31
0.0
  0
LINE
  5
7C93
  8
0
 10
-3.8768944054000012
 20
3.4274241001000001
 30
0.0
 11
-3.8663353972858578
 21
3.4280703227296851
 31
0.0
  0
LINE
  5
7C94
  8
0
 10
-3.8663353972858578
 20
3.4280703227296851
 30
0.0
 11
-3.8467315294207589
 21
3.424702698002998
 31
0.0
  0
LINE
  5
7C95
  8
0
 10
-3.8467315294207589
 20
3.424702698002998
 30
0.0
 11
-3.8376941829396509
 21
3.4206657284253339
 31
0.0
  0
LINE
  5
7C96
  8
0
 10
-3.8376941829396509
 20
3.4206657284253339
 30
0.0
 11
-3.8768944054000012
 21
3.4274241001000001
 31
0.0
  0
LINE
  5
7C97
  8
0
 10
-3.7602972455717061
 20
3.4259196197637318
 30
0.0
 11
-3.7484925406985972
 21
3.4303997028134869
 31
0.0
  0
LINE
  5
7C98
  8
0
 10
-3.7484925406985972
 20
3.4303997028134869
 30
0.0
 11
-3.727571906600001
 21
3.4310846686000001
 31
0.0
  0
LINE
  5
7C99
  8
0
 10
-3.727571906600001
 20
3.4310846686000001
 30
0.0
 11
-3.7302921368523978
 21
3.4227126603013769
 31
0.0
  0
LINE
  5
7C9A
  8
0
 10
-3.7302921368523978
 20
3.4227126603013769
 30
0.0
 11
-3.7511934792248089
 21
3.4220870688195482
 31
0.0
  0
LINE
  5
7C9B
  8
0
 10
-3.7511934792248089
 20
3.4220870688195482
 30
0.0
 11
-3.7602972455716941
 21
3.4259196197637372
 31
0.0
  0
LINE
  5
7C9C
  8
0
 10
-3.7184588675456971
 20
3.427280656397456
 30
0.0
 11
-3.7275719064851911
 21
3.4310846686037579
 31
0.0
  0
LINE
  5
7C9D
  8
0
 10
-3.7184588674623562
 20
3.4272806563657001
 30
0.0
 11
-3.730292136852396
 21
3.4227126603013769
 31
0.0
  0
LINE
  5
7C9E
  8
0
 10
-3.8212068377709532
 20
3.4186359906203481
 30
0.0
 11
-3.8103309517846529
 21
3.4202574639265979
 31
0.0
  0
LINE
  5
7C9F
  8
0
 10
-3.8103309517846529
 20
3.4202574639265979
 30
0.0
 11
-3.790110593236486
 21
3.418787201596758
 31
0.0
  0
LINE
  5
7CA0
  8
0
 10
-3.790110593236486
 20
3.418787201596758
 30
0.0
 11
-3.7807793238096341
 21
3.415654833217256
 31
0.0
  0
LINE
  5
7CA1
  8
0
 10
-3.7807793238096341
 20
3.415654833217256
 30
0.0
 11
-3.8212068377709532
 21
3.4186359906203481
 31
0.0
  0
LINE
  5
7CA2
  8
0
 10
-3.7637672433836271
 20
3.4152400648858041
 30
0.0
 11
-3.7525449004600051
 21
3.4179278218971301
 31
0.0
  0
LINE
  5
7CA3
  8
0
 10
-3.7525449004600051
 20
3.4179278218971301
 30
0.0
 11
-3.7316610590167372
 21
3.4184995513942051
 31
0.0
  0
LINE
  5
7CA4
  8
0
 10
-3.7316610590167372
 20
3.4184995513942051
 30
0.0
 11
-3.7220196446474212
 21
3.416321710945454
 31
0.0
  0
LINE
  5
7CA5
  8
0
 10
-3.7220196446474212
 20
3.416321710945454
 30
0.0
 11
-3.7637672432348701
 21
3.4152400648463148
 31
0.0
  0
LINE
  5
7CA6
  8
0
 10
-3.732813160447197
 20
3.4204185262813591
 30
0.0
 11
-3.7232852354305752
 21
3.4178914014545252
 31
0.0
  0
LINE
  5
7CA7
  8
0
 10
-3.7232852354305752
 20
3.4178914014545252
 30
0.0
 11
-3.7020485595051378
 21
3.4195490440052101
 31
0.0
  0
LINE
  5
7CA8
  8
0
 10
-3.7020485595051378
 20
3.4195490440052101
 30
0.0
 11
-3.6972275256733349
 21
3.4212242708436471
 31
0.0
  0
LINE
  5
7CA9
  8
0
 10
-3.7100863876503989
 20
3.4254017720487311
 30
0.0
 11
-3.7211093199919052
 21
3.4245881816719299
 31
0.0
  0
LINE
  5
7CAA
  8
0
 10
-3.7211093199919052
 20
3.4245881816719299
 30
0.0
 11
-3.7328131604959811
 21
3.4204185263058551
 31
0.0
  0
LINE
  5
7CAB
  8
0
 10
-3.7211740051448681
 20
3.4245651366898091
 30
0.0
 11
-3.7232632215580579
 21
3.41789311976166
 31
0.0
  0
LINE
  5
7CAC
  8
0
 10
-3.748577824916091
 20
3.4303673360257259
 30
0.0
 11
-3.7511950413551172
 21
3.422087726453297
 31
0.0
  0
LINE
  5
7CAD
  8
0
 10
-3.9310131841168849
 20
3.493813014540756
 30
0.0
 11
-3.933711966478282
 21
3.4980636342805762
 31
0.0
  0
LINE
  5
7CAE
  8
0
 10
-3.9108965113901011
 20
3.490649242165945
 30
0.0
 11
-3.915476372751733
 21
3.4887323303405711
 31
0.0
  0
LINE
  5
7CAF
  8
0
 10
-3.915476372751733
 20
3.4887323303405711
 30
0.0
 11
-3.9084371199000021
 21
3.4786713638999989
 31
0.0
  0
LINE
  5
7CB0
  8
0
 10
-3.9084371199000021
 20
3.4786713638999989
 30
0.0
 11
-3.889402874522613
 21
3.4735506220010341
 31
0.0
  0
LINE
  5
7CB1
  8
0
 10
-3.889402874522613
 20
3.4735506220010341
 30
0.0
 11
-3.8774259150575752
 21
3.478560850309476
 31
0.0
  0
LINE
  5
7CB2
  8
0
 10
-3.8774259150575752
 20
3.478560850309476
 30
0.0
 11
-3.878568204803297
 21
3.4801453812570018
 31
0.0
  0
LINE
  5
7CB3
  8
0
 10
-3.889402874522613
 20
3.4735506220010341
 30
0.0
 11
-3.8858824275433781
 21
3.4825228750183221
 31
0.0
  0
LINE
  5
7CB4
  8
0
 10
-3.9084371199000021
 20
3.4786713638999989
 30
0.0
 11
-3.9056711735419158
 21
3.488952628357231
 31
0.0
  0
LINE
  5
7CB5
  8
0
 10
-0.8267710399000058
 20
0.359855177351281
 30
0.0
 11
0.8267710342999983
 21
0.359855177351281
 31
0.0
  0
LINE
  5
7CB6
  8
0
 10
-9.8685826989452377
 20
0.0000000000000006
 30
0.0
 11
-11.7189725708816592
 21
0.0000000000000004
 31
0.0
  0
LINE
  5
7CB7
  8
0
 10
-11.7189725708816592
 20
0.0000000000000004
 30
0.0
 11
-11.7189725708816592
 21
0.0333226961183688
 31
0.0
  0
LINE
  5
7CB8
  8
0
 10
-11.7189725708816592
 20
0.033327274848475
 30
0.0
 11
-11.7172793500280594
 21
0.0450826405
 31
0.0
  0
LINE
  5
7CB9
  8
0
 10
-11.7172793500280594
 20
0.0450826405
 30
0.0
 11
-11.6224315856280604
 21
0.3481048224000001
 31
0.0
  0
LINE
  5
7CBA
  8
0
 10
-11.6224315856280604
 20
0.3481048224000001
 30
0.0
 11
-11.6206373800280591
 21
0.3598547137000001
 31
0.0
  0
LINE
  5
7CBB
  8
0
 10
-11.6206373800280591
 20
0.3598547137000001
 30
0.0
 11
-11.6206407241280605
 21
5.0900614169000011
 31
0.0
  0
LINE
  5
7CBC
  8
0
 10
-11.6206407241280605
 20
5.0900614169000011
 30
0.0
 11
-10.7938788058280597
 21
5.0900614169000011
 31
0.0
  0
ARC
  5
7CBD
  8
0
 10
-10.7938795928190192
 20
-17.4746565974791608
 30
0.0
 40
23.6220570937791585
 50
90.0000002716802356
 51
91.9318976452721159
  0
ARC
  5
7CBE
  8
0
 10
-11.58928511737893
 20
6.1027917649094539
 30
0.0
 40
0.0311959335271277
 50
91.7110621696760546
 51
179.7756467585905966
  0
LINE
  5
7CBF
  8
0
 10
-11.6204808117469796
 20
6.1029139185999997
 30
0.0
 11
-11.6204808117469796
 21
5.2138437623999989
 31
0.0
  0
ARC
  5
7CC0
  8
0
 10
-11.5920264491638108
 20
5.2101140883280674
 30
0.0
 40
0.028130171861623
 50
187.9674063877477863
 51
248.6789907240518005
  0
ARC
  5
7CC1
  8
0
 10
-11.5941856052416501
 20
5.207762810483584
 30
0.0
 40
0.0251813364730714
 50
251.3112670978746905
 51
270.1217372244212243
  0
LINE
  5
7CC2
  8
0
 10
-11.5941321021087997
 20
5.1825815308499994
 30
0.0
 11
-10.7938815111631694
 21
5.1825811020000003
 31
0.0
  0
ARC
  5
7CC3
  8
0
 10
-10.6880038055285205
 20
4.9704601187000899
 30
0.0
 40
0.8661417322995262
 50
165.820886788198294
 51
172.0629436104171077
  0
ARC
  5
7CC4
  8
0
 10
-10.0985386315387604
 20
-120.9366778565695029
 30
0.0
 40
125.2766607623307067
 50
90.3179978014045162
 51
90.583057322930685
  0
ARC
  5
7CC5
  8
0
 10
-11.3730457026826208
 20
4.3020466197336278
 30
0.0
 40
0.0314513660198035
 50
90.5830573229304576
 51
180.0773686170302881
  0
LINE
  5
7CC6
  8
0
 10
-11.4044970400280601
 20
4.3020041498000001
 30
0.0
 11
-11.4044967471060303
 21
3.601173535918353
 31
0.0
  0
ARC
  5
7CC7
  8
0
 10
-11.3729628078121099
 20
3.6012356535433532
 30
0.0
 40
0.0315340004755501
 50
180.1128648441020061
 51
267.5121195886588907
  0
ARC
  5
7CC8
  8
0
 10
-11.3488597152665101
 20
3.135468167823948
 30
0.0
 40
0.4350096010180169
 50
87.8573548851619961
 51
93.3568659624422139
  0
ARC
  5
7CC9
  8
0
 10
-10.6616144030670998
 20
23.5498612903593703
 30
0.0
 40
19.9909513299984383
 50
268.0765485715456862
 51
269.6209135298316824
  0
ARC
  5
7CCA
  8
0
 10
-10.9261576708963801
 20
23.5506447751523993
 30
0.0
 40
19.9917348813612001
 50
270.3791078767208091
 51
271.9234122425330042
  0
ARC
  5
7CCB
  8
0
 10
-10.2389002292428604
 20
3.135610700130834
 30
0.0
 40
0.4348670655776349
 50
86.641655960254667
 51
92.1432811825597327
  0
ARC
  5
7CCC
  8
0
 10
-10.2147977749678702
 20
3.6012365385805549
 30
0.0
 40
0.0315354516294898
 50
272.4941150435706732
 51
359.887777789127199
  0
LINE
  5
7CCD
  8
0
 10
-10.18326238382806
 20
3.6011747717999989
 30
0.0
 11
-10.1834320177942494
 21
4.3019811269120343
 31
0.0
  0
ARC
  5
7CCE
  8
0
 10
-10.2146437254802596
 20
4.302284254029499
 30
0.0
 40
0.0312131796317901
 50
359.4435626966662767
 51
89.5415090974429688
  0
ARC
  5
7CCF
  8
0
 10
-17.6366316554155595
 20
-902.5947630036570217
 30
0.0
 40
906.9586304679791056
 50
89.5311056196108552
 51
89.5677122150724614
  0
ARC
  5
7CD0
  8
0
 10
-9.7942211549508862
 20
7.1865803018969379
 30
0.0
 40
3.2609485831826861
 50
237.4623209256183998
 51
241.0360464211912017
  0
ARC
  5
7CD1
  8
0
 10
-11.4968882768102105
 20
4.5178028728061888
 30
0.0
 40
0.0952814664622728
 50
185.8143811013972027
 51
237.4623209256187977
  0
ARC
  5
7CD2
  8
0
 10
-5.2007622726097287
 20
5.1589366886347943
 30
0.0
 40
6.423966577175908
 50
182.0441894676825996
 51
185.8143811013972879
  0
ARC
  5
7CD3
  8
0
 10
-11.7287196834963208
 20
4.066992648927906
 30
0.0
 40
0.6106214369605687
 50
291.1491195153092804
 51
305.4765139820092941
  0
LINE
  5
7CD4
  8
0
 10
-11.6191350413281
 20
2.473789219699877
 30
0.0
 11
-10.7938797048280595
 21
2.473789219699877
 31
0.0
  0
ARC
  5
7CD5
  8
0
 10
-10.8252428706551598
 20
5.0917310854117526
 30
0.0
 40
1.734441936344929
 50
246.8036937136224083
 51
271.0864766234154786
  0
ARC
  5
7CD6
  8
0
 10
-10.7943417133625505
 20
4.4450856600615971
 30
0.0
 40
1.0541520422025099
 50
265.1508840415659165
 51
270.0251110013804237
  0
ARC
  5
7CD7
  8
0
 10
-10.81236710516729
 20
4.2326114979796952
 30
0.0
 40
0.8409146526524578
 50
256.992605948955827
 51
265.1508840415656891
  0
ARC
  5
7CD8
  8
0
 10
-10.9172848926257
 20
3.7784300505380402
 30
0.0
 40
0.3747724754947114
 50
243.5467087147304994
 51
256.992605948955827
  0
ARC
  5
7CD9
  8
0
 10
-11.0243843300953195
 20
3.5631825543561191
 30
0.0
 40
0.134352480238712
 50
219.8411282874328094
 51
243.5467087147308121
  0
ARC
  5
7CDA
  8
0
 10
-11.0697985715256007
 20
3.530178405159528
 30
0.0
 40
0.0784277549446992
 50
181.1707469864169013
 51
222.5845055675139861
  0
ARC
  5
7CDB
  8
0
 10
74.5674739400934641
 20
3.5380438913315331
 30
0.0
 40
85.7156844173217252
 50
179.9978904182152064
 51
180.0063287347551011
  0
ARC
  5
7CDC
  8
0
 10
-10.5340294738569504
 20
-23.7724875666572117
 30
0.0
 40
27.3205918604187303
 50
90.5449563578144136
 51
91.2881470829422312
  0
ARC
  5
7CDD
  8
0
 10
-11.1511661831291899
 20
9.7677918477308712
 30
0.0
 40
6.2265926795994249
 50
268.5238873935375068
 51
270.0271983117535797
  0
ARC
  5
7CDE
  8
0
 10
-11.3201225540789405
 20
3.0710186412252121
 30
0.0
 40
0.4723243533059187
 50
88.9617757970575553
 51
92.684593372287722
  0
ARC
  5
7CDF
  8
0
 10
-11.3402585203250101
 20
3.500454805505524
 30
0.0
 40
0.042416367420043
 50
92.6845933722879209
 51
104.1110416124809035
  0
ARC
  5
7CE0
  8
0
 10
-11.3441519336152101
 20
3.5133862367117659
 30
0.0
 40
0.0289326329197832
 50
102.8767690212123966
 51
111.8754296838801991
  0
ARC
  5
7CE1
  8
0
 10
-11.35431365619689
 20
3.5389876839782111
 30
0.0
 40
0.0013926908257343
 50
116.3560887411496054
 51
163.4636074383915059
  0
ARC
  5
7CE2
  8
0
 10
-11.3538485286001691
 20
3.538849585489364
 30
0.0
 40
0.001877886532489
 50
163.4636074384002882
 51
195.7875428567114113
  0
ARC
  5
7CE3
  8
0
 10
-11.3524512133216895
 20
3.5392446577500469
 30
0.0
 40
0.0033299788431321
 50
195.7875428567051017
 51
227.8620511490645981
  0
ARC
  5
7CE4
  8
0
 10
-11.3406965915112092
 20
3.5505608105234221
 30
0.0
 40
0.0196398525969121
 50
224.5805618182307057
 51
237.9438543783037971
  0
ARC
  5
7CE5
  8
0
 10
-11.2495397560882093
 20
3.7130850345515598
 30
0.0
 40
0.2059620506520855
 50
240.4488084255822002
 51
249.1719993119941989
  0
ARC
  5
7CE6
  8
0
 10
-10.8622203379130902
 20
4.6913398516274496
 30
0.0
 40
1.2580865273572679
 50
248.5263410695966115
 51
252.4960945292492909
  0
ARC
  5
7CE7
  8
0
 10
-10.9549709789889391
 20
4.134595560653163
 30
0.0
 40
0.7036730392370134
 50
246.0503082747206918
 51
259.4147870670166185
  0
ARC
  5
7CE8
  8
0
 10
-11.1370379395964498
 20
3.718032866128075
 30
0.0
 40
0.249082922503534
 50
224.5457746694764865
 51
245.4279110825769123
  0
LINE
  5
7CE9
  8
0
 10
-9.8685826989452377
 20
0.033327274848475
 30
0.0
 11
-9.8703889305304866
 21
0.0450826405
 31
0.0
  0
LINE
  5
7CEA
  8
0
 10
-9.8703889305304866
 20
0.0450826405
 30
0.0
 11
-9.9652366949304856
 21
0.3481048224000001
 31
0.0
  0
LINE
  5
7CEB
  8
0
 10
-9.9652366949304856
 20
0.3481048224000001
 30
0.0
 11
-9.9670309005304851
 21
0.3598547137000001
 31
0.0
  0
LINE
  5
7CEC
  8
0
 10
-9.9670309005304851
 20
0.3598547137000001
 30
0.0
 11
-9.9670275564304855
 21
5.0900614169000011
 31
0.0
  0
LINE
  5
7CED
  8
0
 10
-9.9670275564304855
 20
5.0900614169000011
 30
0.0
 11
-10.7937894747304792
 21
5.0900614169000011
 31
0.0
  0
ARC
  5
7CEE
  8
0
 10
-10.7937886877395197
 20
-17.4746565974791608
 30
0.0
 40
23.6220570937791585
 50
88.0681023547278983
 51
89.9999997283197644
  0
ARC
  5
7CEF
  8
0
 10
-9.9984759678355069
 20
6.1025809376638618
 30
0.0
 40
0.0314095568636549
 50
0.6074189381213787
 51
88.1312066799989537
  0
LINE
  5
7CF0
  8
0
 10
-9.9670681760304873
 20
6.1029139185999997
 30
0.0
 11
-9.9670681760304873
 21
5.2138437623999989
 31
0.0
  0
ARC
  5
7CF1
  8
0
 10
-9.9954196581535761
 20
5.2098135982956739
 30
0.0
 40
0.0277696392837453
 50
291.119405916253811
 51
352.5541857848119207
  0
ARC
  5
7CF2
  8
0
 10
-10.0171075535539593
 20
5.2153381018035079
 30
0.0
 40
0.050061685480915
 50
349.4998696676339023
 51
358.289469081592415
  0
ARC
  5
7CF3
  8
0
 10
-9.9934826753168977
 20
5.207762810483584
 30
0.0
 40
0.0251813364730714
 50
269.8782627755787757
 51
288.6887329021253095
  0
LINE
  5
7CF4
  8
0
 10
-9.9935361784497445
 20
5.1825815308499994
 30
0.0
 11
-10.7937867693953695
 21
5.1825811020000003
 31
0.0
  0
ARC
  5
7CF5
  8
0
 10
-10.8996644750300202
 20
4.9704601187000899
 30
0.0
 40
0.8661417322995262
 50
7.9370563895828834
 51
14.1791132118016794
  0
ARC
  5
7CF6
  8
0
 10
-11.4891296490197803
 20
-120.9366778565695029
 30
0.0
 40
125.2766607623307067
 50
89.4169426770693292
 51
89.6820021985954838
  0
ARC
  5
7CF7
  8
0
 10
-10.2146225778759199
 20
4.3020466197336278
 30
0.0
 40
0.0314513660198035
 50
359.9226313829697119
 51
89.4169426770695281
  0
LINE
  5
7CF8
  8
0
 10
-10.1831712405304895
 20
4.3020041498000001
 30
0.0
 11
-10.1831715334525104
 21
3.601173535918353
 31
0.0
  0
ARC
  5
7CF9
  8
0
 10
-10.2147054727464308
 20
3.6012356535433532
 30
0.0
 40
0.0315340004755501
 50
272.4878804113411093
 51
359.8871351558980223
  0
ARC
  5
7CFA
  8
0
 10
-10.2388085652920395
 20
3.135468167823948
 30
0.0
 40
0.4350096010180169
 50
86.6431340375578145
 51
92.1426451148380181
  0
ARC
  5
7CFB
  8
0
 10
-10.9260538774914409
 20
23.5498612903593703
 30
0.0
 40
19.9909513299984383
 50
270.3790864701683176
 51
271.9234514284543138
  0
ARC
  5
7CFC
  8
0
 10
-11.7934471256076598
 20
7.1865803018969379
 30
0.0
 40
3.2609485831826861
 50
298.9639535788087983
 51
302.537679074381515
  0
ARC
  5
7CFD
  8
0
 10
-10.0907800037483302
 20
4.5178028728061888
 30
0.0
 40
0.0952814664622728
 50
302.5376790743810034
 51
354.1856188986026837
  0
ARC
  5
7CFE
  8
0
 10
-16.38690600794882
 20
5.1589366886347943
 30
0.0
 40
6.423966577175908
 50
354.1856188986026268
 51
357.9558105323172867
  0
ARC
  5
7CFF
  8
0
 10
-9.858948597062227
 20
4.066992648927906
 30
0.0
 40
0.6106214369605687
 50
234.5234860179907912
 51
248.850880484690606
  0
ARC
  5
7D00
  8
0
 10
-10.0973491143951506
 20
3.408876167299653
 30
0.0
 40
0.0904512415623906
 50
40.9899663732098531
 51
78.4629148538247705
  0
ARC
  5
7D01
  8
0
 10
-10.1795076847363593
 20
3.3670028416163031
 30
0.0
 40
0.1813069030038484
 50
7.5846591522761484
 51
33.930344587150671
  0
ARC
  5
7D02
  8
0
 10
220.9109311103719904
 20
10.8006436564729302
 30
0.0
 40
231.0295729190758038
 50
181.8379375412156094
 51
182.0655233233215995
  0
LINE
  5
7D03
  8
0
 10
-9.9685332392304442
 20
2.473789219699877
 30
0.0
 11
-10.7937885757304795
 21
2.473789219699877
 31
0.0
  0
ARC
  5
7D04
  8
0
 10
-10.7624254099033791
 20
5.0917310854117526
 30
0.0
 40
1.734441936344929
 50
268.9135233765845214
 51
293.1963062863775917
  0
ARC
  5
7D05
  8
0
 10
-10.7933265671959902
 20
4.4450856600615971
 30
0.0
 40
1.0541520422025099
 50
269.9748889986195763
 51
274.8491159584340835
  0
ARC
  5
7D06
  8
0
 10
-10.7753011753912507
 20
4.2326114979796952
 30
0.0
 40
0.8409146526524578
 50
274.8491159584343109
 51
283.0073940510442867
  0
ARC
  5
7D07
  8
0
 10
-10.6703833879328407
 20
3.7784300505380402
 30
0.0
 40
0.3747724754947114
 50
283.0073940510442867
 51
296.4532912852694153
  0
ARC
  5
7D08
  8
0
 10
-10.5632839504632194
 20
3.5631825543561191
 30
0.0
 40
0.134352480238712
 50
296.4532912852691879
 51
320.1588717125673043
  0
ARC
  5
7D09
  8
0
 10
-10.5178697090329401
 20
3.530178405159528
 30
0.0
 40
0.0784277549446992
 50
317.4154944324860139
 51
358.8292530135831271
  0
ARC
  5
7D0A
  8
0
 10
-96.1551422206520101
 20
3.5380438913315331
 30
0.0
 40
85.7156844173217252
 50
359.9936712652449273
 51
0.0021095817847969
  0
ARC
  5
7D0B
  8
0
 10
-11.0536388067015903
 20
-23.7724875666572117
 30
0.0
 40
27.3205918604187303
 50
88.711852917057783
 51
89.4550436421856006
  0
ARC
  5
7D0C
  8
0
 10
-10.4365020974293508
 20
9.7677918477308712
 30
0.0
 40
6.2265926795994249
 50
269.9728016882464772
 51
271.4761126064624932
  0
ARC
  5
7D0D
  8
0
 10
-10.2675457264796002
 20
3.0710186412252121
 30
0.0
 40
0.4723243533059187
 50
87.315406627712278
 51
91.0382242029424447
  0
ARC
  5
7D0E
  8
0
 10
-10.2474097602335306
 20
3.500454805505524
 30
0.0
 40
0.042416367420043
 50
75.8889583875190255
 51
87.3154066277120933
  0
ARC
  5
7D0F
  8
0
 10
-10.2435163469433306
 20
3.5133862367117659
 30
0.0
 40
0.0289326329197832
 50
68.1245703161198009
 51
77.1232309787875323
  0
ARC
  5
7D10
  8
0
 10
-10.2333546243616595
 20
3.5389876839782111
 30
0.0
 40
0.0013926908257343
 50
16.5363925616085012
 51
63.6439112588504372
  0
ARC
  5
7D11
  8
0
 10
-10.2338197519583805
 20
3.538849585489364
 30
0.0
 40
0.001877886532489
 50
344.212457143288475
 51
16.5363925615997296
  0
ARC
  5
7D12
  8
0
 10
-10.2352170672368494
 20
3.5392446577500469
 30
0.0
 40
0.0033299788431321
 50
312.1379488509352882
 51
344.2124571432948983
  0
ARC
  5
7D13
  8
0
 10
-10.2469716890473403
 20
3.5505608105234221
 30
0.0
 40
0.0196398525969121
 50
302.0561456216963165
 51
315.4194381817692943
  0
ARC
  5
7D14
  8
0
 10
-10.3381285244703296
 20
3.7130850345515598
 30
0.0
 40
0.2059620506520855
 50
290.8280006880057726
 51
299.5511915744177145
  0
ARC
  5
7D15
  8
0
 10
-10.7254479426454594
 20
4.6913398516274496
 30
0.0
 40
1.2580865273572679
 50
287.5039054707506807
 51
291.4736589304034169
  0
ARC
  5
7D16
  8
0
 10
-10.6326973015695998
 20
4.134595560653163
 30
0.0
 40
0.7036730392370134
 50
280.5852129329833815
 51
293.9496917252791945
  0
ARC
  5
7D17
  8
0
 10
-10.4506303409620998
 20
3.718032866128075
 30
0.0
 40
0.249082922503534
 50
294.5720889174231161
 51
315.4542253305235135
  0
CIRCLE
  5
7D18
  8
0
 10
-10.79387971152806
 20
5.6151830710999997
 30
0.0
 40
0.1431761147693004
  0
ARC
  5
7D19
  8
0
 10
-28.5957533034371885
 20
581.4348373491313851
 30
0.0
 40
575.5827302011888378
 50
271.6901569276507189
 51
271.7084931489109749
  0
LINE
  5
7D1A
  8
0
 10
-11.4350926868280602
 20
6.1079815244999986
 30
0.0
 11
-11.3571593983221
 21
6.1091786633012406
 31
0.0
  0
ARC
  5
7D1B
  8
0
 10
-10.7938797104280901
 20
-17.4746467478103789
 30
0.0
 40
23.5905511811103707
 50
88.6317954274005331
 51
91.368201023116427
  0
ARC
  5
7D1C
  8
0
 10
-10.1192722995969699
 20
10.7702597347925302
 30
0.0
 40
4.6624103870108016
 50
268.6317954274005046
 51
269.5977852437990805
  0
ARC
  5
7D1D
  8
0
 10
-31.0195856228380897
 20
-697.8981299217774676
 30
0.0
 40
704.3152963318369757
 50
88.2872507147820045
 51
88.3021816079609749
  0
LINE
  5
7D1E
  8
0
 10
-11.4357665195280607
 20
6.1079640602999978
 30
0.0
 11
-11.4357963443577599
 21
5.9905838159834888
 31
0.0
  0
LINE
  5
7D1F
  8
0
 10
-10.1519969553429306
 20
5.990583000645139
 30
0.0
 11
-10.1520009400279605
 21
6.1079641970939997
 31
0.0
  0
ARC
  5
7D20
  8
0
 10
-6.5141108807571699
 20
12.7697341178469106
 30
0.0
 40
9.7784256725175176
 50
239.0514780129030896
 51
239.9920609481746965
  0
ARC
  5
7D21
  8
0
 10
-11.5033158815152898
 20
4.4493786485531439
 30
0.0
 40
0.0768545793905659
 50
203.8058953988671931
 51
239.0514780129026065
  0
ARC
  5
7D22
  8
0
 10
-11.3672105011612601
 20
4.5094250033299694
 30
0.0
 40
0.2256169378126496
 50
189.7600081328234012
 51
203.8058953988669941
  0
ARC
  5
7D23
  8
0
 10
-9.8289666055170795
 20
4.7740202810160763
 30
0.0
 40
1.786451632282362
 50
178.9279566149805021
 51
189.7600081328234864
  0
ARC
  5
7D24
  8
0
 10
-15.0736485288989499
 20
12.7697341178469106
 30
0.0
 40
9.7784256725175176
 50
300.0079390518251898
 51
300.9485219870969104
  0
ARC
  5
7D25
  8
0
 10
-10.0844435281408291
 20
4.4493786485531439
 30
0.0
 40
0.0768545793905659
 50
300.948521987097422
 51
336.1941046011327785
  0
ARC
  5
7D26
  8
0
 10
-10.2205489084948606
 20
4.5094250033299694
 30
0.0
 40
0.2256169378126496
 50
336.1941046011330059
 51
350.2399918671765136
  0
ARC
  5
7D27
  8
0
 10
-11.7587928041390395
 20
4.7740202810160763
 30
0.0
 40
1.786451632282362
 50
350.2399918671763999
 51
1.0720433850195339
  0
ARC
  5
7D28
  8
0
 10
-11.4844544660640402
 20
3.393888256717386
 30
0.0
 40
0.1063448334197273
 50
103.0178520152065005
 51
124.6196679403419978
  0
ARC
  5
7D29
  8
0
 10
-11.5051790233865692
 20
3.4239081608157829
 30
0.0
 40
0.0698660461826003
 50
124.6196679403417988
 51
158.4339610321615908
  0
ARC
  5
7D2A
  8
0
 10
-10.9880600408092803
 20
3.2540438730594001
 30
0.0
 40
0.6140613742257529
 50
161.4310483142841974
 51
178.6500266867595883
  0
ARC
  5
7D2B
  8
0
 10
-7.6150447463797599
 20
2.9872137108579269
 30
0.0
 40
3.996817396771938
 50
175.964172047424114
 51
177.7012565000549955
  0
ARC
  5
7D2C
  8
0
 10
11.8469731450470892
 20
2.3666088770365379
 30
0.0
 40
23.4686150248064216
 50
178.0931345144701936
 51
179.4707678232796866
  0
ARC
  5
7D2D
  8
0
 10
-10.9764462059930992
 20
3.3780619982429592
 30
0.0
 40
0.1880184198690865
 50
118.7468824506084957
 51
123.3934861716514035
  0
ARC
  5
7D2E
  8
0
 10
-11.0264255044967303
 20
3.4538783370410231
 30
0.0
 40
0.09721066960702
 50
123.393486171651702
 51
129.535364219092088
  0
ARC
  5
7D2F
  8
0
 10
-11.0407232772201205
 20
3.471201126950485
 30
0.0
 40
0.0747494729537462
 50
129.535364219092088
 51
149.2156099374863061
  0
ARC
  5
7D30
  8
0
 10
-11.0797132670979703
 20
3.4944294305730521
 30
0.0
 40
0.0293647464495863
 50
149.2156099374869882
 51
205.9427573709097032
  0
ARC
  5
7D31
  8
0
 10
-11.0374827991676696
 20
3.5187525335810839
 30
0.0
 40
0.0780543895276284
 50
208.4374151130247981
 51
243.0020643736623072
  0
ARC
  5
7D32
  8
0
 10
-10.8921927343373497
 20
3.803925741458539
 30
0.0
 40
0.3981058876174161
 50
243.0020643736623072
 51
253.7047023852998109
  0
ARC
  5
7D33
  8
0
 10
-10.8308623513180198
 20
4.071227519059005
 30
0.0
 40
0.6720719817952578
 50
255.0803840346131039
 51
263.9271552154023084
  0
ARC
  5
7D34
  8
0
 10
-10.7949941871848392
 20
4.3678536869355638
 30
0.0
 40
0.9708375958197168
 50
263.6742100715277957
 51
270.0657729251822161
  0
LINE
  5
7D35
  8
0
 10
-10.7938797104400805
 20
3.5388491156300561
 30
0.0
 11
-10.8109274546085707
 21
3.5432995488478012
 31
0.0
  0
LINE
  5
7D36
  8
0
 10
-10.8109274546085707
 20
3.5432995488478012
 30
0.0
 11
-10.8109274546280592
 21
3.5467010580406941
 31
0.0
  0
LINE
  5
7D37
  8
0
 10
-10.8325096655280593
 20
3.5464737821707941
 30
0.0
 11
-10.8325096655280593
 21
3.5432995488527732
 31
0.0
  0
LINE
  5
7D38
  8
0
 10
-10.8325096655280593
 20
3.5432995488527732
 30
0.0
 11
-10.8450608128280592
 21
3.5400425458411782
 31
0.0
  0
LINE
  5
7D39
  8
0
 10
-10.8450608128280592
 20
3.5463337679054532
 30
0.0
 11
-10.8450608128280592
 21
3.4114985751999991
 31
0.0
  0
LINE
  5
7D3A
  8
0
 10
-10.8450608128280592
 20
3.4169769483140189
 30
0.0
 11
-10.8387663042916405
 21
3.4165107315081391
 31
0.0
  0
LINE
  5
7D3B
  8
0
 10
-10.8387663042916405
 20
3.4165107315081391
 30
0.0
 11
-10.8387663042419202
 21
3.430938476996269
 31
0.0
  0
LINE
  5
7D3C
  8
0
 10
-10.8387663042419202
 20
3.430938476996269
 30
0.0
 11
-10.8217185601280601
 21
3.4393586156764728
 31
0.0
  0
LINE
  5
7D3D
  8
0
 10
-10.8217185601280601
 20
3.4393586156764728
 30
0.0
 11
-10.8046708158508196
 21
3.430938476964406
 31
0.0
  0
LINE
  5
7D3E
  8
0
 10
-10.8046708158508196
 20
3.430938476964406
 30
0.0
 11
-10.8046708159280591
 21
3.4150499271999988
 31
0.0
  0
LINE
  5
7D3F
  8
0
 10
-10.8046708159280591
 20
3.4150499271999988
 30
0.0
 11
-10.7938797048280595
 21
3.4149604569854599
 31
0.0
  0
LINE
  5
7D40
  8
0
 10
-10.8217185600662695
 20
3.4176286870455428
 30
0.0
 11
-10.8046708159265297
 21
3.4153648115577071
 31
0.0
  0
LINE
  5
7D41
  8
0
 10
-10.8217185600662695
 20
3.4176286870455428
 30
0.0
 11
-10.8387663042280593
 21
3.41707116278292
 31
0.0
  0
LINE
  5
7D42
  8
0
 10
-10.7938797048280595
 20
3.4294635149656298
 30
0.0
 11
-10.8109274545857108
 21
3.4379350765012222
 31
0.0
  0
LINE
  5
7D43
  8
0
 10
-10.8109274545857108
 20
3.4379350765012222
 30
0.0
 11
-10.8109274546280592
 21
3.454005294605031
 31
0.0
  0
LINE
  5
7D44
  8
0
 10
-10.8109274546280592
 20
3.454005294605031
 30
0.0
 11
-10.7938797048280595
 21
3.4616253862602582
 31
0.0
  0
LINE
  5
7D45
  8
0
 10
-10.7938797048280595
 20
3.4616253862602582
 30
0.0
 11
-10.7768319662770296
 21
3.454005294581818
 31
0.0
  0
LINE
  5
7D46
  8
0
 10
-10.7768319662770296
 20
3.454005294581818
 30
0.0
 11
-10.7768319662280607
 21
3.4379350765218968
 31
0.0
  0
LINE
  5
7D47
  8
0
 10
-10.7768319662280607
 20
3.4379350765218968
 30
0.0
 11
-10.7938803425125407
 21
3.42946383185105
 31
0.0
  0
LINE
  5
7D48
  8
0
 10
-10.7938797048280595
 20
3.4736733633224599
 30
0.0
 11
-10.8109274545915408
 21
3.480609367552542
 31
0.0
  0
LINE
  5
7D49
  8
0
 10
-10.8109274545915408
 20
3.480609367552542
 30
0.0
 11
-10.8109274546280592
 21
3.4937557117999991
 31
0.0
  0
LINE
  5
7D4A
  8
0
 10
-10.8109274546280592
 20
3.4937557117999991
 30
0.0
 11
-10.7938797048280595
 21
3.499978029926353
 31
0.0
  0
LINE
  5
7D4B
  8
0
 10
-10.7938797048280595
 20
3.499978029926353
 30
0.0
 11
-10.7768319662280607
 21
3.4937557118169238
 31
0.0
  0
LINE
  5
7D4C
  8
0
 10
-10.7768319662280607
 20
3.4937557118169238
 30
0.0
 11
-10.7768319662280607
 21
3.4806093676000001
 31
0.0
  0
LINE
  5
7D4D
  8
0
 10
-10.7768319662280607
 20
3.4806093676000001
 30
0.0
 11
-10.7938797048280595
 21
3.4736733633224599
 31
0.0
  0
LINE
  5
7D4E
  8
0
 10
-10.7938797048280595
 20
3.5097904338198598
 30
0.0
 11
-10.8109274546280592
 21
3.5154199898999998
 31
0.0
  0
LINE
  5
7D4F
  8
0
 10
-10.8109274546280592
 20
3.5154199898999998
 30
0.0
 11
-10.8109274546280592
 21
3.526035977699999
 31
0.0
  0
LINE
  5
7D50
  8
0
 10
-10.8109274546280592
 20
3.526035977699999
 30
0.0
 11
-10.7938797048834392
 21
3.5310290111166309
 31
0.0
  0
LINE
  5
7D51
  8
0
 10
-10.7938797048834392
 20
3.5310290111166309
 30
0.0
 11
-10.7768319662280607
 21
3.526035977699999
 31
0.0
  0
LINE
  5
7D52
  8
0
 10
-10.7768319662280607
 20
3.526035977699999
 30
0.0
 11
-10.7768319662280607
 21
3.5154199898759999
 31
0.0
  0
LINE
  5
7D53
  8
0
 10
-10.7768319662280607
 20
3.5154199898759999
 30
0.0
 11
-10.7938797048280595
 21
3.5097904338198598
 31
0.0
  0
LINE
  5
7D54
  8
0
 10
-10.7660408608048197
 20
3.5251583914321798
 30
0.0
 11
-10.7830886049280608
 21
3.5301870652999998
 31
0.0
  0
LINE
  5
7D55
  8
0
 10
-10.7830886049280608
 20
3.5301870652999998
 30
0.0
 11
-10.7830886049441901
 21
3.539627011562867
 31
0.0
  0
LINE
  5
7D56
  8
0
 10
-10.7830886049441901
 20
3.539627011562867
 30
0.0
 11
-10.7660408551740794
 21
3.5440429329046621
 31
0.0
  0
LINE
  5
7D57
  8
0
 10
-10.7660408551740794
 20
3.5440429329046621
 30
0.0
 11
-10.7489931166280606
 21
3.53962701156714
 31
0.0
  0
LINE
  5
7D58
  8
0
 10
-10.7489931166280606
 20
3.53962701156714
 30
0.0
 11
-10.7489931165939794
 21
3.530187065258779
 31
0.0
  0
LINE
  5
7D59
  8
0
 10
-10.7489931165939794
 20
3.530187065258779
 30
0.0
 11
-10.7660408608048197
 21
3.5251583914321798
 31
0.0
  0
LINE
  5
7D5A
  8
0
 10
-10.8217185601757908
 20
3.5251583914248039
 30
0.0
 11
-10.8387663042280593
 21
3.5301870652200442
 31
0.0
  0
LINE
  5
7D5B
  8
0
 10
-10.8387663042280593
 20
3.5301870652200442
 30
0.0
 11
-10.8387663042280593
 21
3.539627011599999
 31
0.0
  0
LINE
  5
7D5C
  8
0
 10
-10.8387663042280593
 20
3.539627011599999
 30
0.0
 11
-10.8217191606646992
 21
3.5440431067649101
 31
0.0
  0
LINE
  5
7D5D
  8
0
 10
-10.8217191606646992
 20
3.5440431067649101
 30
0.0
 11
-10.8046714220093101
 21
3.539627172140368
 31
0.0
  0
LINE
  5
7D5E
  8
0
 10
-10.8046714220093101
 20
3.539627172140368
 30
0.0
 11
-10.8046708159280591
 21
3.530187065248934
 31
0.0
  0
LINE
  5
7D5F
  8
0
 10
-10.8046708159280591
 20
3.530187065248934
 30
0.0
 11
-10.8217185601757908
 21
3.5251583914248039
 31
0.0
  0
LINE
  5
7D60
  8
0
 10
-10.8217185600518704
 20
3.492664963439112
 30
0.0
 11
-10.8387663042280593
 21
3.4989267094000001
 31
0.0
  0
LINE
  5
7D61
  8
0
 10
-10.8387669104632902
 20
3.5007552593875801
 30
0.0
 11
-10.8385866090269101
 21
3.510831873069518
 31
0.0
  0
LINE
  5
7D62
  8
0
 10
-10.8385866090269101
 20
3.510831873069518
 30
0.0
 11
-10.8217191607186791
 21
3.5163642806042108
 31
0.0
  0
LINE
  5
7D63
  8
0
 10
-10.8217191607186791
 20
3.5163642806042108
 30
0.0
 11
-10.8046713928733507
 21
3.5107719855295558
 31
0.0
  0
LINE
  5
7D64
  8
0
 10
-10.8046713928733507
 20
3.5107719855295558
 30
0.0
 11
-10.8046708158916598
 21
3.4989267094334791
 31
0.0
  0
LINE
  5
7D65
  8
0
 10
-10.8046708158916598
 20
3.4989267094334791
 30
0.0
 11
-10.8217185600518704
 21
3.492664963439112
 31
0.0
  0
LINE
  5
7D66
  8
0
 10
-10.8217185601280601
 20
3.4526706938
 30
0.0
 11
-10.8387663043196607
 21
3.4603370021019351
 31
0.0
  0
LINE
  5
7D67
  8
0
 10
-10.8387663043196607
 20
3.4603370021019351
 30
0.0
 11
-10.8387663042280593
 21
3.4748810238000001
 31
0.0
  0
LINE
  5
7D68
  8
0
 10
-10.8387663042280593
 20
3.4748810238000001
 30
0.0
 11
-10.8217191607186791
 21
3.4817748692990631
 31
0.0
  0
LINE
  5
7D69
  8
0
 10
-10.8217191607186791
 20
3.4817748692990631
 30
0.0
 11
-10.80467142206329
 21
3.4748812732926559
 31
0.0
  0
LINE
  5
7D6A
  8
0
 10
-10.80467142206329
 20
3.4748812732926559
 30
0.0
 11
-10.8046708159280591
 21
3.4603370021056459
 31
0.0
  0
LINE
  5
7D6B
  8
0
 10
-10.8046708159280591
 20
3.4603370021056459
 30
0.0
 11
-10.8217185601280601
 21
3.4526706938
 31
0.0
  0
LINE
  5
7D6C
  8
0
 10
-10.7660408608280598
 20
3.4526706938
 30
0.0
 11
-10.7830886049280608
 21
3.4603370020614639
 31
0.0
  0
LINE
  5
7D6D
  8
0
 10
-10.7830886049280608
 20
3.4603370020614639
 30
0.0
 11
-10.7830886049280608
 21
3.4748810237907821
 31
0.0
  0
LINE
  5
7D6E
  8
0
 10
-10.7830886049280608
 20
3.4748810237907821
 30
0.0
 11
-10.7660414613627307
 21
3.4817748693165611
 31
0.0
  0
LINE
  5
7D6F
  8
0
 10
-10.7660414613627307
 20
3.4817748693165611
 30
0.0
 11
-10.7489931166280606
 21
3.4748810237907821
 31
0.0
  0
LINE
  5
7D70
  8
0
 10
-10.7489931166280606
 20
3.4748810237907821
 30
0.0
 11
-10.7489931166280606
 21
3.460337002105645
 31
0.0
  0
LINE
  5
7D71
  8
0
 10
-10.7489931166280606
 20
3.460337002105645
 30
0.0
 11
-10.7660408608280598
 21
3.4526706938
 31
0.0
  0
LINE
  5
7D72
  8
0
 10
-10.7660408608280598
 20
3.4926649634999989
 30
0.0
 11
-10.7830892111012897
 21
3.4989269279938582
 31
0.0
  0
LINE
  5
7D73
  8
0
 10
-10.7830892111012897
 20
3.4989269279938582
 30
0.0
 11
-10.7829089096659096
 21
3.5108318730899102
 31
0.0
  0
LINE
  5
7D74
  8
0
 10
-10.7829089096659096
 20
3.5108318730899102
 30
0.0
 11
-10.7660414613566804
 21
3.5163642806216981
 31
0.0
  0
LINE
  5
7D75
  8
0
 10
-10.7660414613566804
 20
3.5163642806216981
 30
0.0
 11
-10.7489931165803103
 21
3.5107717925750159
 31
0.0
  0
LINE
  5
7D76
  8
0
 10
-10.7489931165803103
 20
3.5107717925750159
 30
0.0
 11
-10.7489931166280606
 21
3.4989267094000001
 31
0.0
  0
LINE
  5
7D77
  8
0
 10
-10.7489931166280606
 20
3.4989267094000001
 30
0.0
 11
-10.7660408608280598
 21
3.4926649634999989
 31
0.0
  0
LINE
  5
7D78
  8
0
 10
-10.7938797048280595
 20
3.538849114164996
 30
0.0
 11
-10.7768319662280607
 21
3.543299548899999
 31
0.0
  0
LINE
  5
7D79
  8
0
 10
-10.7768319662280607
 20
3.543299548899999
 30
0.0
 11
-10.7767974909278106
 21
3.546701632319011
 31
0.0
  0
LINE
  5
7D7A
  8
0
 10
-10.8450608128280592
 20
3.5297321485482791
 30
0.0
 11
-10.8325096656355502
 21
3.5260359777147978
 31
0.0
  0
LINE
  5
7D7B
  8
0
 10
-10.8325096656355502
 20
3.5260359777147978
 30
0.0
 11
-10.8325096655280593
 21
3.5154199898999998
 31
0.0
  0
LINE
  5
7D7C
  8
0
 10
-10.8325096655280593
 20
3.5154199898999998
 30
0.0
 11
-10.8450608127971009
 21
3.5112964512874179
 31
0.0
  0
LINE
  5
7D7D
  8
0
 10
-10.8450608128280592
 20
3.4983590309305979
 30
0.0
 11
-10.8325096655280593
 21
3.4937557118169251
 31
0.0
  0
LINE
  5
7D7E
  8
0
 10
-10.8325096655280593
 20
3.4937557118169251
 30
0.0
 11
-10.8325096655280593
 21
3.4806093675671361
 31
0.0
  0
LINE
  5
7D7F
  8
0
 10
-10.8325096655280593
 20
3.4806093675671361
 30
0.0
 11
-10.8450608128280592
 21
3.4755269051893851
 31
0.0
  0
LINE
  5
7D80
  8
0
 10
-10.8450608128280592
 20
3.4596414810221532
 30
0.0
 11
-10.8325096655770299
 21
3.454005294581818
 31
0.0
  0
LINE
  5
7D81
  8
0
 10
-10.8325096655770299
 20
3.454005294581818
 30
0.0
 11
-10.8325096655280593
 21
3.4379350765218968
 31
0.0
  0
LINE
  5
7D82
  8
0
 10
-10.8325096655280593
 20
3.4379350765218968
 30
0.0
 11
-10.8450608128280592
 21
3.4317273146620781
 31
0.0
  0
LINE
  5
7D83
  8
0
 10
-10.7938797048280009
 20
3.414960456985459
 30
0.0
 11
-10.7830886049280608
 21
3.414960456985459
 31
0.0
  0
LINE
  5
7D84
  8
0
 10
-10.7830886049280608
 20
3.414960456985459
 30
0.0
 11
-10.7830886049280608
 21
3.4309384770032358
 31
0.0
  0
LINE
  5
7D85
  8
0
 10
-10.7830886049280608
 20
3.4309384770032358
 30
0.0
 11
-10.7660408607721294
 21
3.4393586156978571
 31
0.0
  0
LINE
  5
7D86
  8
0
 10
-10.7660408607721294
 20
3.4393586156978571
 30
0.0
 11
-10.7489931166280606
 21
3.4309384770032358
 31
0.0
  0
LINE
  5
7D87
  8
0
 10
-10.7489931165508192
 20
3.430938476964406
 30
0.0
 11
-10.7489931166280606
 21
3.4165107315999999
 31
0.0
  0
LINE
  5
7D88
  8
0
 10
-10.7489931166280606
 20
3.4165107315999999
 30
0.0
 11
-10.7426986081243907
 21
3.4169769483143089
 31
0.0
  0
LINE
  5
7D89
  8
0
 10
-10.7489931166319401
 20
3.4170711628564132
 30
0.0
 11
-10.7660408608699196
 21
3.4176286870056809
 31
0.0
  0
LINE
  5
7D8A
  8
0
 10
-10.76604086086998
 20
3.4176286870056849
 30
0.0
 11
-10.78308860496427
 21
3.4153648115623061
 31
0.0
  0
LINE
  5
7D8B
  8
0
 10
-10.8217185601281294
 20
3.544042951205848
 30
0.0
 11
-10.8217185601281294
 21
3.5251583914107449
 31
0.0
  0
LINE
  5
7D8C
  8
0
 10
-10.8217185601281294
 20
3.5163640835884151
 30
0.0
 11
-10.8217185601281294
 21
3.492664963467123
 31
0.0
  0
LINE
  5
7D8D
  8
0
 10
-10.8217185601281294
 20
3.4817746264381961
 30
0.0
 11
-10.8217185601281294
 21
3.4526706938000329
 31
0.0
  0
LINE
  5
7D8E
  8
0
 10
-10.8217185601281294
 20
3.4393586156764369
 30
0.0
 11
-10.8217185601281294
 21
3.4176286870537571
 31
0.0
  0
LINE
  5
7D8F
  8
0
 10
-10.7660408608280598
 20
3.544042934369227
 30
0.0
 11
-10.7660408608280598
 21
3.5251583914390339
 31
0.0
  0
LINE
  5
7D90
  8
0
 10
-10.7660408608280598
 20
3.516364083626085
 30
0.0
 11
-10.7660408608280598
 21
3.4926649634999989
 31
0.0
  0
LINE
  5
7D91
  8
0
 10
-10.7660408608280598
 20
3.48177462647813
 30
0.0
 11
-10.7660408608280598
 21
3.4526706938
 31
0.0
  0
LINE
  5
7D92
  8
0
 10
-10.7660408608280598
 20
3.439358615670232
 30
0.0
 11
-10.7660408608280598
 21
3.4176286870043131
 31
0.0
  0
LINE
  5
7D93
  8
0
 10
-10.7552497575537398
 20
3.5464737933252191
 30
0.0
 11
-10.7552497566371805
 21
3.543299560007199
 31
0.0
  0
LINE
  5
7D94
  8
0
 10
-10.7552497566371805
 20
3.543299560007199
 30
0.0
 11
-10.7426986083967204
 21
3.540042560619757
 31
0.0
  0
LINE
  5
7D95
  8
0
 10
-10.7426986054195801
 20
3.5297321633268579
 30
0.0
 11
-10.7552497515448096
 21
3.526035988869225
 31
0.0
  0
LINE
  5
7D96
  8
0
 10
-10.7552497515448096
 20
3.526035988869225
 30
0.0
 11
-10.7552497485869392
 21
3.515420001054427
 31
0.0
  0
LINE
  5
7D97
  8
0
 10
-10.7552497485869392
 20
3.515420001054427
 30
0.0
 11
-10.7426986001272304
 21
3.511296466065998
 31
0.0
  0
LINE
  5
7D98
  8
0
 10
-10.7426985963605794
 20
3.4983590457091789
 30
0.0
 11
-10.75524974233136
 21
3.4937557229713532
 31
0.0
  0
LINE
  5
7D99
  8
0
 10
-10.75524974233136
 20
3.4937557229713532
 30
0.0
 11
-10.7552497385353494
 21
3.4806093787215651
 31
0.0
  0
LINE
  5
7D9A
  8
0
 10
-10.7552497385353494
 20
3.4806093787215651
 30
0.0
 11
-10.7426985897677802
 21
3.475526919967967
 31
0.0
  0
LINE
  5
7D9B
  8
0
 10
-10.7426985851808592
 20
3.4596414958007351
 30
0.0
 11
-10.7552497308044295
 21
3.4540053057362479
 31
0.0
  0
LINE
  5
7D9C
  8
0
 10
-10.7552497308044295
 20
3.4540053057362479
 30
0.0
 11
-10.7552497262131208
 21
3.4379350876763271
 31
0.0
  0
LINE
  5
7D9D
  8
0
 10
-10.7552497262131208
 20
3.4379350876763271
 30
0.0
 11
-10.7426985771206205
 21
3.4317273294406618
 31
0.0
  0
LINE
  5
7D9E
  8
0
 10
-10.7426985970186397
 20
3.5463337681723801
 30
0.0
 11
-10.7426985963154298
 21
3.411498599487627
 31
0.0
  0
LINE
  5
7D9F
  8
0
 10
-10.8765568758280597
 20
3.5459570190522252
 30
0.0
 11
-10.8765568758280597
 21
3.5236873157000002
 31
0.0
  0
LINE
  5
7DA0
  8
0
 10
-10.8765568758280597
 20
3.5236873157000002
 30
0.0
 11
-10.8773962593956099
 21
3.5235115284971239
 31
0.0
  0
LINE
  5
7DA1
  8
0
 10
-10.8773962593956099
 20
3.5235115284971239
 30
0.0
 11
-10.8773962594280604
 21
3.5459464816945512
 31
0.0
  0
LINE
  5
7DA2
  8
0
 10
-10.8773962594280604
 20
3.523511528490328
 30
0.0
 11
-10.8944440035464893
 21
3.5322822973003469
 31
0.0
  0
LINE
  5
7DA3
  8
0
 10
-10.8944440035464893
 20
3.5322822973003469
 30
0.0
 11
-10.8944440035280596
 21
3.5450200501000002
 31
0.0
  0
LINE
  5
7DA4
  8
0
 10
-10.8944440035280596
 20
3.5450200501000002
 30
0.0
 11
-10.8909128641096604
 21
3.5457732463839449
 31
0.0
  0
LINE
  5
7DA5
  8
0
 10
-10.9160262145280598
 20
3.5454336224394258
 30
0.0
 11
-10.9160262145280598
 21
3.5364415442000001
 31
0.0
  0
LINE
  5
7DA6
  8
0
 10
-10.9160262145280598
 20
3.5364415442000001
 30
0.0
 11
-10.9330739586708798
 21
3.5341910833518742
 31
0.0
  0
LINE
  5
7DA7
  8
0
 10
-10.9330739586708798
 20
3.5341910833518742
 30
0.0
 11
-10.9506219031405294
 21
3.5449279471032731
 31
0.0
  0
LINE
  5
7DA8
  8
0
 10
-10.9330739585952692
 20
3.534191083360358
 30
0.0
 11
-10.9330739587280608
 21
3.5451934265999991
 31
0.0
  0
LINE
  5
7DA9
  8
0
 10
-10.9547550405463294
 20
3.5448646037328051
 30
0.0
 11
-10.9438650642056707
 21
3.5379555477429521
 31
0.0
  0
LINE
  5
7DAA
  8
0
 10
-10.9438650642056707
 20
3.5379555477429521
 30
0.0
 11
-10.9438650642280599
 21
3.5261464801999991
 31
0.0
  0
LINE
  5
7DAB
  8
0
 10
-10.9438650642280599
 20
3.5261464801999991
 30
0.0
 11
-10.9609128083132692
 21
3.5251935427528021
 31
0.0
  0
LINE
  5
7DAC
  8
0
 10
-10.9609128083132692
 20
3.5251935427528021
 30
0.0
 11
-10.9779605525552899
 21
3.536104873458584
 31
0.0
  0
LINE
  5
7DAD
  8
0
 10
-10.9779605525552899
 20
3.536104873458584
 30
0.0
 11
-10.9779605525552899
 21
3.5444973475119221
 31
0.0
  0
LINE
  5
7DAE
  8
0
 10
-10.9609128065399499
 20
3.5251935428519259
 30
0.0
 11
-10.9609128065399499
 21
3.5447690712970412
 31
0.0
  0
LINE
  5
7DAF
  8
0
 10
-11.0273816131702702
 20
3.5388033780587911
 30
0.0
 11
-11.0273816131702702
 21
3.5436494821682181
 31
0.0
  0
LINE
  5
7DB0
  8
0
 10
-11.0273816131280604
 20
3.538803378099999
 30
0.0
 11
-11.0444293571748808
 21
3.5410275806369649
 31
0.0
  0
LINE
  5
7DB1
  8
0
 10
-11.0444293571748808
 20
3.5410275806369649
 30
0.0
 11
-11.0444293571748808
 21
3.5433362642779871
 31
0.0
  0
LINE
  5
7DB2
  8
0
 10
-11.0057994021675594
 20
3.5411691946905082
 30
0.0
 11
-11.0057994022280603
 21
3.530199344920097
 31
0.0
  0
LINE
  5
7DB3
  8
0
 10
-11.0057994022280603
 20
3.530199344920097
 30
0.0
 11
-10.9887516580280593
 21
3.5188965316999989
 31
0.0
  0
LINE
  5
7DB4
  8
0
 10
-10.9887516580280593
 20
3.5188965316999989
 30
0.0
 11
-10.9717039138590202
 21
3.518539598790273
 31
0.0
  0
LINE
  5
7DB5
  8
0
 10
-10.9717039138590202
 20
3.518539598790273
 30
0.0
 11
-10.9717039138280601
 21
3.5293991150073252
 31
0.0
  0
LINE
  5
7DB6
  8
0
 10
-10.9717039138280601
 20
3.5293991150073252
 30
0.0
 11
-10.9887516580280593
 21
3.5407243295374178
 31
0.0
  0
LINE
  5
7DB7
  8
0
 10
-10.9887516580280593
 20
3.5407243295374178
 30
0.0
 11
-11.0057994021675594
 21
3.5411691946905082
 31
0.0
  0
LINE
  5
7DB8
  8
0
 10
-10.9887516579983409
 20
3.5407243296418862
 30
0.0
 11
-10.9887516523134199
 21
3.5188965315803502
 31
0.0
  0
LINE
  5
7DB9
  8
0
 10
-11.0883053803459504
 20
3.528850300136102
 30
0.0
 11
-11.0722682023856809
 21
3.5168077089796661
 31
0.0
  0
LINE
  5
7DBA
  8
0
 10
-11.0722682023856809
 20
3.5168077089796661
 30
0.0
 11
-11.0552204628280606
 21
3.5122239814
 31
0.0
  0
LINE
  5
7DBB
  8
0
 10
-11.0552204628280606
 20
3.5122239814
 30
0.0
 11
-11.0552204628280606
 21
3.5202866283999992
 31
0.0
  0
LINE
  5
7DBC
  8
0
 10
-11.0552204628280606
 20
3.5202866283999992
 30
0.0
 11
-11.0722682066310707
 21
3.533002595780574
 31
0.0
  0
LINE
  5
7DBD
  8
0
 10
-11.0722682066310707
 20
3.533002595780574
 30
0.0
 11
-11.0799288790435693
 21
3.5350405400516971
 31
0.0
  0
LINE
  5
7DBE
  8
0
 10
-11.0722682066013505
 20
3.533002595885042
 30
0.0
 11
-11.0722682023856809
 21
3.5168077089796661
 31
0.0
  0
LINE
  5
7DBF
  8
0
 10
-11.0614771014409499
 20
3.512078966849125
 30
0.0
 11
-11.0614771015305209
 21
3.505004377225303
 31
0.0
  0
LINE
  5
7DC0
  8
0
 10
-11.0614771014775108
 20
3.5050043771892039
 30
0.0
 11
-11.0443530904036606
 21
3.49379328154432
 31
0.0
  0
LINE
  5
7DC1
  8
0
 10
-11.0443530904036606
 20
3.49379328154432
 30
0.0
 11
-11.0273816131280604
 21
3.4897937075322019
 31
0.0
  0
LINE
  5
7DC2
  8
0
 10
-11.0273816131280604
 20
3.4897937075322019
 30
0.0
 11
-11.0273816131079698
 21
3.496838988990643
 31
0.0
  0
LINE
  5
7DC3
  8
0
 10
-11.0273816131079698
 20
3.496838988990643
 30
0.0
 11
-11.0444293562432794
 21
3.5079322286213781
 31
0.0
  0
LINE
  5
7DC4
  8
0
 10
-11.0444293562432794
 20
3.5079322286213781
 30
0.0
 11
-11.0614771014409499
 21
3.512078966849125
 31
0.0
  0
LINE
  5
7DC5
  8
0
 10
-11.0444293562135591
 20
3.5079322287258461
 30
0.0
 11
-11.0444293525362998
 21
3.4938130115269681
 31
0.0
  0
LINE
  5
7DC6
  8
0
 10
-11.0336382518280605
 20
3.5025692206999999
 30
0.0
 11
-11.0336382518280605
 21
3.5105943517999991
 31
0.0
  0
LINE
  5
7DC7
  8
0
 10
-11.0336382518280605
 20
3.5105943517999991
 30
0.0
 11
-11.0165905077562805
 21
3.5079005283979789
 31
0.0
  0
LINE
  5
7DC8
  8
0
 10
-11.0165905077562805
 20
3.5079005283979789
 30
0.0
 11
-10.9995427635280603
 21
3.4972870963
 31
0.0
  0
LINE
  5
7DC9
  8
0
 10
-10.9995427635280603
 20
3.4972870963
 30
0.0
 11
-10.9995427634474296
 21
3.4893112200483061
 31
0.0
  0
LINE
  5
7DCA
  8
0
 10
-10.9995427634474296
 20
3.4893112200483061
 30
0.0
 11
-11.0165905076280595
 21
3.4919004501000002
 31
0.0
  0
LINE
  5
7DCB
  8
0
 10
-11.0165905076280595
 20
3.4919004501000002
 30
0.0
 11
-11.0336382518280605
 21
3.5025692206999999
 31
0.0
  0
LINE
  5
7DCC
  8
0
 10
-11.0165905076531008
 20
3.5079005283337459
 30
0.0
 11
-11.01659050765352
 21
3.491900450115931
 31
0.0
  0
LINE
  5
7DCD
  8
0
 10
-10.9779605525280601
 20
3.506337719499999
 30
0.0
 11
-10.9779605524997201
 21
3.5162120368823242
 31
0.0
  0
LINE
  5
7DCE
  8
0
 10
-10.9779605524997201
 20
3.5162120368823242
 30
0.0
 11
-10.9609338894293291
 21
3.5162215064236841
 31
0.0
  0
LINE
  5
7DCF
  8
0
 10
-10.9609338894293291
 20
3.5162215064236841
 30
0.0
 11
-10.94386506432717
 21
3.5064181430663162
 31
0.0
  0
LINE
  5
7DD0
  8
0
 10
-10.94386506432717
 20
3.5064181430663162
 30
0.0
 11
-10.9438650642280599
 21
3.4966132802000001
 31
0.0
  0
LINE
  5
7DD1
  8
0
 10
-10.9438650642280599
 20
3.4966132802000001
 30
0.0
 11
-10.9609128083070804
 21
3.496543583207167
 31
0.0
  0
LINE
  5
7DD2
  8
0
 10
-10.9609128083070804
 20
3.496543583207167
 30
0.0
 11
-10.9779605525280601
 21
3.506337719499999
 31
0.0
  0
LINE
  5
7DD3
  8
0
 10
-10.9609338893261494
 20
3.5162215063594511
 30
0.0
 11
-10.9609128083325302
 21
3.4965435832230982
 31
0.0
  0
LINE
  5
7DD4
  8
0
 10
-11.0057994022280603
 20
3.502798573081475
 30
0.0
 11
-11.0057994021663106
 21
3.5120120664613022
 31
0.0
  0
LINE
  5
7DD5
  8
0
 10
-11.0057994021663106
 20
3.5120120664613022
 30
0.0
 11
-10.98875165809417
 21
3.510695090053173
 31
0.0
  0
LINE
  5
7DD6
  8
0
 10
-10.98875165809417
 20
3.510695090053173
 30
0.0
 11
-10.9717039138280601
 21
3.5005082611999989
 31
0.0
  0
LINE
  5
7DD7
  8
0
 10
-10.9717039138280601
 20
3.5005082611999989
 30
0.0
 11
-10.9717039138280601
 21
3.4916172587999998
 31
0.0
  0
LINE
  5
7DD8
  8
0
 10
-10.9717039138280601
 20
3.4916172587999998
 30
0.0
 11
-10.9887516579800995
 21
3.4928518644970121
 31
0.0
  0
LINE
  5
7DD9
  8
0
 10
-10.9887516579800995
 20
3.4928518644970121
 30
0.0
 11
-11.0057994022280603
 21
3.502798573081475
 31
0.0
  0
LINE
  5
7DDA
  8
0
 10
-10.9887516579909903
 20
3.51069508998894
 30
0.0
 11
-10.98875165800556
 21
3.4928518645129429
 31
0.0
  0
LINE
  5
7DDB
  8
0
 10
-10.95012170282806
 20
3.512321265716456
 30
0.0
 11
-10.95012170282806
 21
3.5231239613393082
 31
0.0
  0
LINE
  5
7DDC
  8
0
 10
-10.95012170282806
 20
3.5231239613393082
 30
0.0
 11
-10.9330739587466592
 21
3.5244330152635031
 31
0.0
  0
LINE
  5
7DDD
  8
0
 10
-10.9330739587466592
 20
3.5244330152635031
 30
0.0
 11
-10.9160262145280598
 21
3.514975828099999
 31
0.0
  0
LINE
  5
7DDE
  8
0
 10
-10.9160262145280598
 20
3.514975828099999
 30
0.0
 11
-10.9160262145280598
 21
3.5042449347
 31
0.0
  0
LINE
  5
7DDF
  8
0
 10
-10.9160262145280598
 20
3.5042449347
 30
0.0
 11
-10.9328385815768208
 21
3.5029140465410271
 31
0.0
  0
LINE
  5
7DE0
  8
0
 10
-10.9328385815768208
 20
3.5029140465410271
 30
0.0
 11
-10.95012170282806
 21
3.512321265716456
 31
0.0
  0
LINE
  5
7DE1
  8
0
 10
-10.9330739586434902
 20
3.5244330151992691
 30
0.0
 11
-10.9328385816022795
 21
3.5029140465569579
 31
0.0
  0
LINE
  5
7DE2
  8
0
 10
-10.9222828532280598
 20
3.5209692283999989
 30
0.0
 11
-10.9222828533113194
 21
3.5327214755120888
 31
0.0
  0
LINE
  5
7DE3
  8
0
 10
-10.9222828533113194
 20
3.5327214755120888
 30
0.0
 11
-10.9052351091312296
 21
3.535322268254339
 31
0.0
  0
LINE
  5
7DE4
  8
0
 10
-10.9052351091312296
 20
3.535322268254339
 30
0.0
 11
-10.8881873649116994
 21
3.5261806399723739
 31
0.0
  0
LINE
  5
7DE5
  8
0
 10
-10.8881873649116994
 20
3.5261806399723739
 30
0.0
 11
-10.8881873649306904
 21
3.5144978419092778
 31
0.0
  0
LINE
  5
7DE6
  8
0
 10
-10.8881873649306904
 20
3.5144978419092778
 30
0.0
 11
-10.9052351090901798
 21
3.5118873835096638
 31
0.0
  0
LINE
  5
7DE7
  8
0
 10
-10.9052351090901798
 20
3.5118873835096638
 30
0.0
 11
-10.9222828532280598
 21
3.5209692283999989
 31
0.0
  0
LINE
  5
7DE8
  8
0
 10
-10.9052351090280606
 20
3.5353222681901051
 30
0.0
 11
-10.9052351091156403
 21
3.511887383525595
 31
0.0
  0
LINE
  5
7DE9
  8
0
 10
-10.9222828532280598
 20
3.4915542869
 30
0.0
 11
-10.9222828532773395
 21
3.501324017337041
 31
0.0
  0
LINE
  5
7DEA
  8
0
 10
-10.9222828532773395
 20
3.501324017337041
 30
0.0
 11
-10.9052351091004507
 21
3.5030131554590112
 31
0.0
  0
LINE
  5
7DEB
  8
0
 10
-10.9052351091004507
 20
3.5030131554590112
 30
0.0
 11
-10.8881873649280596
 21
3.4949543216999999
 31
0.0
  0
LINE
  5
7DEC
  8
0
 10
-10.8881873649280596
 20
3.4949543216999999
 30
0.0
 11
-10.8881873648967105
 21
3.4852276016950698
 31
0.0
  0
LINE
  5
7DED
  8
0
 10
-10.8881873648967105
 20
3.4852276016950698
 30
0.0
 11
-10.9052351090280606
 21
3.4835169573913629
 31
0.0
  0
LINE
  5
7DEE
  8
0
 10
-10.9052351090280606
 20
3.4835169573913629
 30
0.0
 11
-10.9222828532280598
 21
3.4915542869
 31
0.0
  0
LINE
  5
7DEF
  8
0
 10
-10.9052351089972692
 20
3.5030131553947781
 30
0.0
 11
-10.9052351090535193
 21
3.4835169574072951
 31
0.0
  0
LINE
  5
7DF0
  8
0
 10
-11.0893159511280608
 20
3.5105635035999989
 30
0.0
 11
-11.0893159511280608
 21
3.5166465153000002
 31
0.0
  0
LINE
  5
7DF1
  8
0
 10
-11.0893159511280608
 20
3.5166465153000002
 30
0.0
 11
-11.0722682070312306
 21
3.5109380753079309
 31
0.0
  0
LINE
  5
7DF2
  8
0
 10
-11.0722682070312306
 20
3.5109380753079309
 30
0.0
 11
-11.0552204628895492
 21
3.4992986379529589
 31
0.0
  0
LINE
  5
7DF3
  8
0
 10
-11.0552204628895492
 20
3.4992986379529589
 30
0.0
 11
-11.0552204628280606
 21
3.4932156262
 31
0.0
  0
LINE
  5
7DF4
  8
0
 10
-11.0552204628280606
 20
3.4932156262
 30
0.0
 11
-11.0722682068343801
 21
3.4987720517691052
 31
0.0
  0
LINE
  5
7DF5
  8
0
 10
-11.0722682068343801
 20
3.4987720517691052
 30
0.0
 11
-11.0893159511280608
 21
3.5105635035999989
 31
0.0
  0
LINE
  5
7DF6
  8
0
 10
-11.0722682069280598
 20
3.5109380752436978
 30
0.0
 11
-11.0722682068598406
 21
3.498772051785036
 31
0.0
  0
LINE
  5
7DF7
  8
0
 10
-11.0893159511449202
 20
3.4971407834703352
 30
0.0
 11
-11.0893159511280608
 21
3.5013087327000001
 31
0.0
  0
LINE
  5
7DF8
  8
0
 10
-11.0893159511280608
 20
3.5013087327000001
 30
0.0
 11
-11.0722682074680296
 21
3.4945630254604239
 31
0.0
  0
LINE
  5
7DF9
  8
0
 10
-11.0722682074680296
 20
3.4945630254604239
 30
0.0
 11
-11.0552204628863997
 21
3.4838962826042161
 31
0.0
  0
LINE
  5
7DFA
  8
0
 10
-11.0552204628863997
 20
3.4838962826042161
 30
0.0
 11
-11.05522046284492
 21
3.479792906070335
 31
0.0
  0
LINE
  5
7DFB
  8
0
 10
-11.05522046284492
 20
3.479792906070335
 30
0.0
 11
-11.0718875315968095
 21
3.4862678660657309
 31
0.0
  0
LINE
  5
7DFC
  8
0
 10
-11.0718875315968095
 20
3.4862678660657309
 30
0.0
 11
-11.0893159511449202
 21
3.4971407834703352
 31
0.0
  0
LINE
  5
7DFD
  8
0
 10
-11.0722682073648606
 20
3.4945630253961908
 30
0.0
 11
-11.07188753162227
 21
3.4862678660816622
 31
0.0
  0
LINE
  5
7DFE
  8
0
 10
-11.0614771015280606
 20
3.4887905999000002
 30
0.0
 11
-11.0614771014280606
 21
3.4939400052668881
 31
0.0
  0
LINE
  5
7DFF
  8
0
 10
-11.0614771014280606
 20
3.4939400052668881
 30
0.0
 11
-11.0444293572082408
 21
3.488773682608179
 31
0.0
  0
LINE
  5
7E00
  8
0
 10
-11.0444293572082408
 20
3.488773682608179
 30
0.0
 11
-11.0273816131798199
 21
3.4786713639844238
 31
0.0
  0
LINE
  5
7E01
  8
0
 10
-11.0273816131798199
 20
3.4786713639844238
 30
0.0
 11
-11.0273816131280604
 21
3.4735506220168881
 31
0.0
  0
LINE
  5
7E02
  8
0
 10
-11.0273816131280604
 20
3.4735506220168881
 30
0.0
 11
-11.0444293571343799
 21
3.478560850297399
 31
0.0
  0
LINE
  5
7E03
  8
0
 10
-11.0444293571343799
 20
3.478560850297399
 30
0.0
 11
-11.0614771015280606
 21
3.4887905999000002
 31
0.0
  0
LINE
  5
7E04
  8
0
 10
-11.04442935710507
 20
3.4887736825439459
 30
0.0
 11
-11.0444293571598404
 21
3.4785608503133298
 31
0.0
  0
LINE
  5
7E05
  8
0
 10
-11.0614771015280606
 20
3.4782368862467292
 30
0.0
 11
-11.0614771014696291
 21
3.481275052038197
 31
0.0
  0
LINE
  5
7E06
  8
0
 10
-11.0614771014696291
 20
3.481275052038197
 30
0.0
 11
-11.0443152623978307
 21
3.4750813024418021
 31
0.0
  0
LINE
  5
7E07
  8
0
 10
-11.0443152623978307
 20
3.4750813024418021
 30
0.0
 11
-11.0273816131600508
 21
3.465962584689823
 31
0.0
  0
LINE
  5
7E08
  8
0
 10
-11.0273816131600508
 20
3.465962584689823
 30
0.0
 11
-11.0273816131280604
 21
3.4627973912000001
 31
0.0
  0
LINE
  5
7E09
  8
0
 10
-11.0273816131280604
 20
3.4627973912000001
 30
0.0
 11
-11.0444293572618104
 21
3.468903797147588
 31
0.0
  0
LINE
  5
7E0A
  8
0
 10
-11.0444293572618104
 20
3.468903797147588
 30
0.0
 11
-11.0614771015280606
 21
3.4782368862467292
 31
0.0
  0
LINE
  5
7E0B
  8
0
 10
-11.0443152622946599
 20
3.4750813023775691
 30
0.0
 11
-11.0444293572872692
 21
3.4689037971635188
 31
0.0
  0
LINE
  5
7E0C
  8
0
 10
-11.0336382518499807
 20
3.4701006294925318
 30
0.0
 11
-11.03363825183059
 21
3.4742049150610979
 31
0.0
  0
LINE
  5
7E0D
  8
0
 10
-11.03363825183059
 20
3.4742049150610979
 30
0.0
 11
-11.0165905077847093
 21
3.469655763025989
 31
0.0
  0
LINE
  5
7E0E
  8
0
 10
-11.0165905077847093
 20
3.469655763025989
 30
0.0
 11
-10.99954276356954
 21
3.4608967505338799
 31
0.0
  0
LINE
  5
7E0F
  8
0
 10
-10.99954276356954
 20
3.4608967505338799
 30
0.0
 11
-10.9995427635280603
 21
3.4567933739999992
 31
0.0
  0
LINE
  5
7E10
  8
0
 10
-10.9995427635280603
 20
3.4567933739999992
 30
0.0
 11
-11.0165905075996804
 21
3.4613237943774391
 31
0.0
  0
LINE
  5
7E11
  8
0
 10
-11.0165905075996804
 20
3.4613237943774391
 30
0.0
 11
-11.0336382518499807
 21
3.4701006294925318
 31
0.0
  0
LINE
  5
7E12
  8
0
 10
-11.0165905076815402
 20
3.4696557629617559
 30
0.0
 11
-11.0165905076251303
 21
3.4613237943933708
 31
0.0
  0
LINE
  5
7E13
  8
0
 10
-11.0336382518280605
 20
3.4835947845852062
 30
0.0
 11
-11.0336382518044296
 21
3.4896777962731709
 31
0.0
  0
LINE
  5
7E14
  8
0
 10
-11.0336382518044296
 20
3.4896777962731709
 30
0.0
 11
-11.0165905077312303
 21
3.486070594200958
 31
0.0
  0
LINE
  5
7E15
  8
0
 10
-11.0165905077312303
 20
3.486070594200958
 30
0.0
 11
-10.9995427635280603
 21
3.4764643497000001
 31
0.0
  0
LINE
  5
7E16
  8
0
 10
-10.9995427635280603
 20
3.4764643497000001
 30
0.0
 11
-10.9995427635280603
 21
3.470381338001856
 31
0.0
  0
LINE
  5
7E17
  8
0
 10
-10.9995427635280603
 20
3.470381338001856
 30
0.0
 11
-11.0165905076677806
 21
3.4739045707560541
 31
0.0
  0
LINE
  5
7E18
  8
0
 10
-11.0165905076677806
 20
3.4739045707560541
 30
0.0
 11
-11.0336382518280605
 21
3.4835947845852062
 31
0.0
  0
LINE
  5
7E19
  8
0
 10
-11.0165905076280595
 20
3.4860705941367249
 30
0.0
 11
-11.0165905076932393
 21
3.4739045707719849
 31
0.0
  0
LINE
  5
7E1A
  8
0
 10
-11.0057994021486394
 20
3.465170876735443
 30
0.0
 11
-11.0057994021083196
 21
3.4702452008925859
 31
0.0
  0
LINE
  5
7E1B
  8
0
 10
-11.0057994021083196
 20
3.4702452008925859
 30
0.0
 11
-10.9887516578358007
 21
3.4671768788565491
 31
0.0
  0
LINE
  5
7E1C
  8
0
 10
-10.9887516578358007
 20
3.4671768788565491
 30
0.0
 11
-10.9717039138280601
 21
3.4589599363094581
 31
0.0
  0
LINE
  5
7E1D
  8
0
 10
-10.9717039138280601
 20
3.4589599363094581
 30
0.0
 11
-10.9717039137848698
 21
3.4538036984200651
 31
0.0
  0
LINE
  5
7E1E
  8
0
 10
-10.9717039137848698
 20
3.4538036984200651
 30
0.0
 11
-10.9887516581870504
 21
3.4568841881965948
 31
0.0
  0
LINE
  5
7E1F
  8
0
 10
-10.9887516581870504
 20
3.4568841881965948
 30
0.0
 11
-11.0057994021486394
 21
3.465170876735443
 31
0.0
  0
LINE
  5
7E20
  8
0
 10
-10.9887516577326299
 20
3.4671768787923161
 30
0.0
 11
-10.9887516582125002
 21
3.4568841882125261
 31
0.0
  0
LINE
  5
7E21
  8
0
 10
-11.0057994022280603
 20
3.4814293516868351
 30
0.0
 11
-11.0057994021054899
 21
3.48845924364494
 31
0.0
  0
LINE
  5
7E22
  8
0
 10
-11.0057994021054899
 20
3.48845924364494
 30
0.0
 11
-10.9887516578412896
 21
3.4862555667945601
 31
0.0
  0
LINE
  5
7E23
  8
0
 10
-10.9887516578412896
 20
3.4862555667945601
 30
0.0
 11
-10.9717039138280601
 21
3.4770920653801292
 31
0.0
  0
LINE
  5
7E24
  8
0
 10
-10.9717039138280601
 20
3.4770920653801292
 30
0.0
 11
-10.9717039138223509
 21
3.4700822798810842
 31
0.0
  0
LINE
  5
7E25
  8
0
 10
-10.9717039138223509
 20
3.4700822798810842
 30
0.0
 11
-10.9887516579858406
 21
3.4722162107851888
 31
0.0
  0
LINE
  5
7E26
  8
0
 10
-10.9887516579858406
 20
3.4722162107851888
 30
0.0
 11
-11.0057994022280603
 21
3.4814293516868351
 31
0.0
  0
LINE
  5
7E27
  8
0
 10
-10.9887516577381206
 20
3.4862555667303261
 30
0.0
 11
-10.9887516580112994
 21
3.4722162108011201
 31
0.0
  0
LINE
  5
7E28
  8
0
 10
-11.0336382518475098
 20
3.5270816302211032
 30
0.0
 11
-11.0333914750927899
 21
3.5370815195098491
 31
0.0
  0
LINE
  5
7E29
  8
0
 10
-11.0333914750927899
 20
3.5370815195098491
 30
0.0
 11
-11.0165905083529907
 21
3.5352943033770061
 31
0.0
  0
LINE
  5
7E2A
  8
0
 10
-11.0165905083529907
 20
3.5352943033770061
 30
0.0
 11
-10.9995427635280603
 21
3.5235645958900239
 31
0.0
  0
LINE
  5
7E2B
  8
0
 10
-10.9995427635280603
 20
3.5235645958900239
 30
0.0
 11
-10.9995427635453993
 21
3.5136364157659949
 31
0.0
  0
LINE
  5
7E2C
  8
0
 10
-10.9995427635453993
 20
3.5136364157659949
 30
0.0
 11
-11.01659050768985
 21
3.5153364742149922
 31
0.0
  0
LINE
  5
7E2D
  8
0
 10
-11.01659050768985
 20
3.5153364742149922
 30
0.0
 11
-11.0336382518475098
 21
3.5270816302211032
 31
0.0
  0
LINE
  5
7E2E
  8
0
 10
-11.0165905082498092
 20
3.5352943033127731
 30
0.0
 11
-11.0165905077153106
 21
3.515336474230923
 31
0.0
  0
LINE
  5
7E2F
  8
0
 10
-11.0614771013998698
 20
3.526844253767687
 30
0.0
 11
-11.0614771015280606
 21
3.5359359638000001
 31
0.0
  0
LINE
  5
7E30
  8
0
 10
-11.0614771015280606
 20
3.5359359638000001
 30
0.0
 11
-11.0444293573060506
 21
3.5326858863588551
 31
0.0
  0
LINE
  5
7E31
  8
0
 10
-11.0444293573060506
 20
3.5326858863588551
 30
0.0
 11
-11.0273816131280604
 21
3.520496468645447
 31
0.0
  0
LINE
  5
7E32
  8
0
 10
-11.0273816131280604
 20
3.520496468645447
 30
0.0
 11
-11.0273816131280604
 21
3.5114956388
 31
0.0
  0
LINE
  5
7E33
  8
0
 10
-11.0273816131280604
 20
3.5114956388
 30
0.0
 11
-11.0444293573137795
 21
3.5145953592656491
 31
0.0
  0
LINE
  5
7E34
  8
0
 10
-11.0444293573137795
 20
3.5145953592656491
 30
0.0
 11
-11.0614771013998698
 21
3.526844253767687
 31
0.0
  0
LINE
  5
7E35
  8
0
 10
-11.0444293572028798
 20
3.5326858862946211
 30
0.0
 11
-11.04442935733924
 21
3.51459535928158
 31
0.0
  0
LINE
  5
7E36
  8
0
 10
-10.9779605525280601
 20
3.4821102161373121
 30
0.0
 11
-10.9779605524879607
 21
3.4900603744223249
 31
0.0
  0
LINE
  5
7E37
  8
0
 10
-10.9779605524879607
 20
3.4900603744223249
 30
0.0
 11
-10.9609128084312299
 21
3.4891919858642328
 31
0.0
  0
LINE
  5
7E38
  8
0
 10
-10.9609128084312299
 20
3.4891919858642328
 30
0.0
 11
-10.9438650642280599
 21
3.4804288204999989
 31
0.0
  0
LINE
  5
7E39
  8
0
 10
-10.9438650642280599
 20
3.4804288204999989
 30
0.0
 11
-10.9438650641848092
 21
3.472511872982452
 31
0.0
  0
LINE
  5
7E3A
  8
0
 10
-10.9438650641848092
 20
3.472511872982452
 30
0.0
 11
-10.9609128083258902
 21
3.4733253105059521
 31
0.0
  0
LINE
  5
7E3B
  8
0
 10
-10.9609128083258902
 20
3.4733253105059521
 30
0.0
 11
-10.9779605525280601
 21
3.4821102161373121
 31
0.0
  0
LINE
  5
7E3C
  8
0
 10
-10.9609128083280591
 20
3.4891919857999998
 30
0.0
 11
-10.9609128083513507
 21
3.4733253105218842
 31
0.0
  0
LINE
  5
7E3D
  8
0
 10
-10.9779605525713109
 20
3.4632336700548589
 30
0.0
 11
-10.9779605525407806
 21
3.4692866187356959
 31
0.0
  0
LINE
  5
7E3E
  8
0
 10
-10.9779605525407806
 20
3.4692866187356959
 30
0.0
 11
-10.9609128083280591
 21
3.4675227280000001
 31
0.0
  0
LINE
  5
7E3F
  8
0
 10
-10.9609128083280591
 20
3.4675227280000001
 30
0.0
 11
-10.9438650642061095
 21
3.459718338538107
 31
0.0
  0
LINE
  5
7E40
  8
0
 10
-10.9438650642061095
 20
3.459718338538107
 30
0.0
 11
-10.9438650642280599
 21
3.4536353269000002
 31
0.0
  0
LINE
  5
7E41
  8
0
 10
-10.9438650642280599
 20
3.4536353269000002
 30
0.0
 11
-10.9608045151627298
 21
3.4553435847006422
 31
0.0
  0
LINE
  5
7E42
  8
0
 10
-10.9608045151627298
 20
3.4553435847006422
 30
0.0
 11
-10.9779605525713109
 21
3.4632336700548589
 31
0.0
  0
LINE
  5
7E43
  8
0
 10
-10.9609128082248795
 20
3.4675227279357661
 30
0.0
 11
-10.9608045151881903
 21
3.455343584716573
 31
0.0
  0
LINE
  5
7E44
  8
0
 10
-10.9501217028102396
 20
3.4640252682333998
 30
0.0
 11
-10.9501217028455606
 21
3.4710246668689191
 31
0.0
  0
LINE
  5
7E45
  8
0
 10
-10.9501217028455606
 20
3.4710246668689191
 30
0.0
 11
-10.9330639235478397
 21
3.4705600905344518
 31
0.0
  0
LINE
  5
7E46
  8
0
 10
-10.9330639235478397
 20
3.4705600905344518
 30
0.0
 11
-10.9160262145061004
 21
3.462236089438107
 31
0.0
  0
LINE
  5
7E47
  8
0
 10
-10.9160262145061004
 20
3.462236089438107
 30
0.0
 11
-10.9160262145280598
 21
3.4561530777999998
 31
0.0
  0
LINE
  5
7E48
  8
0
 10
-10.9160262145280598
 20
3.4561530777999998
 30
0.0
 11
-10.9334378601283309
 21
3.456731032155385
 31
0.0
  0
LINE
  5
7E49
  8
0
 10
-10.9334378601283309
 20
3.456731032155385
 30
0.0
 11
-10.9501217028102396
 21
3.4640252682333998
 31
0.0
  0
LINE
  5
7E4A
  8
0
 10
-10.93306392344466
 20
3.4705600904702192
 30
0.0
 11
-10.9334378601537807
 21
3.4567310321713158
 31
0.0
  0
LINE
  5
7E4B
  8
0
 10
-10.9222828532280598
 20
3.4486553995999998
 30
0.0
 11
-10.9222828531982294
 21
3.4547384113113071
 31
0.0
  0
LINE
  5
7E4C
  8
0
 10
-10.9222828531982294
 20
3.4547384113113071
 30
0.0
 11
-10.9052203274614499
 21
3.4546505920339681
 31
0.0
  0
LINE
  5
7E4D
  8
0
 10
-10.9052203274614499
 20
3.4546505920339681
 30
0.0
 11
-10.8881873648540601
 21
3.448508589543025
 31
0.0
  0
LINE
  5
7E4E
  8
0
 10
-10.8881873648540601
 20
3.448508589543025
 30
0.0
 11
-10.8881873648760195
 21
3.4424255779049182
 31
0.0
  0
LINE
  5
7E4F
  8
0
 10
-10.8881873648760195
 20
3.4424255779049182
 30
0.0
 11
-10.9052351092033
 21
3.4424901823108112
 31
0.0
  0
LINE
  5
7E50
  8
0
 10
-10.9052351092033
 20
3.4424901823108112
 30
0.0
 11
-10.9222828532280598
 21
3.4486553995999998
 31
0.0
  0
LINE
  5
7E51
  8
0
 10
-10.9052203273582808
 20
3.454650591969735
 30
0.0
 11
-10.9052351092287605
 21
3.442490182326742
 31
0.0
  0
LINE
  5
7E52
  8
0
 10
-10.95012170282806
 20
3.447736299899999
 30
0.0
 11
-10.95012170282806
 21
3.4529029246
 31
0.0
  0
LINE
  5
7E53
  8
0
 10
-10.95012170282806
 20
3.4529029246
 30
0.0
 11
-10.9330543400427604
 21
3.4515319566941449
 31
0.0
  0
LINE
  5
7E54
  8
0
 10
-10.9330543400427604
 20
3.4515319566941449
 30
0.0
 11
-10.9160262145280598
 21
3.4450307341999991
 31
0.0
  0
LINE
  5
7E55
  8
0
 10
-10.9160262145280598
 20
3.4450307341999991
 30
0.0
 11
-10.9160262145218194
 21
3.4398509530809691
 31
0.0
  0
LINE
  5
7E56
  8
0
 10
-10.9160262145218194
 20
3.4398509530809691
 30
0.0
 11
-10.9330960472694105
 21
3.4412013296756729
 31
0.0
  0
LINE
  5
7E57
  8
0
 10
-10.9330960472694105
 20
3.4412013296756729
 30
0.0
 11
-10.95012170282806
 21
3.447736299899999
 31
0.0
  0
LINE
  5
7E58
  8
0
 10
-10.9330543399395896
 20
3.4515319566299119
 30
0.0
 11
-10.9330960472948604
 21
3.4412013296916042
 31
0.0
  0
LINE
  5
7E59
  8
0
 10
-10.9779605524539203
 20
3.4495666520611352
 30
0.0
 11
-10.97782238570983
 21
3.4537577220577642
 31
0.0
  0
LINE
  5
7E5A
  8
0
 10
-10.97782238570983
 20
3.4537577220577642
 30
0.0
 11
-10.9608953812918504
 21
3.4510732260191892
 31
0.0
  0
LINE
  5
7E5B
  8
0
 10
-10.9608953812918504
 20
3.4510732260191892
 30
0.0
 11
-10.9438650642280599
 21
3.4441841742091288
 31
0.0
  0
LINE
  5
7E5C
  8
0
 10
-10.9438650642280599
 20
3.4441841742091288
 30
0.0
 11
-10.9438650641476691
 21
3.4399350981256638
 31
0.0
  0
LINE
  5
7E5D
  8
0
 10
-10.9438650641476691
 20
3.4399350981256638
 30
0.0
 11
-10.9609128083026004
 21
3.4426152517840678
 31
0.0
  0
LINE
  5
7E5E
  8
0
 10
-10.9609128083026004
 20
3.4426152517840678
 30
0.0
 11
-10.9779605524539203
 21
3.4495666520611352
 31
0.0
  0
LINE
  5
7E5F
  8
0
 10
-10.9608953811886796
 20
3.4510732259549561
 30
0.0
 11
-10.9609128083280591
 21
3.4426152517999991
 31
0.0
  0
LINE
  5
7E60
  8
0
 10
-10.9501217028234805
 20
3.4854627384964791
 30
0.0
 11
-10.95012170282806
 21
3.4943703298947262
 31
0.0
  0
LINE
  5
7E61
  8
0
 10
-10.95012170282806
 20
3.4943703298947262
 30
0.0
 11
-10.9330739588312298
 21
3.4947927348606931
 31
0.0
  0
LINE
  5
7E62
  8
0
 10
-10.9330739588312298
 20
3.4947927348606931
 30
0.0
 11
-10.9160262145280598
 21
3.4863956891999992
 31
0.0
  0
LINE
  5
7E63
  8
0
 10
-10.9160262145280598
 20
3.4863956891999992
 30
0.0
 11
-10.9160262145172293
 21
3.4775773916774502
 31
0.0
  0
LINE
  5
7E64
  8
0
 10
-10.9160262145172293
 20
3.4775773916774502
 30
0.0
 11
-10.9330739587026002
 21
3.4771159196272641
 31
0.0
  0
LINE
  5
7E65
  8
0
 10
-10.9330739587026002
 20
3.4771159196272641
 30
0.0
 11
-10.9501217028234805
 21
3.4854627384964791
 31
0.0
  0
LINE
  5
7E66
  8
0
 10
-10.9330739587280608
 20
3.49479273479646
 30
0.0
 11
-10.9330739587280608
 21
3.4771159196431949
 31
0.0
  0
LINE
  5
7E67
  8
0
 10
-10.9222828532280598
 20
3.4675167162
 30
0.0
 11
-10.9222828531988991
 21
3.4754168440671438
 31
0.0
  0
LINE
  5
7E68
  8
0
 10
-10.9222828531988991
 20
3.4754168440671438
 30
0.0
 11
-10.9052154904204794
 21
3.4762119084876262
 31
0.0
  0
LINE
  5
7E69
  8
0
 10
-10.9052154904204794
 20
3.4762119084876262
 30
0.0
 11
-10.8881873649280596
 21
3.4691477477999988
 31
0.0
  0
LINE
  5
7E6A
  8
0
 10
-10.8881873649280596
 20
3.4691477477999988
 30
0.0
 11
-10.8881873648995295
 21
3.4612682296994901
 31
0.0
  0
LINE
  5
7E6B
  8
0
 10
-10.8881873648995295
 20
3.4612682296994901
 30
0.0
 11
-10.9051925508690193
 21
3.4604422112582971
 31
0.0
  0
LINE
  5
7E6C
  8
0
 10
-10.9051925508690193
 20
3.4604422112582971
 30
0.0
 11
-10.9222828532280598
 21
3.4675167162
 31
0.0
  0
LINE
  5
7E6D
  8
0
 10
-10.9052154903173104
 20
3.4762119084233931
 30
0.0
 11
-10.9051925508944798
 21
3.4604422112742279
 31
0.0
  0
LINE
  5
7E6E
  8
0
 10
-10.9222828532280598
 20
3.4349231218078762
 30
0.0
 11
-10.9222828532343001
 21
3.4391226846690288
 31
0.0
  0
LINE
  5
7E6F
  8
0
 10
-10.9222828532343001
 20
3.4391226846690288
 30
0.0
 11
-10.9052351095048792
 21
3.4381962620252229
 31
0.0
  0
LINE
  5
7E70
  8
0
 10
-10.9052351095048792
 20
3.4381962620252229
 30
0.0
 11
-10.8884263168639901
 21
3.4330097577246441
 31
0.0
  0
LINE
  5
7E71
  8
0
 10
-10.8884263168639901
 20
3.4330097577246441
 30
0.0
 11
-10.8881873649280596
 21
3.4286540254999989
 31
0.0
  0
LINE
  5
7E72
  8
0
 10
-10.8881873649280596
 20
3.4286540254999989
 30
0.0
 11
-10.9052351090026001
 21
3.429643699484068
 31
0.0
  0
LINE
  5
7E73
  8
0
 10
-10.9052351090026001
 20
3.429643699484068
 30
0.0
 11
-10.9222828532280598
 21
3.4349231218078762
 31
0.0
  0
LINE
  5
7E74
  8
0
 10
-10.9052351094017101
 20
3.4381962619609898
 30
0.0
 11
-10.9052351090280606
 21
3.4296436995000001
 31
0.0
  0
LINE
  5
7E75
  8
0
 10
-10.9501217028391107
 20
3.4365819584900108
 30
0.0
 11
-10.95012170282806
 21
3.4399783628999998
 31
0.0
  0
LINE
  5
7E76
  8
0
 10
-10.95012170282806
 20
3.4399783628999998
 30
0.0
 11
-10.9330739587280608
 21
3.4376658771000002
 31
0.0
  0
LINE
  5
7E77
  8
0
 10
-10.9330739587280608
 20
3.4376658771000002
 30
0.0
 11
-10.9160262145280598
 21
3.4320443374999989
 31
0.0
  0
LINE
  5
7E78
  8
0
 10
-10.9160262145280598
 20
3.4320443374999989
 30
0.0
 11
-10.9160262145328595
 21
3.4286966116709818
 31
0.0
  0
LINE
  5
7E79
  8
0
 10
-10.9160262145328595
 20
3.4286966116709818
 30
0.0
 11
-10.9329486545029102
 21
3.4309910634091261
 31
0.0
  0
LINE
  5
7E7A
  8
0
 10
-10.9329486545029102
 20
3.4309910634091261
 30
0.0
 11
-10.9501217028391107
 21
3.4365819584900108
 31
0.0
  0
LINE
  5
7E7B
  8
0
 10
-10.9330739586248793
 20
3.4376658770357671
 30
0.0
 11
-10.9329486545283707
 21
3.4309910634250569
 31
0.0
  0
LINE
  5
7E7C
  8
0
 10
-11.0057994021343006
 20
3.4543129887279078
 30
0.0
 11
-11.0057994022280603
 21
3.4575258301999998
 31
0.0
  0
LINE
  5
7E7D
  8
0
 10
-11.0057994022280603
 20
3.4575258301999998
 30
0.0
 11
-10.9887364608473597
 21
3.4533949866605842
 31
0.0
  0
LINE
  5
7E7E
  8
0
 10
-10.9887364608473597
 20
3.4533949866605842
 30
0.0
 11
-10.9717039138280601
 21
3.4460842047
 31
0.0
  0
LINE
  5
7E7F
  8
0
 10
-10.9717039138280601
 20
3.4460842047
 30
0.0
 11
-10.9717039138280601
 21
3.4428091836000001
 31
0.0
  0
LINE
  5
7E80
  8
0
 10
-10.9717039138280601
 20
3.4428091836000001
 30
0.0
 11
-10.9887626185870104
 21
3.4469158869494509
 31
0.0
  0
LINE
  5
7E81
  8
0
 10
-10.9887626185870104
 20
3.4469158869494509
 30
0.0
 11
-11.0057994021343006
 21
3.4543129887279078
 31
0.0
  0
LINE
  5
7E82
  8
0
 10
-10.9887364607441906
 20
3.4533949865963511
 30
0.0
 11
-10.9887626186124692
 21
3.4469158869653831
 31
0.0
  0
LINE
  5
7E83
  8
0
 10
-10.9779605525044399
 20
3.4414991835287139
 30
0.0
 11
-10.9779605525280601
 21
3.4435993099999989
 31
0.0
  0
LINE
  5
7E84
  8
0
 10
-10.9779605525280601
 20
3.4435993099999989
 30
0.0
 11
-10.9609065483004002
 21
3.4398858530789291
 31
0.0
  0
LINE
  5
7E85
  8
0
 10
-10.9609065483004002
 20
3.4398858530789291
 30
0.0
 11
-10.9438650641777002
 21
3.4341036007979162
 31
0.0
  0
LINE
  5
7E86
  8
0
 10
-10.9438650641777002
 20
3.4341036007979162
 30
0.0
 11
-10.9438650641745792
 21
3.4315137102383999
 31
0.0
  0
LINE
  5
7E87
  8
0
 10
-10.9438650641745792
 20
3.4315137102383999
 30
0.0
 11
-10.9609128083026004
 21
3.435234498384069
 31
0.0
  0
LINE
  5
7E88
  8
0
 10
-10.9609128083026004
 20
3.435234498384069
 30
0.0
 11
-10.9779605525044399
 21
3.4414991835287139
 31
0.0
  0
LINE
  5
7E89
  8
0
 10
-10.9609065481972205
 20
3.4398858530146961
 30
0.0
 11
-10.9609128083280591
 21
3.4352344983999998
 31
0.0
  0
LINE
  5
7E8A
  8
0
 10
-11.0336382517754696
 20
3.4622087305193889
 30
0.0
 11
-11.0336382517754696
 21
3.464343220712188
 31
0.0
  0
LINE
  5
7E8B
  8
0
 10
-11.0336382517754696
 20
3.464343220712188
 30
0.0
 11
-11.0165905076909691
 21
3.4586810765220002
 31
0.0
  0
LINE
  5
7E8C
  8
0
 10
-11.0165905076909691
 20
3.4586810765220002
 30
0.0
 11
-10.9995427634770504
 21
3.4508980063855241
 31
0.0
  0
LINE
  5
7E8D
  8
0
 10
-10.9995427634770504
 20
3.4508980063855241
 30
0.0
 11
-10.9995427634692309
 21
3.4486601630295111
 31
0.0
  0
LINE
  5
7E8E
  8
0
 10
-10.9995427634692309
 20
3.4486601630295111
 30
0.0
 11
-11.0165952424446001
 21
3.4543089504341409
 31
0.0
  0
LINE
  5
7E8F
  8
0
 10
-11.0165952424446001
 20
3.4543089504341409
 30
0.0
 11
-11.0336382517754696
 21
3.4622087305193889
 31
0.0
  0
LINE
  5
7E90
  8
0
 10
-11.0165905075877895
 20
3.4586810764577671
 30
0.0
 11
-11.0165952424700606
 21
3.454308950450073
 31
0.0
  0
LINE
  5
7E91
  8
0
 10
-10.95012170282806
 20
3.431014173199999
 30
0.0
 11
-10.95012170282806
 21
3.432377500899999
 31
0.0
  0
LINE
  5
7E92
  8
0
 10
-10.95012170282806
 20
3.432377500899999
 30
0.0
 11
-10.9330708286120508
 21
3.4289125054337521
 31
0.0
  0
LINE
  5
7E93
  8
0
 10
-10.9330708286120508
 20
3.4289125054337521
 30
0.0
 11
-10.9160262145257203
 21
3.424301169881383
 31
0.0
  0
LINE
  5
7E94
  8
0
 10
-10.9160262145257203
 20
3.424301169881383
 30
0.0
 11
-10.9160262145240008
 21
3.4228660399648052
 31
0.0
  0
LINE
  5
7E95
  8
0
 10
-10.9160262145240008
 20
3.4228660399648052
 30
0.0
 11
-10.9330739586520096
 21
3.426586828110473
 31
0.0
  0
LINE
  5
7E96
  8
0
 10
-10.9330739586520096
 20
3.426586828110473
 30
0.0
 11
-10.95012170282806
 21
3.431014173199999
 31
0.0
  0
LINE
  5
7E97
  8
0
 10
-10.93307082850888
 20
3.4289125053695191
 30
0.0
 11
-10.9330739586774701
 21
3.4265868281264038
 31
0.0
  0
LINE
  5
7E98
  8
0
 10
-10.9222828531791905
 20
3.4264195844439911
 30
0.0
 11
-10.9222828531999792
 21
3.428815877404658
 31
0.0
  0
LINE
  5
7E99
  8
0
 10
-10.9222828531999792
 20
3.428815877404658
 30
0.0
 11
-10.90523095065093
 21
3.4268604140379479
 31
0.0
  0
LINE
  5
7E9A
  8
0
 10
-10.90523095065093
 20
3.4268604140379479
 30
0.0
 11
-10.8882212380303791
 21
3.422497240609053
 31
0.0
  0
LINE
  5
7E9B
  8
0
 10
-10.8882212380303791
 20
3.422497240609053
 30
0.0
 11
-10.8881873648899905
 21
3.4200498888011701
 31
0.0
  0
LINE
  5
7E9C
  8
0
 10
-10.8881873648899905
 20
3.4200498888011701
 30
0.0
 11
-10.9052374568246897
 21
3.4220262708623959
 31
0.0
  0
LINE
  5
7E9D
  8
0
 10
-10.9052374568246897
 20
3.4220262708623959
 30
0.0
 11
-10.9222828531791905
 21
3.4264195844439911
 31
0.0
  0
LINE
  5
7E9E
  8
0
 10
-10.9052309505477503
 20
3.4268604139737149
 30
0.0
 11
-10.9052374568501502
 21
3.422026270878328
 31
0.0
  0
ARC
  5
7E9F
  8
0
 10
-11.0232086244301009
 20
3.5637268754343059
 30
0.0
 40
0.0981078444809693
 50
213.5833536158750121
 51
246.9976659025925017
  0
ARC
  5
7EA0
  8
0
 10
-10.7583660778684091
 20
4.0830403687610684
 30
0.0
 40
0.6808490969917307
 50
243.5576620246982884
 51
250.2185405701526975
  0
ARC
  5
7EA1
  8
0
 10
-10.7956254628408495
 20
3.9942567424806859
 30
0.0
 40
0.5847162339089628
 50
250.7098021815303071
 51
259.3836136459668751
  0
ARC
  5
7EA2
  8
0
 10
-10.7955131082018898
 20
3.9852648691951922
 30
0.0
 40
0.5759016874609556
 50
259.2078140027963968
 51
265.0644556670461043
  0
LINE
  5
7EA3
  8
0
 10
-10.8944440035544101
 20
3.5108969897669771
 30
0.0
 11
-10.8944440035280596
 21
3.5002012286999991
 31
0.0
  0
LINE
  5
7EA4
  8
0
 10
-10.8944440035280596
 20
3.5002012286999991
 30
0.0
 11
-10.8773962593725493
 21
3.4924967436519352
 31
0.0
  0
LINE
  5
7EA5
  8
0
 10
-10.8773962593725493
 20
3.4924967436519352
 30
0.0
 11
-10.8765568758280597
 21
3.4926270278999989
 31
0.0
  0
LINE
  5
7EA6
  8
0
 10
-10.8765568758280597
 20
3.4926270278999989
 30
0.0
 11
-10.8765568758280597
 21
3.5134500701000002
 31
0.0
  0
LINE
  5
7EA7
  8
0
 10
-10.8765568758280597
 20
3.5134500701000002
 30
0.0
 11
-10.8773962593664297
 21
3.513847633070811
 31
0.0
  0
LINE
  5
7EA8
  8
0
 10
-10.8773962593664297
 20
3.513847633070811
 30
0.0
 11
-10.8944440035280596
 21
3.5108969897710351
 31
0.0
  0
LINE
  5
7EA9
  8
0
 10
-10.8773962594280604
 20
3.5138476330589592
 30
0.0
 11
-10.8773962593725493
 21
3.4924967436519352
 31
0.0
  0
LINE
  5
7EAA
  8
0
 10
-10.8944440035261803
 20
3.4824017756584831
 30
0.0
 11
-10.8944440035280596
 21
3.473603376949431
 31
0.0
  0
LINE
  5
7EAB
  8
0
 10
-10.8944440035280596
 20
3.473603376949431
 30
0.0
 11
-10.8773962593725493
 21
3.4668302831519351
 31
0.0
  0
LINE
  5
7EAC
  8
0
 10
-10.8773962593725493
 20
3.4668302831519351
 30
0.0
 11
-10.8765568758280597
 21
3.4669605673999988
 31
0.0
  0
LINE
  5
7EAD
  8
0
 10
-10.8765568758280597
 20
3.4669605673999988
 30
0.0
 11
-10.8765568758280597
 21
3.4841003515999991
 31
0.0
  0
LINE
  5
7EAE
  8
0
 10
-10.8765568758280597
 20
3.4841003515999991
 30
0.0
 11
-10.8773962593588802
 21
3.4844478176839861
 31
0.0
  0
LINE
  5
7EAF
  8
0
 10
-10.8773962593588802
 20
3.4844478176839861
 30
0.0
 11
-10.8944440034998298
 21
3.4824017756625398
 31
0.0
  0
LINE
  5
7EB0
  8
0
 10
-10.8773962594205091
 20
3.4844478176721339
 30
0.0
 11
-10.8773962593725493
 21
3.4668302831519351
 31
0.0
  0
LINE
  5
7EB1
  8
0
 10
-10.8944440035952006
 20
3.4591891635366592
 30
0.0
 11
-10.8944440035280596
 21
3.452209370999999
 31
0.0
  0
LINE
  5
7EB2
  8
0
 10
-10.8944440035280596
 20
3.452209370999999
 30
0.0
 11
-10.8773962593725493
 21
3.4463113730519348
 31
0.0
  0
LINE
  5
7EB3
  8
0
 10
-10.8773962593725493
 20
3.4463113730519348
 30
0.0
 11
-10.8765568758280597
 21
3.446441657299999
 31
0.0
  0
LINE
  5
7EB4
  8
0
 10
-10.8765568758280597
 20
3.446441657299999
 30
0.0
 11
-10.8765568758280597
 21
3.4672646994999998
 31
0.0
  0
LINE
  5
7EB5
  8
0
 10
-10.8765568758280597
 20
3.4600498455999991
 30
0.0
 11
-10.8773962593474192
 21
3.4603508266050351
 31
0.0
  0
LINE
  5
7EB6
  8
0
 10
-10.8773962593474192
 20
3.4603508266050351
 30
0.0
 11
-10.8944440035688501
 21
3.4591891635407159
 31
0.0
  0
LINE
  5
7EB7
  8
0
 10
-10.8773962594090499
 20
3.4603508265931828
 30
0.0
 11
-10.8773962593725493
 21
3.4463113730519348
 31
0.0
  0
LINE
  5
7EB8
  8
0
 10
-10.8944440035476493
 20
3.441087027443988
 30
0.0
 11
-10.8944440035280596
 21
3.435900796599999
 31
0.0
  0
LINE
  5
7EB9
  8
0
 10
-10.8944440035280596
 20
3.435900796599999
 30
0.0
 11
-10.8773962593728903
 21
3.4309794478738809
 31
0.0
  0
LINE
  5
7EBA
  8
0
 10
-10.8773962593728903
 20
3.4309794478738809
 30
0.0
 11
-10.8765568758280597
 21
3.4309779774999991
 31
0.0
  0
LINE
  5
7EBB
  8
0
 10
-10.8765568758280597
 20
3.4309779774999991
 30
0.0
 11
-10.8765568758280597
 21
3.4413894986
 31
0.0
  0
LINE
  5
7EBC
  8
0
 10
-10.8765568758280597
 20
3.4413894986
 30
0.0
 11
-10.87739625933885
 21
3.441589015278272
 31
0.0
  0
LINE
  5
7EBD
  8
0
 10
-10.87739625933885
 20
3.441589015278272
 30
0.0
 11
-10.8944440035213095
 21
3.4410870274480452
 31
0.0
  0
LINE
  5
7EBE
  8
0
 10
-10.8773962594004807
 20
3.441589015266421
 30
0.0
 11
-10.8773962593728903
 21
3.4309794478738809
 31
0.0
  0
LINE
  5
7EBF
  8
0
 10
-10.8944440035843293
 20
3.428070322734285
 30
0.0
 11
-10.8944440035936498
 21
3.4247026980021422
 31
0.0
  0
LINE
  5
7EC0
  8
0
 10
-10.8944440035936498
 20
3.4247026980021422
 30
0.0
 11
-10.8773962593725493
 21
3.4204874886519341
 31
0.0
  0
LINE
  5
7EC1
  8
0
 10
-10.8773962593725493
 20
3.4204874886519341
 30
0.0
 11
-10.8765568758280597
 21
3.4206177728999991
 31
0.0
  0
LINE
  5
7EC2
  8
0
 10
-10.8765568758280597
 20
3.4206177728999991
 30
0.0
 11
-10.8765568758280597
 21
3.4272110142999992
 31
0.0
  0
LINE
  5
7EC3
  8
0
 10
-10.8765568758280597
 20
3.4272110142999992
 30
0.0
 11
-10.8773962592092293
 21
3.4274241000719439
 31
0.0
  0
LINE
  5
7EC4
  8
0
 10
-10.8773962592092293
 20
3.4274241000719439
 30
0.0
 11
-10.8944440035579895
 21
3.4280703227383418
 31
0.0
  0
LINE
  5
7EC5
  8
0
 10
-10.8773962592708493
 20
3.427424100060092
 30
0.0
 11
-10.8773962593725493
 21
3.4204874886519341
 31
0.0
  0
LINE
  5
7EC6
  8
0
 10
-10.8765568758280597
 20
3.4184667642000002
 30
0.0
 11
-10.8773962594164999
 21
3.4186359906269699
 31
0.0
  0
LINE
  5
7EC7
  8
0
 10
-10.8773962594164999
 20
3.4186359906269699
 30
0.0
 11
-10.8944440035280596
 21
3.4202574639000001
 31
0.0
  0
LINE
  5
7EC8
  8
0
 10
-10.8944440035280596
 20
3.4202574639000001
 30
0.0
 11
-10.8944440035280596
 21
3.4187872015999998
 31
0.0
  0
LINE
  5
7EC9
  8
0
 10
-10.8944440035280596
 20
3.4187872015999998
 30
0.0
 11
-10.8773962609647601
 21
3.415654833453861
 31
0.0
  0
LINE
  5
7ECA
  8
0
 10
-10.8773962609647601
 20
3.415654833453861
 30
0.0
 11
-10.8765568758280597
 21
3.415556780924764
 31
0.0
  0
LINE
  5
7ECB
  8
0
 10
-10.8765568758280597
 20
3.415556780924764
 30
0.0
 11
-10.8765568758280597
 21
3.4184667642000002
 31
0.0
  0
LINE
  5
7ECC
  8
0
 10
-10.8773962594129507
 20
3.415654833271013
 30
0.0
 11
-10.8774525715696093
 21
3.4186413466817429
 31
0.0
  0
ARC
  5
7ECD
  8
0
 10
-11.06109727504729
 20
3.7493833693579059
 30
0.0
 40
0.2802657217189744
 50
227.7161866592977049
 51
256.2855903163335825
  0
ARC
  5
7ECE
  8
0
 10
-10.7753929359443905
 20
4.232611512256911
 30
0.0
 40
0.8409146526524578
 50
274.8491602068498878
 51
283.0074382994598068
  0
ARC
  5
7ECF
  8
0
 10
-10.6704747977305203
 20
3.7784301458413569
 30
0.0
 40
0.3747724754947114
 50
283.0074382994598068
 51
296.4533355336849922
  0
ARC
  5
7ED0
  8
0
 10
-10.5179609271107495
 20
3.530178618246266
 30
0.0
 40
0.0784277549446992
 50
317.4155386809014772
 51
358.8292972619985903
  0
ARC
  5
7ED1
  8
0
 10
-10.6113131751666803
 20
3.378062139235527
 30
0.0
 40
0.1880184198690865
 50
56.6065580767642373
 51
61.253161797807131
  0
ARC
  5
7ED2
  8
0
 10
-10.5613339352145506
 20
3.4538785166316082
 30
0.0
 40
0.09721066960702
 50
50.4646800293234676
 51
56.6065580767640029
  0
ARC
  5
7ED3
  8
0
 10
-10.5486981453199604
 20
3.4695074486262532
 30
0.0
 40
0.0771140409467317
 50
31.2650467324509904
 51
50.3134599853493825
  0
ARC
  5
7ED4
  8
0
 10
-10.5502766906446901
 20
3.5187527217109831
 30
0.0
 40
0.0780543895276284
 50
296.9979798747531845
 51
331.5626291353908073
  0
ARC
  5
7ED5
  8
0
 10
-10.6955669757086902
 20
3.803925817383663
 30
0.0
 40
0.3981058876174161
 50
286.2953418631158229
 51
296.9979798747531845
  0
ARC
  5
7ED6
  8
0
 10
-10.7568975651599601
 20
4.0712275476197881
 30
0.0
 40
0.6720719817952578
 50
276.072889033013098
 51
284.9196602138023877
  0
LINE
  5
7ED7
  8
0
 10
-10.7112026349937501
 20
3.5459570829021572
 30
0.0
 11
-10.7112026177952906
 21
3.5236873795499379
 31
0.0
  0
LINE
  5
7ED8
  8
0
 10
-10.7112026177952906
 20
3.5236873795499379
 30
0.0
 11
-10.7103632340919894
 21
3.5235115929953018
 31
0.0
  0
LINE
  5
7ED9
  8
0
 10
-10.7103632340919894
 20
3.5235115929953018
 30
0.0
 11
-10.7103632513856102
 21
3.545946546192722
 31
0.0
  0
LINE
  5
7EDA
  8
0
 10
-10.7103632340595301
 20
3.523511592988505
 30
0.0
 11
-10.6933154967146002
 21
3.5322823749641641
 31
0.0
  0
LINE
  5
7EDB
  8
0
 10
-10.6933154967146002
 20
3.5322823749641641
 30
0.0
 11
-10.6933155065701495
 21
3.545020127763812
 31
0.0
  0
LINE
  5
7EDC
  8
0
 10
-10.6933155065701495
 20
3.545020127763812
 30
0.0
 11
-10.6968466465702292
 21
3.545773321320727
 31
0.0
  0
LINE
  5
7EDD
  8
0
 10
-10.6717332958895508
 20
3.5454337167707601
 30
0.0
 11
-10.6717332889451395
 21
3.5364416385313362
 31
0.0
  0
LINE
  5
7EDE
  8
0
 10
-10.6717332889451395
 20
3.5364416385313362
 30
0.0
 11
-10.6546855430643301
 21
3.5341911908488521
 31
0.0
  0
LINE
  5
7EDF
  8
0
 10
-10.6546855430643301
 20
3.5341911908488521
 30
0.0
 11
-10.6371376068865597
 21
3.544928068152184
 31
0.0
  0
LINE
  5
7EE0
  8
0
 10
-10.6546855431399496
 20
3.5341911908573369
 30
0.0
 11
-10.6546855515040608
 21
3.545193534096974
 31
0.0
  0
LINE
  5
7EE1
  8
0
 10
-10.6330044694318495
 20
3.5448647279736591
 30
0.0
 11
-10.6438944404367799
 21
3.53795566357369
 31
0.0
  0
LINE
  5
7EE2
  8
0
 10
-10.6438944404367799
 20
3.53795566357369
 30
0.0
 11
-10.6438944312944805
 21
3.5261465960307419
 31
0.0
  0
LINE
  5
7EE3
  8
0
 10
-10.6438944312944805
 20
3.5261465960307419
 30
0.0
 11
-10.6268466864733302
 21
3.525193671749185
 31
0.0
  0
LINE
  5
7EE4
  8
0
 10
-10.6268466864733302
 20
3.525193671749185
 30
0.0
 11
-10.60979895065792
 21
3.5361050156206049
 31
0.0
  0
LINE
  5
7EE5
  8
0
 10
-10.60979895065792
 20
3.5361050156206049
 30
0.0
 11
-10.6097989571392706
 21
3.5444974896739398
 31
0.0
  0
LINE
  5
7EE6
  8
0
 10
-10.6268466882466495
 20
3.525193671848307
 30
0.0
 11
-10.6268467033644498
 21
3.5447692002934161
 31
0.0
  0
LINE
  5
7EE7
  8
0
 10
-10.5603778921269704
 20
3.5388035583877349
 30
0.0
 11
-10.5603778958695198
 21
3.5436496624971601
 31
0.0
  0
LINE
  5
7EE8
  8
0
 10
-10.5603778921691802
 20
3.5388035584289419
 30
0.0
 11
-10.5433301498400702
 21
3.5410277741315488
 31
0.0
  0
LINE
  5
7EE9
  8
0
 10
-10.5433301498400702
 20
3.5410277741315488
 30
0.0
 11
-10.5433301516230191
 21
3.5433364577725701
 31
0.0
  0
LINE
  5
7EEA
  8
0
 10
-10.5819601049567407
 20
3.5411693583519299
 30
0.0
 11
-10.5819600964244405
 21
3.530199508581521
 31
0.0
  0
LINE
  5
7EEB
  8
0
 10
-10.5819600964244405
 20
3.530199508581521
 30
0.0
 11
-10.5990078318955003
 21
3.5188966821957859
 31
0.0
  0
LINE
  5
7EEC
  8
0
 10
-10.5990078318955003
 20
3.5188966821957859
 30
0.0
 11
-10.6160555757888702
 21
3.518539736120418
 31
0.0
  0
LINE
  5
7EED
  8
0
 10
-10.6160555757888702
 20
3.518539736120418
 30
0.0
 11
-10.6160555842064301
 21
3.529399252337468
 31
0.0
  0
LINE
  5
7EEE
  8
0
 10
-10.6160555842064301
 20
3.529399252337468
 30
0.0
 11
-10.5990078487526809
 21
3.5407244800331981
 31
0.0
  0
LINE
  5
7EEF
  8
0
 10
-10.5990078487526809
 20
3.5407244800331981
 30
0.0
 11
-10.5819601049567407
 21
3.5411693583519299
 31
0.0
  0
LINE
  5
7EF0
  8
0
 10
-10.5990078487823993
 20
3.5407244801376661
 30
0.0
 11
-10.5990078376101309
 21
3.5188966820761318
 31
0.0
  0
LINE
  5
7EF1
  8
0
 10
-10.4994541172647295
 20
3.528850527515289
 30
0.0
 11
-10.5154912859247407
 21
3.5168079239736558
 31
0.0
  0
LINE
  5
7EF2
  8
0
 10
-10.5154912859247407
 20
3.5168079239736558
 30
0.0
 11
-10.53253902194243
 21
3.5122241832283532
 31
0.0
  0
LINE
  5
7EF3
  8
0
 10
-10.53253902194243
 20
3.5122241832283532
 30
0.0
 11
-10.5325390281690598
 21
3.5202868302283501
 31
0.0
  0
LINE
  5
7EF4
  8
0
 10
-10.5325390281690598
 20
3.5202868302283501
 30
0.0
 11
-10.5154912941863508
 21
3.5330028107745619
 31
0.0
  0
LINE
  5
7EF5
  8
0
 10
-10.5154912941863508
 20
3.5330028107745619
 30
0.0
 11
-10.5078306233477203
 21
3.535040760961873
 31
0.0
  0
LINE
  5
7EF6
  8
0
 10
-10.5154912942160692
 20
3.5330028108790299
 30
0.0
 11
-10.5154912859247407
 21
3.5168079239736558
 31
0.0
  0
LINE
  5
7EF7
  8
0
 10
-10.5262823832175503
 20
3.5120791735093588
 30
0.0
 11
-10.5262823776644101
 21
3.505004583885539
 31
0.0
  0
LINE
  5
7EF8
  8
0
 10
-10.5262823777174308
 20
3.5050045838494399
 30
0.0
 11
-10.5434063801331597
 21
3.4937934749800181
 31
0.0
  0
LINE
  5
7EF9
  8
0
 10
-10.5434063801331597
 20
3.4937934749800181
 30
0.0
 11
-10.5603778543199596
 21
3.4897938878611598
 31
0.0
  0
LINE
  5
7EFA
  8
0
 10
-10.5603778543199596
 20
3.4897938878611598
 30
0.0
 11
-10.5603778597809903
 21
3.4968391693195988
 31
0.0
  0
LINE
  5
7EFB
  8
0
 10
-10.5603778597809903
 20
3.4968391693195988
 30
0.0
 11
-10.5433301252127691
 21
3.5079324221159718
 31
0.0
  0
LINE
  5
7EFC
  8
0
 10
-10.5433301252127691
 20
3.5079324221159718
 30
0.0
 11
-10.5262823832175503
 21
3.5120791735093588
 31
0.0
  0
LINE
  5
7EFD
  8
0
 10
-10.5433301252424894
 20
3.5079324222204402
 30
0.0
 11
-10.5433301180157599
 21
3.4938132050215618
 31
0.0
  0
LINE
  5
7EFE
  8
0
 10
-10.5541212254862398
 20
3.502569405860835
 30
0.0
 11
-10.5541212316838902
 21
3.510594536960832
 31
0.0
  0
LINE
  5
7EFF
  8
0
 10
-10.5541212316838902
 20
3.510594536960832
 30
0.0
 11
-10.5711689736752792
 21
3.5079007003931708
 31
0.0
  0
LINE
  5
7F00
  8
0
 10
-10.5711689736752792
 20
3.5079007003931708
 30
0.0
 11
-10.5882167097069502
 21
3.497287255129554
 31
0.0
  0
LINE
  5
7F01
  8
0
 10
-10.5882167097069502
 20
3.497287255129554
 30
0.0
 11
-10.5882167036279604
 21
3.4893113788778631
 31
0.0
  0
LINE
  5
7F02
  8
0
 10
-10.5882167036279604
 20
3.4893113788778631
 30
0.0
 11
-10.5711689614469506
 21
3.4919006220951969
 31
0.0
  0
LINE
  5
7F03
  8
0
 10
-10.5711689614469506
 20
3.4919006220951969
 30
0.0
 11
-10.5541212254862398
 21
3.502569405860835
 31
0.0
  0
LINE
  5
7F04
  8
0
 10
-10.5711689737784607
 20
3.5079007003289382
 30
0.0
 11
-10.5711689614214901
 21
3.4919006221111282
 31
0.0
  0
LINE
  5
7F05
  8
0
 10
-10.6097989276965592
 20
3.5063378616620291
 30
0.0
 11
-10.6097989353506499
 21
3.5162121790443508
 31
0.0
  0
LINE
  5
7F06
  8
0
 10
-10.6097989353506499
 20
3.5162121790443508
 30
0.0
 11
-10.6268255984283506
 21
3.51622163543635
 31
0.0
  0
LINE
  5
7F07
  8
0
 10
-10.6268255984283506
 20
3.51622163543635
 30
0.0
 11
-10.6438944159595508
 21
3.5064182588970638
 31
0.0
  0
LINE
  5
7F08
  8
0
 10
-10.6438944159595508
 20
3.5064182588970638
 30
0.0
 11
-10.6438944084865597
 21
3.4966133960307508
 31
0.0
  0
LINE
  5
7F09
  8
0
 10
-10.6438944084865597
 20
3.4966133960307508
 30
0.0
 11
-10.6268466643537192
 21
3.4965437122035592
 31
0.0
  0
LINE
  5
7F0A
  8
0
 10
-10.6268466643537192
 20
3.4965437122035592
 30
0.0
 11
-10.6097989276965592
 21
3.5063378616620291
 31
0.0
  0
LINE
  5
7F0B
  8
0
 10
-10.6268255985315196
 20
3.516221635372117
 30
0.0
 11
-10.6268466643282604
 21
3.49654371221949
 31
0.0
  0
LINE
  5
7F0C
  8
0
 10
-10.5819600752633605
 20
3.5027987367429079
 30
0.0
 11
-10.58196008244051
 21
3.5120122301227319
 31
0.0
  0
LINE
  5
7F0D
  8
0
 10
-10.58196008244051
 20
3.5120122301227319
 30
0.0
 11
-10.5990078254955709
 21
3.5106952405489631
 31
0.0
  0
LINE
  5
7F0E
  8
0
 10
-10.5990078254955709
 20
3.5106952405489631
 30
0.0
 11
-10.6160555618945907
 21
3.5005083985301502
 31
0.0
  0
LINE
  5
7F0F
  8
0
 10
-10.6160555618945907
 20
3.5005083985301502
 30
0.0
 11
-10.6160555550282396
 21
3.4916173961301529
 31
0.0
  0
LINE
  5
7F10
  8
0
 10
-10.6160555550282396
 20
3.4916173961301529
 30
0.0
 11
-10.5990078118296598
 21
3.4928520149928062
 31
0.0
  0
LINE
  5
7F11
  8
0
 10
-10.5990078118296598
 20
3.4928520149928062
 30
0.0
 11
-10.5819600752633605
 21
3.5027987367429079
 31
0.0
  0
LINE
  5
7F12
  8
0
 10
-10.5990078255987505
 20
3.5106952404847291
 30
0.0
 11
-10.5990078118041993
 21
3.492852015008737
 31
0.0
  0
LINE
  5
7F13
  8
0
 10
-10.6376377820175296
 20
3.5123213863790821
 30
0.0
 11
-10.6376377903602393
 21
3.5231240820019312
 31
0.0
  0
LINE
  5
7F14
  8
0
 10
-10.6376377903602393
 20
3.5231240820019312
 30
0.0
 11
-10.6546855354525896
 21
3.5244331227604841
 31
0.0
  0
LINE
  5
7F15
  8
0
 10
-10.6546855354525896
 20
3.5244331227604841
 30
0.0
 11
-10.6717332723675895
 21
3.5149759224313422
 31
0.0
  0
LINE
  5
7F16
  8
0
 10
-10.6717332723675895
 20
3.5149759224313422
 30
0.0
 11
-10.6717332640803306
 21
3.5042450290313458
 31
0.0
  0
LINE
  5
7F17
  8
0
 10
-10.6717332640803306
 20
3.5042450290313458
 30
0.0
 11
-10.65492089600375
 21
3.5029141538562372
 31
0.0
  0
LINE
  5
7F18
  8
0
 10
-10.65492089600375
 20
3.5029141538562372
 30
0.0
 11
-10.6376377820175296
 21
3.5123213863790821
 31
0.0
  0
LINE
  5
7F19
  8
0
 10
-10.6546855355557692
 20
3.5244331226962511
 30
0.0
 11
-10.6549208959782895
 21
3.502914153872168
 31
0.0
  0
LINE
  5
7F1A
  8
0
 10
-10.6654766382961803
 20
3.520969327563221
 30
0.0
 11
-10.6654766472889495
 21
3.5327215746753069
 31
0.0
  0
LINE
  5
7F1B
  8
0
 10
-10.6654766472889495
 20
3.5327215746753069
 30
0.0
 11
-10.6825243934775695
 21
3.5353223542519161
 31
0.0
  0
LINE
  5
7F1C
  8
0
 10
-10.6825243934775695
 20
3.5353223542519161
 30
0.0
 11
-10.6995721306372005
 21
3.5261807128043121
 31
0.0
  0
LINE
  5
7F1D
  8
0
 10
-10.6995721306372005
 20
3.5261807128043121
 30
0.0
 11
-10.6995721215958106
 21
3.5144979147412201
 31
0.0
  0
LINE
  5
7F1E
  8
0
 10
-10.6995721215958106
 20
3.5144979147412201
 30
0.0
 11
-10.6825243754203196
 21
3.5118874695072471
 31
0.0
  0
LINE
  5
7F1F
  8
0
 10
-10.6825243754203196
 20
3.5118874695072471
 30
0.0
 11
-10.6654766382961803
 21
3.520969327563221
 31
0.0
  0
LINE
  5
7F20
  8
0
 10
-10.6825243935807492
 20
3.535322354187683
 30
0.0
 11
-10.6825243753948609
 21
3.5118874695231779
 31
0.0
  0
LINE
  5
7F21
  8
0
 10
-10.6654766155795908
 20
3.4915543860632301
 30
0.0
 11
-10.6654766230752802
 21
3.5013241165002689
 31
0.0
  0
LINE
  5
7F22
  8
0
 10
-10.6654766230752802
 20
3.5013241165002689
 30
0.0
 11
-10.6825243685566598
 21
3.5030132414565971
 31
0.0
  0
LINE
  5
7F23
  8
0
 10
-10.6825243685566598
 20
3.5030132414565971
 30
0.0
 11
-10.6995721065053608
 21
3.494954394531947
 31
0.0
  0
LINE
  5
7F24
  8
0
 10
-10.6995721065053608
 20
3.494954394531947
 30
0.0
 11
-10.6995720990249499
 21
3.4852276745270201
 31
0.0
  0
LINE
  5
7F25
  8
0
 10
-10.6995720990249499
 20
3.4852276745270201
 30
0.0
 11
-10.6825243535725107
 21
3.4835170433889551
 31
0.0
  0
LINE
  5
7F26
  8
0
 10
-10.6825243535725107
 20
3.4835170433889551
 30
0.0
 11
-10.6654766155795908
 21
3.4915543860632301
 31
0.0
  0
LINE
  5
7F27
  8
0
 10
-10.6825243686598306
 20
3.503013241392364
 30
0.0
 11
-10.6825243535470609
 21
3.4835170434048872
 31
0.0
  0
LINE
  5
7F28
  8
0
 10
-10.4984435323600902
 20
3.510563731759635
 30
0.0
 11
-10.4984435370578808
 21
3.516646743459634
 31
0.0
  0
LINE
  5
7F29
  8
0
 10
-10.4984435370578808
 20
3.516646743459634
 30
0.0
 11
-10.5154912767461894
 21
3.5109382903019259
 31
0.0
  0
LINE
  5
7F2A
  8
0
 10
-10.5154912767461894
 20
3.5109382903019259
 30
0.0
 11
-10.5325390118989493
 21
3.4992988397813169
 31
0.0
  0
LINE
  5
7F2B
  8
0
 10
-10.5325390118989493
 20
3.4992988397813169
 30
0.0
 11
-10.5325390072626508
 21
3.4932158280283589
 31
0.0
  0
LINE
  5
7F2C
  8
0
 10
-10.5325390072626508
 20
3.4932158280283589
 30
0.0
 11
-10.5154912675474499
 21
3.4987722667631038
 31
0.0
  0
LINE
  5
7F2D
  8
0
 10
-10.5154912675474499
 20
3.4987722667631038
 30
0.0
 11
-10.4984435323600902
 21
3.510563731759635
 31
0.0
  0
LINE
  5
7F2E
  8
0
 10
-10.5154912768493602
 20
3.5109382902376929
 30
0.0
 11
-10.515491267522
 21
3.4987722667790351
 31
0.0
  0
LINE
  5
7F2F
  8
0
 10
-10.4984435219771193
 20
3.4971410116299739
 30
0.0
 11
-10.4984435252128101
 21
3.5013089608596388
 31
0.0
  0
LINE
  5
7F30
  8
0
 10
-10.4984435252128101
 20
3.5013089608596388
 30
0.0
 11
-10.5154912636632503
 21
3.4945632404544251
 31
0.0
  0
LINE
  5
7F31
  8
0
 10
-10.5154912636632503
 20
3.4945632404544251
 30
0.0
 11
-10.5325390000071692
 21
3.4838964844325782
 31
0.0
  0
LINE
  5
7F32
  8
0
 10
-10.5325390000071692
 20
3.4838964844325782
 30
0.0
 11
-10.5325389968796905
 21
3.4797931078986979
 31
0.0
  0
LINE
  5
7F33
  8
0
 10
-10.5325389968796905
 20
3.4797931078986979
 30
0.0
 11
-10.5158719331282793
 21
3.4862680807657451
 31
0.0
  0
LINE
  5
7F34
  8
0
 10
-10.5158719331282793
 20
3.4862680807657451
 30
0.0
 11
-10.4984435219771193
 21
3.4971410116299739
 31
0.0
  0
LINE
  5
7F35
  8
0
 10
-10.5154912637664193
 20
3.4945632403901912
 30
0.0
 11
-10.5158719331028205
 21
3.4862680807816759
 31
0.0
  0
LINE
  5
7F36
  8
0
 10
-10.5262823651452901
 20
3.4887908065602411
 30
0.0
 11
-10.5262823692220806
 21
3.4939402119271281
 31
0.0
  0
LINE
  5
7F37
  8
0
 10
-10.5262823692220806
 20
3.4939402119271281
 30
0.0
 11
-10.5433301094520395
 21
3.488773876102778
 31
0.0
  0
LINE
  5
7F38
  8
0
 10
-10.5433301094520395
 20
3.488773876102778
 30
0.0
 11
-10.5603778456786301
 21
3.4786715443133871
 31
0.0
  0
LINE
  5
7F39
  8
0
 10
-10.5603778456786301
 20
3.4786715443133871
 30
0.0
 11
-10.5603778417757397
 21
3.473550802345851
 31
0.0
  0
LINE
  5
7F3A
  8
0
 10
-10.5603778417757397
 20
3.473550802345851
 30
0.0
 11
-10.5433301016387304
 21
3.4785610437920012
 31
0.0
  0
LINE
  5
7F3B
  8
0
 10
-10.5433301016387304
 20
3.4785610437920012
 30
0.0
 11
-10.5262823651452901
 21
3.4887908065602411
 31
0.0
  0
LINE
  5
7F3C
  8
0
 10
-10.5433301095552103
 20
3.4887738760385449
 30
0.0
 11
-10.5433301016132699
 21
3.478561043807932
 31
0.0
  0
LINE
  5
7F3D
  8
0
 10
-10.5262823569948605
 20
3.4782370929069741
 30
0.0
 11
-10.5262823593996107
 21
3.481275258698441
 31
0.0
  0
LINE
  5
7F3E
  8
0
 10
-10.5262823593996107
 20
3.481275258698441
 30
0.0
 11
-10.5434441936880905
 21
3.4750814958482921
 31
0.0
  0
LINE
  5
7F3F
  8
0
 10
-10.5434441936880905
 20
3.4750814958482921
 30
0.0
 11
-10.5603778358836493
 21
3.465962765018789
 31
0.0
  0
LINE
  5
7F40
  8
0
 10
-10.5603778358836493
 20
3.465962765018789
 30
0.0
 11
-10.5603778334712306
 21
3.4627975715289661
 31
0.0
  0
LINE
  5
7F41
  8
0
 10
-10.5603778334712306
 20
3.4627975715289661
 30
0.0
 11
-10.5433300940533403
 21
3.4689039906421941
 31
0.0
  0
LINE
  5
7F42
  8
0
 10
-10.5433300940533403
 20
3.4689039906421941
 30
0.0
 11
-10.5262823569948605
 21
3.4782370929069741
 31
0.0
  0
LINE
  5
7F43
  8
0
 10
-10.5434441937912595
 20
3.475081495784059
 30
0.0
 11
-10.5433300940278798
 21
3.4689039906581249
 31
0.0
  0
LINE
  5
7F44
  8
0
 10
-10.55412120038946
 20
3.4701008146533758
 30
0.0
 11
-10.5541212035785108
 21
3.474205100221941
 31
0.0
  0
LINE
  5
7F45
  8
0
 10
-10.5541212035785108
 20
3.474205100221941
 30
0.0
 11
-10.5711689441111591
 21
3.4696559350211928
 31
0.0
  0
LINE
  5
7F46
  8
0
 10
-10.5711689441111591
 20
3.4696559350211928
 30
0.0
 11
-10.5882166815619101
 21
3.4608969093634459
 31
0.0
  0
LINE
  5
7F47
  8
0
 10
-10.5882166815619101
 20
3.4608969093634459
 30
0.0
 11
-10.5882166784344403
 21
3.456793532829566
 31
0.0
  0
LINE
  5
7F48
  8
0
 10
-10.5882166784344403
 20
3.456793532829566
 30
0.0
 11
-10.5711689378615805
 21
3.4613239663726452
 31
0.0
  0
LINE
  5
7F49
  8
0
 10
-10.5711689378615805
 20
3.4613239663726452
 30
0.0
 11
-10.55412120038946
 21
3.4701008146533758
 31
0.0
  0
LINE
  5
7F4A
  8
0
 10
-10.5711689442143406
 20
3.4696559349569598
 30
0.0
 11
-10.57116893783612
 21
3.461323966388576
 31
0.0
  0
LINE
  5
7F4B
  8
0
 10
-10.5541212108326601
 20
3.4835949697460462
 30
0.0
 11
-10.5541212155540691
 21
3.48967798143401
 31
0.0
  0
LINE
  5
7F4C
  8
0
 10
-10.5541212155540691
 20
3.48967798143401
 30
0.0
 11
-10.5711689568415004
 21
3.486070766196157
 31
0.0
  0
LINE
  5
7F4D
  8
0
 10
-10.5711689568415004
 20
3.486070766196157
 30
0.0
 11
-10.5882166936259505
 21
3.4764645085295598
 31
0.0
  0
LINE
  5
7F4E
  8
0
 10
-10.5882166936259505
 20
3.4764645085295598
 30
0.0
 11
-10.5882166889281599
 21
3.4703814968314179
 31
0.0
  0
LINE
  5
7F4F
  8
0
 10
-10.5882166889281599
 20
3.4703814968314179
 30
0.0
 11
-10.57116894750936
 21
3.4739047427512562
 31
0.0
  0
LINE
  5
7F50
  8
0
 10
-10.57116894750936
 20
3.4739047427512562
 30
0.0
 11
-10.5541212108326601
 21
3.4835949697460462
 31
0.0
  0
LINE
  5
7F51
  8
0
 10
-10.5711689569446694
 20
3.4860707661319239
 30
0.0
 11
-10.5711689474838995
 21
3.473904742767187
 31
0.0
  0
LINE
  5
7F52
  8
0
 10
-10.5819600462836405
 20
3.4651710403968861
 30
0.0
 11
-10.5819600502427598
 21
3.4702453645540281
 31
0.0
  0
LINE
  5
7F53
  8
0
 10
-10.5819600502427598
 20
3.4702453645540281
 30
0.0
 11
-10.5990077921456702
 21
3.4671770293523498
 31
0.0
  0
LINE
  5
7F54
  8
0
 10
-10.5990077921456702
 20
3.4671770293523498
 30
0.0
 11
-10.6160555298076194
 21
3.4589600736396222
 31
0.0
  0
LINE
  5
7F55
  8
0
 10
-10.6160555298076194
 20
3.4589600736396222
 30
0.0
 11
-10.6160555258687506
 21
3.4538038357502301
 31
0.0
  0
LINE
  5
7F56
  8
0
 10
-10.6160555258687506
 20
3.4538038357502301
 30
0.0
 11
-10.5990077838455807
 21
3.4568843386924009
 31
0.0
  0
LINE
  5
7F57
  8
0
 10
-10.5990077838455807
 20
3.4568843386924009
 30
0.0
 11
-10.5819600462836405
 21
3.4651710403968861
 31
0.0
  0
LINE
  5
7F58
  8
0
 10
-10.5990077922488393
 20
3.4671770292881172
 30
0.0
 11
-10.5990077838201202
 21
3.4568843387083321
 31
0.0
  0
LINE
  5
7F59
  8
0
 10
-10.5819600587603198
 20
3.4814295153482751
 30
0.0
 11
-10.5819600643119394
 21
3.4884594073063768
 31
0.0
  0
LINE
  5
7F5A
  8
0
 10
-10.5819600643119394
 20
3.4884594073063768
 30
0.0
 11
-10.5990078068742797
 21
3.4862557172903559
 31
0.0
  0
LINE
  5
7F5B
  8
0
 10
-10.5990078068742797
 20
3.4862557172903559
 30
0.0
 11
-10.6160555438107096
 21
3.4770922027102871
 31
0.0
  0
LINE
  5
7F5C
  8
0
 10
-10.6160555438107096
 20
3.4770922027102871
 30
0.0
 11
-10.6160555384029003
 21
3.4700824172112439
 31
0.0
  0
LINE
  5
7F5D
  8
0
 10
-10.6160555384029003
 20
3.4700824172112439
 30
0.0
 11
-10.5990077958874007
 21
3.4722163612809891
 31
0.0
  0
LINE
  5
7F5E
  8
0
 10
-10.5990077958874007
 20
3.4722163612809891
 30
0.0
 11
-10.5819600587603198
 21
3.4814295153482751
 31
0.0
  0
LINE
  5
7F5F
  8
0
 10
-10.5990078069774594
 20
3.4862557172261228
 30
0.0
 11
-10.5990077958619509
 21
3.4722163612969208
 31
0.0
  0
LINE
  5
7F60
  8
0
 10
-10.5541212443972494
 20
3.5270818153819299
 30
0.0
 11
-10.5543680288746895
 21
3.5370817044800931
 31
0.0
  0
LINE
  5
7F61
  8
0
 10
-10.5543680288746895
 20
3.5370817044800931
 30
0.0
 11
-10.5711689942342506
 21
3.5352944753721909
 31
0.0
  0
LINE
  5
7F62
  8
0
 10
-10.5711689942342506
 20
3.5352944753721909
 30
0.0
 11
-10.5882167300005499
 21
3.5235647547195699
 31
0.0
  0
LINE
  5
7F63
  8
0
 10
-10.5882167300005499
 20
3.5235647547195699
 30
0.0
 11
-10.5882167223158703
 21
3.513636574595544
 31
0.0
  0
LINE
  5
7F64
  8
0
 10
-10.5882167223158703
 20
3.513636574595544
 30
0.0
 11
-10.5711689794843497
 21
3.5153366462101818
 31
0.0
  0
LINE
  5
7F65
  8
0
 10
-10.5711689794843497
 20
3.5153366462101818
 30
0.0
 11
-10.5541212443972494
 21
3.5270818153819299
 31
0.0
  0
LINE
  5
7F66
  8
0
 10
-10.5711689943374303
 20
3.5352944753079578
 30
0.0
 11
-10.5711689794588892
 21
3.5153366462261131
 31
0.0
  0
LINE
  5
7F67
  8
0
 10
-10.52628239466158
 20
3.5268444604279172
 30
0.0
 11
-10.5262824015547398
 21
3.5359361704602268
 31
0.0
  0
LINE
  5
7F68
  8
0
 10
-10.5262824015547398
 20
3.5359361704602268
 30
0.0
 11
-10.5433301432667701
 21
3.5326860798534412
 31
0.0
  0
LINE
  5
7F69
  8
0
 10
-10.5433301432667701
 20
3.5326860798534412
 30
0.0
 11
-10.5603778780311099
 21
3.5204966489743961
 31
0.0
  0
LINE
  5
7F6A
  8
0
 10
-10.5603778780311099
 20
3.5204966489743961
 30
0.0
 11
-10.5603778710799396
 21
3.5114958191289509
 31
0.0
  0
LINE
  5
7F6B
  8
0
 10
-10.5603778710799396
 20
3.5114958191289509
 30
0.0
 11
-10.5433301292880799
 21
3.514595552760241
 31
0.0
  0
LINE
  5
7F6C
  8
0
 10
-10.5433301292880799
 20
3.514595552760241
 30
0.0
 11
-10.52628239466158
 21
3.5268444604279172
 31
0.0
  0
LINE
  5
7F6D
  8
0
 10
-10.5433301433699391
 20
3.5326860797892068
 30
0.0
 11
-10.5433301292626194
 21
3.5145955527761719
 31
0.0
  0
LINE
  5
7F6E
  8
0
 10
-10.6097989089861393
 20
3.4821103582993489
 30
0.0
 11
-10.6097989151659906
 21
3.4900605165843599
 31
0.0
  0
LINE
  5
7F6F
  8
0
 10
-10.6097989151659906
 20
3.4900605165843599
 30
0.0
 11
-10.6268466585520702
 21
3.4891921148606269
 31
0.0
  0
LINE
  5
7F70
  8
0
 10
-10.6268466585520702
 20
3.4891921148606269
 30
0.0
 11
-10.6438943959876209
 21
3.480428936330755
 31
0.0
  0
LINE
  5
7F71
  8
0
 10
-10.6438943959876209
 20
3.480428936330755
 30
0.0
 11
-10.6438943899167597
 21
3.4725119888132112
 31
0.0
  0
LINE
  5
7F72
  8
0
 10
-10.6438943899167597
 20
3.4725119888132112
 30
0.0
 11
-10.6268466464038909
 21
3.473325439502351
 31
0.0
  0
LINE
  5
7F73
  8
0
 10
-10.6268466464038909
 20
3.473325439502351
 30
0.0
 11
-10.6097989089861393
 21
3.4821103582993489
 31
0.0
  0
LINE
  5
7F74
  8
0
 10
-10.6268466586552393
 20
3.4891921147963938
 30
0.0
 11
-10.6268466463784303
 21
3.4733254395182822
 31
0.0
  0
LINE
  5
7F75
  8
0
 10
-10.6097988943649
 20
3.463233812216902
 30
0.0
 11
-10.6097988990700003
 21
3.4692867608977371
 31
0.0
  0
LINE
  5
7F76
  8
0
 10
-10.6097988990700003
 20
3.4692867608977371
 30
0.0
 11
-10.6268466419204994
 21
3.4675228569963998
 31
0.0
  0
LINE
  5
7F77
  8
0
 10
-10.6268466419204994
 20
3.4675228569963998
 30
0.0
 11
-10.6438943800152703
 21
3.4597184543688688
 31
0.0
  0
LINE
  5
7F78
  8
0
 10
-10.6438943800152703
 20
3.4597184543688688
 30
0.0
 11
-10.6438943752955204
 21
3.4536354427307629
 31
0.0
  0
LINE
  5
7F79
  8
0
 10
-10.6438943752955204
 20
3.4536354427307629
 30
0.0
 11
-10.6269549256801099
 21
3.4553437136134129
 31
0.0
  0
LINE
  5
7F7A
  8
0
 10
-10.6269549256801099
 20
3.4553437136134129
 30
0.0
 11
-10.6097988943649
 21
3.463233812216902
 31
0.0
  0
LINE
  5
7F7B
  8
0
 10
-10.6268466420236702
 20
3.4675228569321672
 30
0.0
 11
-10.6269549256546494
 21
3.4553437136293441
 31
0.0
  0
LINE
  5
7F7C
  8
0
 10
-10.6376377447372903
 20
3.4640253888960402
 30
0.0
 11
-10.6376377501074693
 21
3.4710247875315572
 31
0.0
  0
LINE
  5
7F7D
  8
0
 10
-10.6376377501074693
 20
3.4710247875315572
 30
0.0
 11
-10.6546955290464105
 21
3.4705601980236991
 31
0.0
  0
LINE
  5
7F7E
  8
0
 10
-10.6546955290464105
 20
3.4705601980236991
 30
0.0
 11
-10.6717332316596707
 21
3.4622361837694662
 31
0.0
  0
LINE
  5
7F7F
  8
0
 10
-10.6717332316596707
 20
3.4622361837694662
 30
0.0
 11
-10.6717332269399208
 21
3.4561531721313599
 31
0.0
  0
LINE
  5
7F80
  8
0
 10
-10.6717332269399208
 20
3.4561531721313599
 30
0.0
 11
-10.6543215817860002
 21
3.45673113993342
 31
0.0
  0
LINE
  5
7F81
  8
0
 10
-10.6543215817860002
 20
3.45673113993342
 30
0.0
 11
-10.6376377447372903
 21
3.4640253888960402
 31
0.0
  0
LINE
  5
7F82
  8
0
 10
-10.6546955291495795
 20
3.470560197959466
 30
0.0
 11
-10.6543215817605397
 21
3.4567311399493512
 31
0.0
  0
LINE
  5
7F83
  8
0
 10
-10.6654765824496192
 20
3.4486554987632441
 30
0.0
 11
-10.6654765871772295
 21
3.4547385104745492
 31
0.0
  0
LINE
  5
7F84
  8
0
 10
-10.6654765871772295
 20
3.4547385104745492
 30
0.0
 11
-10.6825391128461895
 21
3.4546506780201538
 31
0.0
  0
LINE
  5
7F85
  8
0
 10
-10.6825391128461895
 20
3.4546506780201538
 30
0.0
 11
-10.6995720707102198
 21
3.4485086623749872
 31
0.0
  0
LINE
  5
7F86
  8
0
 10
-10.6995720707102198
 20
3.4485086623749872
 30
0.0
 11
-10.6995720659904805
 21
3.4424256507368809
 31
0.0
  0
LINE
  5
7F87
  8
0
 10
-10.6995720659904805
 20
3.4424256507368809
 30
0.0
 11
-10.6825243217130907
 21
3.4424902683084162
 31
0.0
  0
LINE
  5
7F88
  8
0
 10
-10.6825243217130907
 20
3.4424902683084162
 30
0.0
 11
-10.6654765824496192
 21
3.4486554987632441
 31
0.0
  0
LINE
  5
7F89
  8
0
 10
-10.6825391129493603
 20
3.4546506779559212
 30
0.0
 11
-10.6825243216876302
 21
3.442490268324347
 31
0.0
  0
LINE
  5
7F8A
  8
0
 10
-10.6376377321398206
 20
3.4477364205626442
 30
0.0
 11
-10.6376377361299106
 21
3.452903045262643
 31
0.0
  0
LINE
  5
7F8B
  8
0
 10
-10.6376377361299106
 20
3.452903045262643
 30
0.0
 11
-10.6547050978564197
 21
3.4515320641759981
 31
0.0
  0
LINE
  5
7F8C
  8
0
 10
-10.6547050978564197
 20
3.4515320641759981
 30
0.0
 11
-10.6717332183503508
 21
3.4450308285313631
 31
0.0
  0
LINE
  5
7F8D
  8
0
 10
-10.6717332183503508
 20
3.4450308285313631
 30
0.0
 11
-10.6717332143563493
 21
3.4398510474123349
 31
0.0
  0
LINE
  5
7F8E
  8
0
 10
-10.6717332143563493
 20
3.4398510474123349
 30
0.0
 11
-10.6546633826516395
 21
3.4412014371897381
 31
0.0
  0
LINE
  5
7F8F
  8
0
 10
-10.6546633826516395
 20
3.4412014371897381
 30
0.0
 11
-10.6376377321398206
 21
3.4477364205626442
 31
0.0
  0
LINE
  5
7F90
  8
0
 10
-10.6547050979595905
 20
3.4515320641117651
 30
0.0
 11
-10.6546633826261807
 21
3.441201437205669
 31
0.0
  0
LINE
  5
7F91
  8
0
 10
-10.6097988839275192
 20
3.4495667942231809
 30
0.0
 11
-10.6099370539082898
 21
3.4537578641131059
 31
0.0
  0
LINE
  5
7F92
  8
0
 10
-10.6099370539082898
 20
3.4537578641131059
 30
0.0
 11
-10.6268640562530692
 21
3.4510733550021362
 31
0.0
  0
LINE
  5
7F93
  8
0
 10
-10.6268640562530692
 20
3.4510733550021362
 30
0.0
 11
-10.6438943679965803
 21
3.4441842900398951
 31
0.0
  0
LINE
  5
7F94
  8
0
 10
-10.6438943679965803
 20
3.4441842900398951
 30
0.0
 11
-10.6438943647954893
 21
3.4399352139564319
 31
0.0
  0
LINE
  5
7F95
  8
0
 10
-10.6438943647954893
 20
3.4399352139564319
 30
0.0
 11
-10.6268466227103993
 21
3.442615380780476
 31
0.0
  0
LINE
  5
7F96
  8
0
 10
-10.6268466227103993
 20
3.442615380780476
 30
0.0
 11
-10.6097988839275192
 21
3.4495667942231809
 31
0.0
  0
LINE
  5
7F97
  8
0
 10
-10.62686405635624
 20
3.4510733549379031
 30
0.0
 11
-10.6268466226849405
 21
3.4426153807964082
 31
0.0
  0
LINE
  5
7F98
  8
0
 10
-10.6376377612797999
 20
3.4854628591591128
 30
0.0
 11
-10.6376377681543701
 21
3.4943704505573572
 31
0.0
  0
LINE
  5
7F99
  8
0
 10
-10.6376377681543701
 20
3.4943704505573572
 30
0.0
 11
-10.6546855124774105
 21
3.4947928423576831
 31
0.0
  0
LINE
  5
7F9A
  8
0
 10
-10.6546855124774105
 20
3.4947928423576831
 30
0.0
 11
-10.6717332502957003
 21
3.4863957835313508
 31
0.0
  0
LINE
  5
7F9B
  8
0
 10
-10.6717332502957003
 20
3.4863957835313508
 30
0.0
 11
-10.6717332434963303
 21
3.477577486008804
 31
0.0
  0
LINE
  5
7F9C
  8
0
 10
-10.6717332434963303
 20
3.477577486008804
 30
0.0
 11
-10.6546854989545903
 21
3.4771160271242589
 31
0.0
  0
LINE
  5
7F9D
  8
0
 10
-10.6546854989545903
 20
3.4771160271242589
 30
0.0
 11
-10.6376377612797999
 21
3.4854628591591128
 31
0.0
  0
LINE
  5
7F9E
  8
0
 10
-10.6546855125805795
 20
3.49479284229345
 30
0.0
 11
-10.6546854989291297
 21
3.4771160271401902
 31
0.0
  0
LINE
  5
7F9F
  8
0
 10
-10.6654765970158394
 20
3.4675168153632372
 30
0.0
 11
-10.6654766031461197
 21
3.4754169432303801
 31
0.0
  0
LINE
  5
7FA0
  8
0
 10
-10.6654766031461197
 20
3.4754169432303801
 30
0.0
 11
-10.6825439665385407
 21
3.4762119944700678
 31
0.0
  0
LINE
  5
7FA1
  8
0
 10
-10.6825439665385407
 20
3.4762119944700678
 30
0.0
 11
-10.6995720865754507
 21
3.4691478206319548
 31
0.0
  0
LINE
  5
7FA2
  8
0
 10
-10.6995720865754507
 20
3.4691478206319548
 30
0.0
 11
-10.6995720805187702
 21
3.461268302531447
 31
0.0
  0
LINE
  5
7FA3
  8
0
 10
-10.6995720805187702
 20
3.461268302531447
 30
0.0
 11
-10.6825668939113694
 21
3.4604422972230289
 31
0.0
  0
LINE
  5
7FA4
  8
0
 10
-10.6825668939113694
 20
3.4604422972230289
 30
0.0
 11
-10.6654765970158394
 21
3.4675168153632372
 31
0.0
  0
LINE
  5
7FA5
  8
0
 10
-10.6825439666417097
 20
3.4762119944058352
 30
0.0
 11
-10.6825668938859106
 21
3.4604422972389601
 31
0.0
  0
LINE
  5
7FA6
  8
0
 10
-10.6654765718444402
 20
3.434923220971124
 30
0.0
 11
-10.6654765750814402
 21
3.4391227838322762
 31
0.0
  0
LINE
  5
7FA7
  8
0
 10
-10.6654765750814402
 20
3.4391227838322762
 30
0.0
 11
-10.6825243180953997
 21
3.4381963480228288
 31
0.0
  0
LINE
  5
7FA8
  8
0
 10
-10.6825243180953997
 20
3.4381963480228288
 30
0.0
 11
-10.6993331067308493
 21
3.4330098307411481
 31
0.0
  0
LINE
  5
7FA9
  8
0
 10
-10.6993331067308493
 20
3.4330098307411481
 30
0.0
 11
-10.6995720553029301
 21
3.428654098331966
 31
0.0
  0
LINE
  5
7FAA
  8
0
 10
-10.6995720553029301
 20
3.428654098331966
 30
0.0
 11
-10.6825243119926991
 21
3.429643785481677
 31
0.0
  0
LINE
  5
7FAB
  8
0
 10
-10.6825243119926991
 20
3.429643785481677
 30
0.0
 11
-10.6654765718444402
 21
3.434923220971124
 31
0.0
  0
LINE
  5
7FAC
  8
0
 10
-10.6825243181985705
 20
3.4381963479585962
 30
0.0
 11
-10.6825243119672404
 21
3.4296437854976078
 31
0.0
  0
LINE
  5
7FAD
  8
0
 10
-10.6376377235144908
 20
3.43658207915266
 30
0.0
 11
-10.6376377261485207
 21
3.4399784835626481
 31
0.0
  0
LINE
  5
7FAE
  8
0
 10
-10.6376377261485207
 20
3.4399784835626481
 30
0.0
 11
-10.6546854684626293
 21
3.437665984597007
 31
0.0
  0
LINE
  5
7FAF
  8
0
 10
-10.6546854684626293
 20
3.437665984597007
 30
0.0
 11
-10.6717332083212106
 21
3.4320444318313661
 31
0.0
  0
LINE
  5
7FB0
  8
0
 10
-10.6717332083212106
 20
3.4320444318313661
 30
0.0
 11
-10.6717332057310195
 21
3.4286967060023499
 31
0.0
  0
LINE
  5
7FB1
  8
0
 10
-10.6717332057310195
 20
3.4286967060023499
 30
0.0
 11
-10.6548107675329398
 21
3.430991170809365
 31
0.0
  0
LINE
  5
7FB2
  8
0
 10
-10.6548107675329398
 20
3.430991170809365
 30
0.0
 11
-10.6376377235144908
 21
3.43658207915266
 31
0.0
  0
LINE
  5
7FB3
  8
0
 10
-10.6546854685658001
 20
3.4376659845327731
 30
0.0
 11
-10.6548107675074792
 21
3.4309911708252971
 31
0.0
  0
LINE
  5
7FB4
  8
0
 10
-10.5819600379126406
 20
3.4543131523893549
 30
0.0
 11
-10.5819600403000997
 21
3.4575259938614469
 31
0.0
  0
LINE
  5
7FB5
  8
0
 10
-10.5819600403000997
 20
3.4575259938614469
 30
0.0
 11
-10.5990229784906198
 21
3.453395137144653
 31
0.0
  0
LINE
  5
7FB6
  8
0
 10
-10.5990229784906198
 20
3.453395137144653
 30
0.0
 11
-10.6160555198639504
 21
3.4460843420301668
 31
0.0
  0
LINE
  5
7FB7
  8
0
 10
-10.6160555198639504
 20
3.4460843420301668
 30
0.0
 11
-10.6160555173347095
 21
3.4428093209301678
 31
0.0
  0
LINE
  5
7FB8
  8
0
 10
-10.6160555173347095
 20
3.4428093209301678
 30
0.0
 11
-10.5989968157473005
 21
3.446916037453724
 31
0.0
  0
LINE
  5
7FB9
  8
0
 10
-10.5989968157473005
 20
3.446916037453724
 30
0.0
 11
-10.5819600379126406
 21
3.4543131523893549
 31
0.0
  0
LINE
  5
7FBA
  8
0
 10
-10.5990229785937906
 20
3.4533951370804199
 30
0.0
 11
-10.5989968157218399
 21
3.4469160374696561
 31
0.0
  0
LINE
  5
7FBB
  8
0
 10
-10.6097988776466394
 20
3.4414993256907631
 30
0.0
 11
-10.6097988792449094
 21
3.4435994521620472
 31
0.0
  0
LINE
  5
7FBC
  8
0
 10
-10.6097988792449094
 20
3.4435994521620472
 30
0.0
 11
-10.6268528806047406
 21
3.439885982070503
 31
0.0
  0
LINE
  5
7FBD
  8
0
 10
-10.6268528806047406
 20
3.439885982070503
 30
0.0
 11
-10.6438943602618998
 21
3.4341037166286861
 31
0.0
  0
LINE
  5
7FBE
  8
0
 10
-10.6438943602618998
 20
3.4341037166286861
 30
0.0
 11
-10.6438943582648999
 21
3.4315138260691702
 31
0.0
  0
LINE
  5
7FBF
  8
0
 10
-10.6438943582648999
 20
3.4315138260691702
 30
0.0
 11
-10.6268466170103899
 21
3.435234627380479
 31
0.0
  0
LINE
  5
7FC0
  8
0
 10
-10.6268466170103899
 20
3.435234627380479
 30
0.0
 11
-10.6097988776466394
 21
3.4414993256907631
 31
0.0
  0
LINE
  5
7FC1
  8
0
 10
-10.6268528807079097
 20
3.4398859820062699
 30
0.0
 11
-10.6268466169849294
 21
3.4352346273964098
 31
0.0
  0
LINE
  5
7FC2
  8
0
 10
-10.5541211943692108
 20
3.462208915680236
 30
0.0
 11
-10.5541211960176309
 21
3.4643434058730338
 31
0.0
  0
LINE
  5
7FC3
  8
0
 10
-10.5541211960176309
 20
3.4643434058730338
 30
0.0
 11
-10.5711689357293697
 21
3.4586812485172058
 31
0.0
  0
LINE
  5
7FC4
  8
0
 10
-10.5711689357293697
 20
3.4586812485172058
 30
0.0
 11
-10.5882166739325605
 21
3.4508981652150919
 31
0.0
  0
LINE
  5
7FC5
  8
0
 10
-10.5882166739325605
 20
3.4508981652150919
 30
0.0
 11
-10.58821667221215
 21
3.4486603218590801
 31
0.0
  0
LINE
  5
7FC6
  8
0
 10
-10.58821667221215
 20
3.4486603218590801
 30
0.0
 11
-10.5711641975992308
 21
3.4543091224330058
 31
0.0
  0
LINE
  5
7FC7
  8
0
 10
-10.5711641975992308
 20
3.4543091224330058
 30
0.0
 11
-10.5541211943692108
 21
3.462208915680236
 31
0.0
  0
LINE
  5
7FC8
  8
0
 10
-10.5711689358325405
 20
3.4586812484529732
 30
0.0
 11
-10.5711641975737702
 21
3.4543091224489371
 31
0.0
  0
LINE
  5
7FC9
  8
0
 10
-10.6376377192256495
 20
3.43101429386265
 30
0.0
 11
-10.6376377202785193
 21
3.4323776215626491
 31
0.0
  0
LINE
  5
7FCA
  8
0
 10
-10.6376377202785193
 20
3.4323776215626491
 30
0.0
 11
-10.6546885918185694
 21
3.4289126129283449
 31
0.0
  0
LINE
  5
7FCB
  8
0
 10
-10.6546885918185694
 20
3.4289126129283449
 30
0.0
 11
-10.6717332023436509
 21
3.4243012642127528
 31
0.0
  0
LINE
  5
7FCC
  8
0
 10
-10.6717332023436509
 20
3.4243012642127528
 30
0.0
 11
-10.6717332012370498
 21
3.422866134296175
 31
0.0
  0
LINE
  5
7FCD
  8
0
 10
-10.6717332012370498
 20
3.422866134296175
 30
0.0
 11
-10.6546854599825398
 21
3.426586935607483
 31
0.0
  0
LINE
  5
7FCE
  8
0
 10
-10.6546854599825398
 20
3.426586935607483
 30
0.0
 11
-10.6376377192256495
 21
3.43101429386265
 31
0.0
  0
LINE
  5
7FCF
  8
0
 10
-10.6546885919217402
 20
3.4289126128641119
 30
0.0
 11
-10.6546854599570793
 21
3.4265869356234151
 31
0.0
  0
LINE
  5
7FD0
  8
0
 10
-10.6654765653262
 20
3.4264196836072411
 30
0.0
 11
-10.6654765671560199
 21
3.428815976567908
 31
0.0
  0
LINE
  5
7FD1
  8
0
 10
-10.6654765671560199
 20
3.428815976567908
 30
0.0
 11
-10.6825284681948993
 21
3.4268605000323462
 31
0.0
  0
LINE
  5
7FD2
  8
0
 10
-10.6825284681948993
 20
3.4268605000323462
 30
0.0
 11
-10.6995381774458505
 21
3.422497313467181
 31
0.0
  0
LINE
  5
7FD3
  8
0
 10
-10.6995381774458505
 20
3.422497313467181
 30
0.0
 11
-10.6995720486961901
 21
3.4200499616331399
 31
0.0
  0
LINE
  5
7FD4
  8
0
 10
-10.6995720486961901
 20
3.4200499616331399
 30
0.0
 11
-10.6825219582878201
 21
3.4220263568618199
 31
0.0
  0
LINE
  5
7FD5
  8
0
 10
-10.6825219582878201
 20
3.4220263568618199
 30
0.0
 11
-10.6654765653262
 21
3.4264196836072411
 31
0.0
  0
LINE
  5
7FD6
  8
0
 10
-10.6825284682980701
 20
3.4268604999681131
 30
0.0
 11
-10.6825219582623596
 21
3.4220263568777511
 31
0.0
  0
ARC
  5
7FD7
  8
0
 10
-10.5644949324709003
 20
3.5636352041292358
 30
0.0
 40
0.0980014298688687
 50
292.9932427036405898
 51
326.4893931803011924
  0
ARC
  5
7FD8
  8
0
 10
-10.8293938477323799
 20
4.0830403413343861
 30
0.0
 40
0.6808490969917307
 50
289.7815036782628226
 51
296.4423822237171748
  0
ARC
  5
7FD9
  8
0
 10
-10.7921343941940897
 20
3.994256743828728
 30
0.0
 40
0.5847162339089628
 50
280.6164306024488724
 51
289.2902420668851846
  0
ARC
  5
7FDA
  8
0
 10
-10.7922466777910699
 20
3.9852644802338522
 30
0.0
 40
0.575901292138166
 50
274.9355853649622077
 51
280.7922312508990217
  0
LINE
  5
7FDB
  8
0
 10
-10.6933154801912291
 20
3.5108970674308
 30
0.0
 11
-10.6933154719574492
 21
3.5002013063638251
 31
0.0
  0
LINE
  5
7FDC
  8
0
 10
-10.6933154719574492
 20
3.5002013063638251
 30
0.0
 11
-10.7103632101629191
 21
3.492496808150122
 31
0.0
  0
LINE
  5
7FDD
  8
0
 10
-10.7103632101629191
 20
3.492496808150122
 30
0.0
 11
-10.7112025938080393
 21
3.4926270917499469
 31
0.0
  0
LINE
  5
7FDE
  8
0
 10
-10.7112025938080393
 20
3.4926270917499469
 30
0.0
 11
-10.7112026098892592
 21
3.5134501339499411
 31
0.0
  0
LINE
  5
7FDF
  8
0
 10
-10.7112026098892592
 20
3.5134501339499411
 30
0.0
 11
-10.7103632266579201
 21
3.5138476975689921
 31
0.0
  0
LINE
  5
7FE0
  8
0
 10
-10.7103632266579201
 20
3.5138476975689921
 30
0.0
 11
-10.6933154802175796
 21
3.5108970674348581
 31
0.0
  0
LINE
  5
7FE1
  8
0
 10
-10.7103632265963
 20
3.5138476975571402
 30
0.0
 11
-10.7103632101629191
 21
3.492496808150122
 31
0.0
  0
LINE
  5
7FE2
  8
0
 10
-10.69331545821316
 20
3.482401853322314
 30
0.0
 11
-10.6933154514164404
 21
3.473603454613265
 31
0.0
  0
LINE
  5
7FE3
  8
0
 10
-10.6933154514164404
 20
3.473603454613265
 30
0.0
 11
-10.7103631903412193
 21
3.4668303476501299
 31
0.0
  0
LINE
  5
7FE4
  8
0
 10
-10.7103631903412193
 20
3.4668303476501299
 30
0.0
 11
-10.7112025739863306
 21
3.4669606312499539
 31
0.0
  0
LINE
  5
7FE5
  8
0
 10
-10.7112025739863306
 20
3.4669606312499539
 30
0.0
 11
-10.7112025872230507
 21
3.4841004154499502
 31
0.0
  0
LINE
  5
7FE6
  8
0
 10
-10.7112025872230507
 20
3.4841004154499502
 30
0.0
 11
-10.7103632039605703
 21
3.484447882182176
 31
0.0
  0
LINE
  5
7FE7
  8
0
 10
-10.7103632039605703
 20
3.484447882182176
 30
0.0
 11
-10.6933154582394998
 21
3.4824018533263712
 31
0.0
  0
LINE
  5
7FE8
  8
0
 10
-10.7103632038989396
 20
3.4844478821703242
 30
0.0
 11
-10.7103631903412193
 21
3.4668303476501299
 31
0.0
  0
LINE
  5
7FE9
  8
0
 10
-10.6933154402174893
 20
3.4591892412004972
 30
0.0
 11
-10.6933154348942701
 21
3.4522094486638388
 31
0.0
  0
LINE
  5
7FEA
  8
0
 10
-10.6933154348942701
 20
3.4522094486638388
 30
0.0
 11
-10.7103631744948604
 21
3.4463114375501349
 31
0.0
  0
LINE
  5
7FEB
  8
0
 10
-10.7103631744948604
 20
3.4463114375501349
 30
0.0
 11
-10.7112025581399699
 21
3.4464417211499598
 31
0.0
  0
LINE
  5
7FEC
  8
0
 10
-10.7112025581399699
 20
3.4464417211499598
 30
0.0
 11
-10.7112025742212005
 21
3.4672647633499549
 31
0.0
  0
LINE
  5
7FED
  8
0
 10
-10.7112025686493109
 20
3.4600499094499568
 30
0.0
 11
-10.7103631853623895
 21
3.4603508911032321
 31
0.0
  0
LINE
  5
7FEE
  8
0
 10
-10.7103631853623895
 20
3.4603508911032321
 30
0.0
 11
-10.6933154402438397
 21
3.459189241204554
 31
0.0
  0
LINE
  5
7FEF
  8
0
 10
-10.7103631853007606
 20
3.4603508910913798
 30
0.0
 11
-10.7103631744948604
 21
3.4463114375501349
 31
0.0
  0
LINE
  5
7FF0
  8
0
 10
-10.6933154262851104
 20
3.4410871051078309
 30
0.0
 11
-10.6933154222994808
 21
3.4359008742638451
 31
0.0
  0
LINE
  5
7FF1
  8
0
 10
-10.6933154222994808
 20
3.4359008742638451
 30
0.0
 11
-10.7103631626539695
 21
3.4309795123720872
 31
0.0
  0
LINE
  5
7FF2
  8
0
 10
-10.7103631626539695
 20
3.4309795123720872
 30
0.0
 11
-10.7112025461976703
 21
3.4309780413499662
 31
0.0
  0
LINE
  5
7FF3
  8
0
 10
-10.7112025461976703
 20
3.4309780413499662
 30
0.0
 11
-10.7112025542382892
 21
3.4413895624499631
 31
0.0
  0
LINE
  5
7FF4
  8
0
 10
-10.7112025542382892
 20
3.4413895624499631
 30
0.0
 11
-10.7103631708815801
 21
3.4415890797764752
 31
0.0
  0
LINE
  5
7FF5
  8
0
 10
-10.7103631708815801
 20
3.4415890797764752
 30
0.0
 11
-10.6933154263114503
 21
3.4410871051118881
 31
0.0
  0
LINE
  5
7FF6
  8
0
 10
-10.7103631708199494
 20
3.4415890797646229
 30
0.0
 11
-10.7103631626539695
 21
3.4309795123720872
 31
0.0
  0
LINE
  5
7FF7
  8
0
 10
-10.6933154161958797
 20
3.4280704003981319
 30
0.0
 11
-10.6933154135858093
 21
3.4247027756659909
 31
0.0
  0
LINE
  5
7FF8
  8
0
 10
-10.6933154135858093
 20
3.4247027756659909
 30
0.0
 11
-10.7103631545515796
 21
3.4204875531501431
 31
0.0
  0
LINE
  5
7FF9
  8
0
 10
-10.7103631545515796
 20
3.4204875531501431
 30
0.0
 11
-10.7112025381966909
 21
3.420617836749968
 31
0.0
  0
LINE
  5
7FFA
  8
0
 10
-10.7112025381966909
 20
3.420617836749968
 30
0.0
 11
-10.7112025432885201
 21
3.4272110781499658
 31
0.0
  0
LINE
  5
7FFB
  8
0
 10
-10.7112025432885201
 20
3.4272110781499658
 30
0.0
 11
-10.7103631600719105
 21
3.4274241645701511
 31
0.0
  0
LINE
  5
7FFC
  8
0
 10
-10.7103631600719105
 20
3.4274241645701511
 30
0.0
 11
-10.6933154162222195
 21
3.42807040040219
 31
0.0
  0
LINE
  5
7FFD
  8
0
 10
-10.7103631600102904
 20
3.4274241645582988
 30
0.0
 11
-10.7103631545515796
 21
3.4204875531501431
 31
0.0
  0
LINE
  5
7FFE
  8
0
 10
-10.7112025365355095
 20
3.418466828049969
 30
0.0
 11
-10.7103631530777506
 21
3.4186360551251789
 31
0.0
  0
LINE
  5
7FFF
  8
0
 10
-10.7103631530777506
 20
3.4186360551251789
 30
0.0
 11
-10.6933154102184407
 21
3.4202575415638492
 31
0.0
  0
LINE
  5
8000
  8
0
 10
-10.6933154102184407
 20
3.4202575415638492
 30
0.0
 11
-10.6933154090829792
 21
3.4187872792638498
 31
0.0
  0
LINE
  5
8001
  8
0
 10
-10.6933154090829792
 20
3.4187872792638498
 30
0.0
 11
-10.7103631492272005
 21
3.4156548979520731
 31
0.0
  0
LINE
  5
8002
  8
0
 10
-10.7103631492272005
 20
3.4156548979520731
 30
0.0
 11
-10.71120253428818
 21
3.4155568447747342
 31
0.0
  0
LINE
  5
8003
  8
0
 10
-10.71120253428818
 20
3.4155568447747342
 30
0.0
 11
-10.7112025365355095
 21
3.418466828049969
 31
0.0
  0
LINE
  5
8004
  8
0
 10
-10.7103631507790205
 20
3.4156548977692229
 30
0.0
 11
-10.71030684092878
 21
3.4186414112234411
 31
0.0
  0
ARC
  5
8005
  8
0
 10
-10.52666239287678
 20
3.7493835757247371
 30
0.0
 40
0.2802657217189744
 50
283.714453932081824
 51
312.2838575891178721
  0
ARC
  5
8006
  8
0
 10
-10.7927652224712691
 20
4.3678536869355638
 30
0.0
 40
0.9708375958197168
 50
269.9342270748178976
 51
276.3257899284722043
  0
ARC
  5
8007
  8
0
 10
-10.5104719807473295
 20
3.4944011241399449
 30
0.0
 40
0.0315523272810756
 50
336.0313081128517751
 51
28.6506769263681313
  0
LINE
  5
8008
  8
0
 10
-11.6224387336280603
 20
0.3480957377
 30
0.0
 11
-9.9652366949304856
 21
0.3481048224000001
 31
0.0
  0
ARC
  5
8009
  8
0
 10
0.7160778755722
 20
0.84257969274884
 30
0.0
 40
0.0183430002907387
 50
219.6357588424625931
 51
268.8906724313742984
  0
ARC
  5
800A
  8
0
 10
0.7164074112349291
 20
0.8449575397269121
 30
0.0
 40
0.0207287193923555
 50
268.1072027310116823
 51
330.4995298492980282
  0
ARC
  5
800B
  8
0
 10
0.5612293413437222
 20
0.9242238856378657
 30
0.0
 40
0.1949628248756
 50
332.6820766915535046
 51
357.9622161922079044
  0
ARC
  5
800C
  8
0
 10
0.9916627839070351
 20
1.5777848734892039
 30
0.0
 40
0.224045613701328
 50
89.8346771621807676
 51
137.3902322359568871
  0
ARC
  5
800D
  8
0
 10
0.9990914747149091
 20
1.5708878277615901
 30
0.0
 40
0.2341823087070922
 50
137.3787661277825976
 51
162.3685730050983125
  0
ARC
  5
800E
  8
0
 10
0.9921480816788346
 20
1.5745777688941609
 30
0.0
 40
0.2272518427805125
 50
70.2421473153491291
 51
89.9593653816361751
  0
ARC
  5
800F
  8
0
 10
-11.4041953807026299
 20
5.9907153985918313
 30
0.0
 40
0.0316012376010128
 50
180.2385713495137907
 51
269.3886297028315084
  0
ARC
  5
8010
  8
0
 10
-10.7804721073056395
 20
258.2118620813038774
 30
0.0
 40
252.252256607921197
 50
269.8689942996339823
 51
269.9969546407149892
  0
ARC
  5
8011
  8
0
 10
-11.36000022478893
 20
4.7537508400745727
 30
0.0
 40
1.2065171735566229
 50
89.8689942996340534
 51
91.8974053224820864
  0
ARC
  5
8012
  8
0
 10
-11.3987374299367197
 20
5.923067135460462
 30
0.0
 40
0.0365594094823639
 50
91.8974053224843459
 51
98.1290099200228951
  0
ARC
  5
8013
  8
0
 10
-11.4033612359242298
 20
5.9554381859680428
 30
0.0
 40
0.0038597995034286
 50
98.1290099200199961
 51
107.6661959407547045
  0
ARC
  5
8014
  8
0
 10
-10.8072896568299708
 20
258.2118620811788219
 30
0.0
 40
252.252256607921197
 50
270.0030458940739209
 51
270.1310062351549846
  0
ARC
  5
8015
  8
0
 10
-10.2277591736119895
 20
4.7537508453586446
 30
0.0
 40
1.2065171735566229
 50
88.1025952123069658
 51
90.1310062351550698
  0
ARC
  5
8016
  8
0
 10
-10.1890219793783903
 20
5.9230671411060998
 30
0.0
 40
0.0365594094823639
 50
81.870990614766086
 51
88.1025952123047205
  0
ARC
  5
8017
  8
0
 10
-10.1843981736930296
 20
5.955438191656838
 30
0.0
 40
0.0038597995034286
 50
72.333804594034433
 51
81.8709906147691697
  0
ARC
  5
8018
  8
0
 10
-10.1835392929653406
 20
5.9906568421356052
 30
0.0
 40
0.0315424240547798
 50
270.5675758039295147
 51
359.8658692301618203
  0
ARC
  5
8019
  8
0
 10
-10.7876149785914492
 20
11.4959746986527591
 30
0.0
 40
5.6971486819841557
 50
261.6066673469114221
 51
269.9369960693211965
  0
LINE
  5
801A
  8
0
 10
-11.4045325729280602
 20
5.9591159600000001
 30
0.0
 11
-11.5769908238280603
 21
5.8817558730999986
 31
0.0
  0
ARC
  5
801B
  8
0
 10
-11.5849887348595004
 20
5.8517481422200488
 30
0.0
 40
0.03105528124861
 50
358.4277797471202121
 51
75.075981840936663
  0
ARC
  5
801C
  8
0
 10
-10.8001444412878893
 20
11.4959746761830193
 30
0.0
 40
5.6971486595135827
 50
270.063003923115275
 51
278.3933326765024958
  0
LINE
  5
801D
  8
0
 10
-10.1832268477280596
 20
5.9591159600000001
 30
0.0
 11
-10.0107683872523499
 21
5.881752851990151
 31
0.0
  0
ARC
  5
801E
  8
0
 10
-10.0027776468353196
 20
5.8517503490317866
 30
0.0
 40
0.0310483834712721
 50
104.9137166554559002
 51
181.576643552759208
  0
LINE
  5
801F
  8
0
 10
-9.9685435632280655
 20
5.8598463216999992
 30
0.0
 11
-9.9685435884280604
 21
6.1025023752000003
 31
0.0
  0
LINE
  5
8020
  8
0
 10
-11.6192158576280598
 20
5.8598463157999996
 30
0.0
 11
-11.6192139390270697
 21
6.1025762246073887
 31
0.0
  0
LINE
  5
8021
  8
0
 10
-11.4357963443577599
 20
5.9905838159834843
 30
0.0
 11
-11.6192158576280598
 21
5.9046493404999998
 31
0.0
  0
ARC
  5
8022
  8
0
 10
-11.5695877256227693
 20
5.9127659722950572
 30
0.0
 40
0.0318839068817701
 50
179.6458813267576886
 51
256.5330223324518215
  0
ARC
  5
8023
  8
0
 10
-10.0180899782356594
 20
5.9126362715700038
 30
0.0
 40
0.0317394281528843
 50
283.3369976086574979
 51
0.3488036810316885
  0
LINE
  5
8024
  8
0
 10
-10.1519589548633995
 20
5.990582424569884
 30
0.0
 11
-9.9685435631280601
 21
5.9046493398999997
 31
0.0
  0
LINE
  5
8025
  8
0
 10
-11.3317457802280597
 20
9.7417667759000004
 30
0.0
 11
-10.2560136181280601
 21
9.7417667760000004
 31
0.0
  0
ARC
  5
8026
  8
0
 10
-11.3317457773135892
 20
9.8146014213985726
 30
0.0
 40
0.0728346454985736
 50
182.741867748017512
 51
269.9999977073155151
  0
ARC
  5
8027
  8
0
 10
-492.5674184402275273
 20
-10.8923036017830803
 30
0.0
 40
481.6081275952686269
 50
2.4637962377584581
 51
2.944394142897568
  0
ARC
  5
8028
  8
0
 10
-10.7938805587280608
 20
14.3086959115999992
 30
0.0
 40
0.9251961831015552
 50
329.9928844491951168
 51
55.1178309361633012
  0
ARC
  5
8029
  8
0
 10
-10.7938805587280608
 20
14.3086959115999992
 30
0.0
 40
0.9251961831015552
 50
64.8821001417152701
 51
210.007349238218211
  0
ARC
  5
802A
  8
0
 10
-106.6597707859606032
 20
8.4967375670124916
 30
0.0
 40
95.2150893295659841
 50
3.220827196334985
 51
3.4696796581604472
  0
ARC
  5
802B
  8
0
 10
-10.7938786648366793
 20
14.3067762589423904
 30
0.0
 40
0.8267063178582459
 50
356.6995344909315122
 51
183.3001170076024948
  0
ARC
  5
802C
  8
0
 10
-10.2560136208651596
 20
9.8146014213175317
 30
0.0
 40
0.0728346453175313
 50
270.0000021531586185
 51
357.258132308986319
  0
ARC
  5
802D
  8
0
 10
470.9796590418712867
 20
-10.8923036017830803
 30
0.0
 40
481.6081275952686269
 50
177.0556058571023925
 51
177.536203762241513
  0
ARC
  5
802E
  8
0
 10
85.0720113876045048
 20
8.4967375670124916
 30
0.0
 40
95.2150893295659841
 50
176.5303203418395981
 51
176.7791728036650056
  0
LINE
  5
802F
  8
0
 10
-10.4514739299689197
 20
15.0592404331904905
 30
0.0
 11
-10.3707413216280599
 21
15.1990734127000007
 31
0.0
  0
ARC
  5
8030
  8
0
 10
-11.4295353832813191
 20
15.6186615735193701
 30
0.0
 40
1.1389025813000799
 50
338.3821348974158241
 51
347.3712215024418128
  0
LINE
  5
8031
  8
0
 10
-10.3181861924612104
 20
15.3696594334573398
 30
0.0
 11
-10.2190463680280601
 21
15.7926068567000009
 31
0.0
  0
ARC
  5
8032
  8
0
 10
-10.2076670541342693
 20
15.7891190903961505
 30
0.0
 40
0.0119017414364926
 50
119.9313648876118066
 51
162.9596425092790071
  0
ARC
  5
8033
  8
0
 10
-11.7863172214249303
 20
18.7096783199292993
 30
0.0
 40
3.3080125896511481
 50
298.3870206651340027
 51
298.6716738304143064
  0
ARC
  5
8034
  8
0
 10
-10.1763496403846396
 20
15.7526834907983595
 30
0.0
 40
0.0591745456287998
 50
87.8632155837600664
 51
112.6793821147614949
  0
ARC
  5
8035
  8
0
 10
-10.1824542008831802
 20
15.5890715798062907
 30
0.0
 40
0.222900301322139
 50
75.9639087096023644
 51
87.8632155837598532
  0
ARC
  5
8036
  8
0
 10
-10.1749825454048697
 20
15.6610379763429695
 30
0.0
 40
0.1444590096012963
 50
71.405688462967575
 51
104.305818848238502
  0
LINE
  5
8037
  8
0
 10
-10.31500004839633
 20
14.9806594882209598
 30
0.0
 11
-10.2343598751280602
 21
15.1203335477999996
 31
0.0
  0
ARC
  5
8038
  8
0
 10
-11.2351681590827592
 20
15.5641439086622793
 30
0.0
 40
1.094799003306572
 50
336.0850154981933997
 51
347.8201110847883228
  0
LINE
  5
8039
  8
0
 10
-10.1650130703280599
 20
15.3331613473000008
 30
0.0
 11
-10.0657236133280605
 21
15.7566602581000001
 31
0.0
  0
ARC
  5
803A
  8
0
 10
-10.1684741574859991
 20
15.6506426981680509
 30
0.0
 40
0.1597827571349495
 50
61.6882633971275425
 51
75.4725015054262798
  0
ARC
  5
803B
  8
0
 10
-10.1196804280312307
 20
15.7412180348948603
 30
0.0
 40
0.0569006903921007
 50
43.0637064335066881
 51
61.6882633971263914
  0
ARC
  5
803C
  8
0
 10
-10.8193209873165408
 20
15.2403838646718395
 30
0.0
 40
0.916873341664097
 50
35.0293219669857194
 51
36.0588780537493605
  0
ARC
  5
803D
  8
0
 10
-10.0826891214686292
 20
15.7562106777517208
 30
0.0
 40
0.0175992019217392
 50
18.8214145988598105
 51
36.4434064299990723
  0
ARC
  5
803E
  8
0
 10
-10.0758785762811502
 20
15.7586097550551507
 30
0.0
 40
0.0103790968623551
 50
357.9287678863133806
 51
18.4152214741944888
  0
ARC
  5
803F
  8
0
 10
-10.05077277917988
 20
15.7553983895598009
 30
0.0
 40
0.0150039912669589
 50
169.1036619188687951
 51
175.1756006587835941
  0
ARC
  5
8040
  8
0
 10
-10.1664468107801191
 20
15.6442295267365896
 30
0.0
 40
0.158240934207692
 50
54.5812466873323316
 51
76.2814663398399233
  0
ARC
  5
8041
  8
0
 10
-10.0884179887828296
 20
15.7539506724358507
 30
0.0
 40
0.0236035438740918
 50
32.5928915645747068
 51
54.581246687328111
  0
LINE
  5
8042
  8
0
 10
-11.3578124770739297
 20
11.1717248043000001
 30
0.0
 11
-10.2298374958280593
 21
11.1717251193999996
 31
0.0
  0
ARC
  5
8043
  8
0
 10
-10.2298375090436799
 20
11.21903356108505
 30
0.0
 40
0.0473084416850541
 50
270.0000160055844276
 51
356.4783163705620836
  0
LINE
  5
8044
  8
0
 10
-10.1825160879280592
 20
11.2161215576999993
 30
0.0
 11
-9.9989226686280581
 21
14.2610752918999992
 31
0.0
  0
ARC
  5
8045
  8
0
 10
-10.7938800090434395
 20
14.3090067053350296
 30
0.0
 40
0.7964010255356117
 50
356.5495670462418047
 51
183.51849539342399
  0
LINE
  5
8046
  8
0
 10
-11.58877985019347
 20
14.2601309852499991
 30
0.0
 11
-11.4051823680692497
 21
11.2161272678718493
 31
0.0
  0
ARC
  5
8047
  8
0
 10
-11.35792987437123
 20
11.2190684511233307
 30
0.0
 40
0.0473437923772324
 50
183.5970480811355969
 51
270.1420751531890119
  0
ARC
  5
8048
  8
0
 10
-11.5580056940473899
 20
5.2153004299997914
 30
0.0
 40
0.0625428195968512
 50
182.6661741050654086
 51
188.3527871213507865
  0
LINE
  5
8049
  8
0
 10
-11.7189725708816592
 20
0.033327274848475
 30
0.0
 11
-11.7189725708816592
 21
0.0
 31
0.0
  0
LINE
  5
804A
  8
0
 10
-9.8685826989452377
 20
0.033327274848475
 30
0.0
 11
-9.8685826989452377
 21
0.0000000000000007
 31
0.0
  0
LINE
  5
804B
  8
0
 10
-10.7937776349134502
 20
14.3086959115999992
 30
0.0
 11
-12.8622298753503106
 21
16.3767293079119582
 31
0.0
  0
LINE
  5
804C
  8
0
 10
-10.7937776349134502
 20
0.0000000000000004
 30
0.0
 11
-11.7897769921451996
 21
-0.8037362441954043
 31
0.0
  0
LINE
  5
804D
  8
0
 10
0.0
 20
0.0000000000000004
 30
0.0
 11
-2.3038321994953388
 21
-1.389442567815683
 31
0.0
  0
ENDBLK
  5
8051
  8
0
  0
ENDSEC
  0
SECTION
  2
ENTITIES
  0
ATTDEF
  5
A142
  8
DEFPOINTS
 10
3604.2880132245331879
 20
296.5810310125937121
 30
0.0
 40
0.001
  1
K-74027T-4ND
  3

  2
MODELNUMBER
 70
     0
1001
ACDBATTR
1070
     0
1070
     1
  0
ATTDEF
  5
A143
  8
DEFPOINTS
 10
3604.2880132245331879
 20
296.5793643459269902
 30
0.0
 40
0.001
  1
TAUT
  3

  2
TRADENAME
 70
     0
1001
ACDBATTR
1070
     0
1070
     1
  0
ATTDEF
  5
A144
  8
DEFPOINTS
 10
3604.2880132245331879
 20
296.577697679260325
 30
0.0
 40
0.001
  1
BATHROOM SINK FAUCET
  3

  2
PRODUCT
 70
     0
1001
ACDBATTR
1070
     0
1070
     1
  0
ARC
  5
B223
  8
0
 10
3604.1697263153259883
 20
297.8176454409347116
 30
0.0
 40
0.0196850427142281
 50
90.0000019421734834
 51
180.0297127852448966
  0
LINE
  5
B224
  8
0
 10
3604.2878365508590832
 20
297.8373304836488842
 30
0.0
 11
3604.2878365508590832
 21
295.3176536313565066
 31
0.0
  0
ARC
  5
B225
  8
0
 10
3604.1697123454059692
 20
295.3373246973952746
 30
0.0
 40
0.0196710709989328
 50
179.9831464225094066
 51
270.0406881381654784
  0
LINE
  5
B226
  8
0
 10
3604.1500412752579905
 20
295.3373304836488842
 30
0.0
 11
3604.1500412752589
 21
297.8176454397313933
 31
0.0
  0
ARC
  5
B227
  8
0
 10
3602.5612342810268274
 20
297.3727435965964787
 30
0.0
 40
0.0315242203254982
 50
90.05117229818417
 51
179.9788039111525961
  0
ARC
  5
B228
  8
0
 10
3603.0892167391762086
 20
297.3844798789468769
 30
0.0
 40
0.0197880496118633
 50
25.1370350571439687
 51
89.7969915046400047
  0
ARC
  5
B229
  8
0
 10
3603.6185452052591245
 20
297.3727717414490144
 30
0.0
 40
0.0314960629999978
 50
90.0045657308930487
 51
180.0000000000032117
  0
LINE
  5
B22A
  8
0
 10
3603.5870491422588202
 20
297.3727717414490144
 30
0.0
 11
3603.5870491422588202
 21
295.7822205603488896
 31
0.0
  0
ARC
  5
B22B
  8
0
 10
3603.6185452052591245
 20
295.7822205603488896
 30
0.0
 40
0.0314960629999988
 50
180.0000000000098055
 51
269.999999999791612
  0
LINE
  5
B22C
  8
0
 10
3603.6185452052591245
 20
295.7507244973489833
 30
0.0
 11
3604.1500412752579905
 21
295.7507244973471074
 31
0.0
  0
ARC
  5
B22D
  8
0
 10
3603.7066504404588159
 20
296.6833720558486789
 30
0.0
 40
0.8661417322997788
 50
255.8249046261979061
 51
262.0629436104168803
  0
ARC
  5
B22E
  8
0
 10
3603.7066504245590295
 20
296.4716202753630796
 30
0.0
 40
0.8661416990998427
 50
97.9370556338061249
 51
125.2131616493417994
  0
ARC
  5
B22F
  8
0
 10
3455.5820768036801383
 20
228.1432660811389042
 30
0.0
 40
162.9697865769769862
 50
24.8542044049030899
 51
25.1457930935217
  0
ARC
  5
B230
  8
0
 10
3603.0978795121859548
 20
296.4738238206708161
 30
0.0
 40
0.3967968615357961
 50
0.1960395845649651
 51
24.9510397912656217
  0
LINE
  5
B231
  8
0
 10
3603.4946740510908967
 20
296.4751814728534782
 30
0.0
 11
3603.4945294572589773
 21
295.770393054148883
 31
0.0
  0
ARC
  5
B232
  8
0
 10
3603.4748444178590034
 20
295.770393054148883
 30
0.0
 40
0.0196850394000023
 50
269.9999999968994189
 51
0.0000000000097707
  0
LINE
  5
B233
  8
0
 10
3603.4748444178580939
 20
295.7507080147490228
 30
0.0
 11
3603.2020765073089024
 21
295.7507080147636884
 31
0.0
  0
ARC
  5
B234
  8
0
 10
3603.060684193076213
 20
294.9843710823619176
 30
0.0
 40
0.7792715062714337
 50
79.5462564195950534
 51
100.4400489037442981
  0
LINE
  5
B235
  8
0
 10
3602.9194750505871525
 20
295.7507417880677849
 30
0.0
 11
3602.8782701435739
 21
295.7507516367471112
 31
0.0
  0
ARC
  5
B236
  8
0
 10
3602.8782626195420562
 20
295.7192725871378798
 30
0.0
 40
0.0314790505084014
 50
89.9863053264990072
 51
176.8004088258593072
  0
ARC
  5
B237
  8
0
 10
2043.8361119184889958
 20
382.872101909234118
 30
0.0
 40
1561.4447594242910782
 50
356.7166002244151741
 51
356.8004088258592787
  0
ARC
  5
B238
  8
0
 10
3602.6862011895191245
 20
293.4425144854666883
 30
0.0
 40
0.0315367553439056
 50
268.4181514097376748
 51
356.7061007478305896
  0
LINE
  5
B239
  8
0
 10
3602.6853306186808368
 20
293.4109897484490261
 30
0.0
 11
3602.5679986051550259
 21
293.4109897484490261
 31
0.0
  0
ARC
  5
B23A
  8
0
 10
3602.5670357047069956
 20
293.4488385439369154
 30
0.0
 40
0.0378610419449419
 50
189.6470313728881933
 51
271.457331286119711
  0
LINE
  5
B23B
  8
0
 10
3602.529710062859067
 20
293.4424938644489771
 30
0.0
 11
3602.529710062859067
 21
297.3727552588488834
 31
0.0
  0
LINE
  5
B23C
  8
0
 10
3595.8437667316588886
 20
296.2595574211773055
 30
0.0
 11
3595.8437668087590282
 21
297.048767096548886
 31
0.0
  0
ARC
  5
B23D
  8
0
 10
3595.8752901377229136
 20
297.0487670934693938
 30
0.0
 40
0.0315233289631555
 50
90.6532529641750813
 51
179.9999944026504011
  0
ARC
  5
B23E
  8
0
 10
3590.4558700516959107
 20
772.3568952151289295
 30
0.0
 40
475.3074996563000809
 50
270.6532529641751239
 51
271.4555934731881734
  0
ARC
  5
B23F
  8
0
 10
3656.6545398660468891
 20
2450.6258267726821032
 30
0.0
 40
2155.3271803339589496
 50
268.4126974959768859
 51
268.561030374834786
  0
ARC
  5
B240
  8
0
 10
3596.9528796055760722
 20
296.1419922129036877
 30
0.0
 40
0.0163399510438139
 50
243.2436937965665038
 51
265.9902512220821222
  0
ARC
  5
B241
  8
0
 10
3596.6501065805318831
 20
295.4073312081516178
 30
0.0
 40
0.7783140421459193
 50
67.6935728848481943
 51
78.1175269490396005
  0
ARC
  5
B242
  8
0
 10
3596.494706763925933
 20
294.7227650092887075
 30
0.0
 40
1.4802506708263881
 50
77.6873194221473682
 51
82.8941629939018441
  0
ARC
  5
B243
  8
0
 10
3596.3766982407969408
 20
293.7560929322563084
 30
0.0
 40
2.4540972774396561
 50
82.9520093754236285
 51
86.7175449453021656
  0
ARC
  5
B244
  8
0
 10
3596.28375847157713
 20
292.0758297542715241
 30
0.0
 40
4.1369268001176547
 50
86.7649355941797893
 51
89.1650844983150677
  0
ARC
  5
B245
  8
0
 10
3596.1791152282739858
 20
294.4190133891589767
 30
0.0
 40
1.800871772595523
 50
84.7454686896278844
 51
91.7499743760541691
  0
ARC
  5
B246
  8
0
 10
3596.0766636781158923
 20
4933.4847646402904502
 30
0.0
 40
4637.2657196398658925
 50
269.9982415590642972
 51
270.0005863480977837
  0
ARC
  5
B247
  8
0
 10
3596.7067168514950026
 20
301.6999673562875159
 30
0.0
 40
5.5350742412259457
 50
261.3120451312116188
 51
261.9786738046428809
  0
ARC
  5
B248
  8
0
 10
3595.8752630735821185
 20
296.2595578002610068
 30
0.0
 40
0.031496418011346
 50
209.3814608628979954
 51
261.5361004027121226
  0
ARC
  5
B249
  8
0
 10
3595.8752625581259963
 20
296.2595575100360747
 30
0.0
 40
0.0314958264664143
 50
180.0001616480535063
 51
209.3814608628979954
  0
LINE
  5
B24A
  8
0
 10
3596.81036522430486
 20
296.1689675487348836
 30
0.0
 11
3596.8043082351159683
 21
296.1503948672628894
 31
0.0
  0
ARC
  5
B24B
  8
0
 10
3596.7668782830292002
 20
296.1626016568687874
 30
0.0
 40
0.0393701285966726
 50
296.9376920215808013
 51
341.9376319027163049
  0
ARC
  5
B24C
  8
0
 10
-1397.6103434150149951
 20
10124.5878908329195838
 30
0.0
 40
11024.6367549554706784
 50
296.9376320930221027
 51
296.9376920215808013
  0
LINE
  5
B24D
  8
0
 10
3596.7744336990449483
 20
296.1222793121414725
 30
0.0
 11
3596.5172157156671346
 21
296.2061640100808972
 31
0.0
  0
ARC
  5
B24E
  8
0
 10
3596.6210706409588056
 20
296.7313405252489815
 30
0.0
 40
0.5883291530000146
 50
241.9087341942004912
 51
277.3184286477068099
  0
LINE
  5
B24F
  8
0
 10
3596.5100480794340001
 20
296.1850351049105825
 30
0.0
 11
3596.5217415686588538
 21
296.189146392948885
 31
0.0
  0
LINE
  5
B250
  8
0
 10
3596.5217415686588538
 20
296.189146392948885
 30
0.0
 11
3596.5413922212092075
 21
296.1859121696087982
 31
0.0
  0
LINE
  5
B251
  8
0
 10
3596.5413922212092075
 20
296.1859121696087982
 30
0.0
 11
3596.5493288010547985
 21
296.1785035421207226
 31
0.0
  0
LINE
  5
B252
  8
0
 10
3596.5493288010547985
 20
296.1785035421207226
 30
0.0
 11
3596.5376418944210855
 21
296.1744124379584946
 31
0.0
  0
LINE
  5
B253
  8
0
 10
3596.5376418944210855
 20
296.1744124379584946
 30
0.0
 11
3596.5180115128441685
 21
296.1777088189004985
 31
0.0
  0
LINE
  5
B254
  8
0
 10
3596.5180115128441685
 20
296.1777088189004985
 30
0.0
 11
3596.5100480794458235
 21
296.185035104774272
 31
0.0
  0
LINE
  5
B255
  8
0
 10
3596.5217415686588538
 20
296.189146392948885
 30
0.0
 11
3596.5180115127482168
 21
296.1777088189166989
 31
0.0
  0
LINE
  5
B256
  8
0
 10
3596.5376418943651515
 20
296.1744124379678738
 30
0.0
 11
3596.5413922212092075
 21
296.1859121696087982
 31
0.0
  0
LINE
  5
B257
  8
0
 10
3596.486075504793007
 20
296.2013151378019984
 30
0.0
 11
3596.4979195280998283
 21
296.2058880129010845
 31
0.0
  0
LINE
  5
B258
  8
0
 10
3596.4979195280998283
 20
296.2058880129010845
 30
0.0
 11
3596.5172676291431344
 21
296.2017260672994894
 31
0.0
  0
LINE
  5
B259
  8
0
 10
3596.5172676291431344
 20
296.2017260672994894
 30
0.0
 11
3596.524755346576967
 21
296.1929410802777056
 31
0.0
  0
LINE
  5
B25A
  8
0
 10
3596.524755346576967
 20
296.1929410802777056
 30
0.0
 11
3596.5129293640188735
 21
296.1884235239531904
 31
0.0
  0
LINE
  5
B25B
  8
0
 10
3596.5129293640188735
 20
296.1884235239531904
 30
0.0
 11
3596.4935973203801041
 21
296.1926347069176018
 31
0.0
  0
LINE
  5
B25C
  8
0
 10
3596.4935973203801041
 20
296.1926347069176018
 30
0.0
 11
3596.4860755048048304
 21
296.2013151376655742
 31
0.0
  0
LINE
  5
B25D
  8
0
 10
3596.4979195280998283
 20
296.2058880129010845
 30
0.0
 11
3596.4935973202841524
 21
296.1926347069336884
 31
0.0
  0
LINE
  5
B25E
  8
0
 10
3596.5129293639629395
 20
296.1884235239626264
 30
0.0
 11
3596.5172676291431344
 21
296.2017260672994894
 31
0.0
  0
LINE
  5
B25F
  8
0
 10
3596.4559958885438391
 20
296.1988689789951081
 30
0.0
 11
3596.4673653656991519
 21
296.2019867398229849
 31
0.0
  0
LINE
  5
B260
  8
0
 10
3596.4673653656991519
 20
296.2019867398229849
 30
0.0
 11
3596.4863890112360423
 21
296.1968299075786035
 31
0.0
  0
LINE
  5
B261
  8
0
 10
3596.4863890112360423
 20
296.1968299075786035
 30
0.0
 11
3596.4940365200950509
 21
296.1885348936901892
 31
0.0
  0
LINE
  5
B262
  8
0
 10
3596.4940365200950509
 20
296.1885348936901892
 30
0.0
 11
3596.4826135701741805
 21
296.1854844181000885
 31
0.0
  0
LINE
  5
B263
  8
0
 10
3596.4826135701741805
 20
296.1854844181000885
 30
0.0
 11
3596.4636661350191389
 21
296.190643686279202
 31
0.0
  0
LINE
  5
B264
  8
0
 10
3596.4636661350191389
 20
296.190643686279202
 30
0.0
 11
3596.4559958885561173
 21
296.1988689788586839
 31
0.0
  0
LINE
  5
B265
  8
0
 10
3596.4673653656991519
 20
296.2019867398229849
 30
0.0
 11
3596.4636661349231872
 21
296.1906436862952887
 31
0.0
  0
LINE
  5
B266
  8
0
 10
3596.4826135701177918
 20
296.1854844181095245
 30
0.0
 11
3596.4863890112360423
 21
296.1968299075786035
 31
0.0
  0
LINE
  5
B267
  8
0
 10
3596.4800198697889755
 20
296.182746575684007
 30
0.0
 11
3596.4912497390801036
 21
296.1854362529153946
 31
0.0
  0
LINE
  5
B268
  8
0
 10
3596.4912497390801036
 20
296.1854362529153946
 30
0.0
 11
3596.510573398366887
 21
296.1811993612101901
 31
0.0
  0
LINE
  5
B269
  8
0
 10
3596.510573398366887
 20
296.1811993612101901
 30
0.0
 11
3596.5186562211711134
 21
296.1742391625746222
 31
0.0
  0
LINE
  5
B26A
  8
0
 10
3596.5186562211711134
 20
296.1742391625746222
 30
0.0
 11
3596.5074334395399092
 21
296.171571217756707
 31
0.0
  0
LINE
  5
B26B
  8
0
 10
3596.5074334395399092
 20
296.171571217756707
 30
0.0
 11
3596.4881206072532223
 21
296.175841308609904
 31
0.0
  0
LINE
  5
B26C
  8
0
 10
3596.4881206072532223
 20
296.175841308609904
 30
0.0
 11
3596.4800198698007989
 21
296.1827465755478102
 31
0.0
  0
LINE
  5
B26D
  8
0
 10
3596.4912497390801036
 20
296.1854362529153946
 30
0.0
 11
3596.4881206071559063
 21
296.1758413086259907
 31
0.0
  0
LINE
  5
B26E
  8
0
 10
3596.5074334394839752
 20
296.1715712177660862
 30
0.0
 11
3596.510573398366887
 21
296.1811993612101901
 31
0.0
  0
LINE
  5
B26F
  8
0
 10
3596.5049180432501998
 20
296.1693047322747248
 30
0.0
 11
3596.5160209623068113
 21
296.1716051392393183
 31
0.0
  0
LINE
  5
B270
  8
0
 10
3596.5160209623068113
 20
296.1716051392393183
 30
0.0
 11
3596.5356408826592087
 21
296.1682766801488924
 31
0.0
  0
LINE
  5
B271
  8
0
 10
3596.5356408826592087
 20
296.1682766801488924
 30
0.0
 11
3596.5441445138480958
 21
296.1626068180194125
 31
0.0
  0
LINE
  5
B272
  8
0
 10
3596.5441445138480958
 20
296.1626068180194125
 30
0.0
 11
3596.5330410900528477
 21
296.1603048633194248
 31
0.0
  0
LINE
  5
B273
  8
0
 10
3596.5330410900528477
 20
296.1603048633194248
 30
0.0
 11
3596.5134344107268589
 21
296.1636739232989726
 31
0.0
  0
LINE
  5
B274
  8
0
 10
3596.5134344107268589
 20
296.1636739232989726
 30
0.0
 11
3596.5049180432620233
 21
296.1693047321385279
 31
0.0
  0
LINE
  5
B275
  8
0
 10
3596.5160209623068113
 20
296.1716051392393183
 30
0.0
 11
3596.5134344106309072
 21
296.1636739233151161
 31
0.0
  0
LINE
  5
B276
  8
0
 10
3596.5330410899978233
 20
296.160304863328804
 30
0.0
 11
3596.5356408826592087
 21
296.1682766801488924
 31
0.0
  0
LINE
  5
B277
  8
0
 10
3596.3985573682139147
 20
296.2023192572078756
 30
0.0
 11
3596.4093021257272085
 21
296.2026693294266124
 31
0.0
  0
LINE
  5
B278
  8
0
 10
3596.4093021257272085
 20
296.2026693294266124
 30
0.0
 11
3596.4274575363851909
 21
296.195702297566072
 31
0.0
  0
LINE
  5
B279
  8
0
 10
3596.4274575363851909
 20
296.195702297566072
 30
0.0
 11
3596.4353941162321462
 21
296.1882936700779965
 31
0.0
  0
LINE
  5
B27A
  8
0
 10
3596.4353941162321462
 20
296.1882936700779965
 30
0.0
 11
3596.4249061783730212
 21
296.1878789970481876
 31
0.0
  0
LINE
  5
B27B
  8
0
 10
3596.4249061783730212
 20
296.1878789970481876
 30
0.0
 11
3596.4066894768247948
 21
296.195084138150321
 31
0.0
  0
LINE
  5
B27C
  8
0
 10
3596.4066894768247948
 20
296.195084138150321
 30
0.0
 11
3596.3985573682261929
 21
296.2023192570716787
 31
0.0
  0
LINE
  5
B27D
  8
0
 10
3596.4093021257272085
 20
296.2026693294266124
 30
0.0
 11
3596.4066894767288431
 21
296.1950841381665214
 31
0.0
  0
LINE
  5
B27E
  8
0
 10
3596.4249061783170873
 20
296.1878789970575099
 30
0.0
 11
3596.4274575363851909
 21
296.195702297566072
 31
0.0
  0
LINE
  5
B27F
  8
0
 10
3596.4508980931382212
 20
296.1832374670204899
 30
0.0
 11
3596.461691503514885
 21
296.1845888193681162
 31
0.0
  0
LINE
  5
B280
  8
0
 10
3596.461691503514885
 20
296.1845888193681162
 30
0.0
 11
3596.4807052083110648
 21
296.1794015044745834
 31
0.0
  0
LINE
  5
B281
  8
0
 10
3596.4807052083110648
 20
296.1794015044745834
 30
0.0
 11
3596.4889211671888916
 21
296.1728495446886882
 31
0.0
  0
LINE
  5
B282
  8
0
 10
3596.4889211671888916
 20
296.1728495446886882
 30
0.0
 11
3596.4781345260371381
 21
296.1715189500313841
 31
0.0
  0
LINE
  5
B283
  8
0
 10
3596.4781345260371381
 20
296.1715189500313841
 30
0.0
 11
3596.4591251106030541
 21
296.1767194165398109
 31
0.0
  0
LINE
  5
B284
  8
0
 10
3596.4591251106030541
 20
296.1767194165398109
 30
0.0
 11
3596.4508980931509541
 21
296.1832374668841794
 31
0.0
  0
LINE
  5
B285
  8
0
 10
3596.461691503514885
 20
296.1845888193681162
 30
0.0
 11
3596.4591251105071024
 21
296.1767194165560113
 31
0.0
  0
LINE
  5
B286
  8
0
 10
3596.4781345259821137
 20
296.1715189500408201
 30
0.0
 11
3596.4807052083110648
 21
296.1794015044745834
 31
0.0
  0
LINE
  5
B287
  8
0
 10
3596.4758194712198929
 20
296.1698667767975053
 30
0.0
 11
3596.4864921482239879
 21
296.1708479206852758
 31
0.0
  0
LINE
  5
B288
  8
0
 10
3596.4864921482239879
 20
296.1708479206852758
 30
0.0
 11
3596.5057994977278213
 21
296.1665610160458755
 31
0.0
  0
LINE
  5
B289
  8
0
 10
3596.5057994977278213
 20
296.1665610160458755
 30
0.0
 11
3596.5144273978148703
 21
296.161272203614601
 31
0.0
  0
LINE
  5
B28A
  8
0
 10
3596.5144273978148703
 20
296.161272203614601
 30
0.0
 11
3596.503755725414976
 21
296.1602941397683821
 31
0.0
  0
LINE
  5
B28B
  8
0
 10
3596.503755725414976
 20
296.1602941397683821
 30
0.0
 11
3596.4844550947459538
 21
296.1646016468293965
 31
0.0
  0
LINE
  5
B28C
  8
0
 10
3596.4844550947459538
 20
296.1646016468293965
 30
0.0
 11
3596.4758194712321711
 21
296.1698667766611948
 31
0.0
  0
LINE
  5
B28D
  8
0
 10
3596.4864921482239879
 20
296.1708479206852758
 30
0.0
 11
3596.4844550946500021
 21
296.1646016468454832
 31
0.0
  0
LINE
  5
B28E
  8
0
 10
3596.5037557253590421
 20
296.1602941397778181
 30
0.0
 11
3596.5057994977278213
 21
296.1665610160458755
 31
0.0
  0
LINE
  5
B28F
  8
0
 10
3596.426837156547208
 20
296.1992465532802044
 30
0.0
 11
3596.4381750771049155
 21
296.201415457925691
 31
0.0
  0
LINE
  5
B290
  8
0
 10
3596.4381750771049155
 20
296.201415457925691
 30
0.0
 11
3596.4564761852689116
 21
296.1948951820194225
 31
0.0
  0
LINE
  5
B291
  8
0
 10
3596.4564761852689116
 20
296.1948951820194225
 30
0.0
 11
3596.4642670676112175
 21
296.1870397985771888
 31
0.0
  0
LINE
  5
B292
  8
0
 10
3596.4642670676112175
 20
296.1870397985771888
 30
0.0
 11
3596.4533568540118722
 21
296.1853302901305938
 31
0.0
  0
LINE
  5
B293
  8
0
 10
3596.4533568540118722
 20
296.1853302901305938
 30
0.0
 11
3596.4346418983650437
 21
296.1914336674564083
 31
0.0
  0
LINE
  5
B294
  8
0
 10
3596.4346418983650437
 20
296.1914336674564083
 30
0.0
 11
3596.4268371565590314
 21
296.1992465531438938
 31
0.0
  0
LINE
  5
B295
  8
0
 10
3596.4381750771049155
 20
296.201415457925691
 30
0.0
 11
3596.4346418982681826
 21
296.191433667472495
 31
0.0
  0
LINE
  5
B296
  8
0
 10
3596.4533568539559383
 20
296.1853302901399161
 30
0.0
 11
3596.4564761852689116
 21
296.1948951820194225
 31
0.0
  0
LINE
  5
B297
  8
0
 10
3596.4226425736119381
 20
296.1863845870586829
 30
0.0
 11
3596.4330184044638372
 21
296.1864555035913895
 31
0.0
  0
LINE
  5
B298
  8
0
 10
3596.4330184044638372
 20
296.1864555035913895
 30
0.0
 11
3596.4517333602789222
 21
296.1803521262526147
 31
0.0
  0
LINE
  5
B299
  8
0
 10
3596.4517333602789222
 20
296.1803521262526147
 30
0.0
 11
3596.4600724846709454
 21
296.1741778323097947
 31
0.0
  0
LINE
  5
B29A
  8
0
 10
3596.4600724846709454
 20
296.1741778323097947
 30
0.0
 11
3596.4497023917410843
 21
296.1741245106375118
 31
0.0
  0
LINE
  5
B29B
  8
0
 10
3596.4497023917410843
 20
296.1741245106375118
 30
0.0
 11
3596.4308985266520722
 21
296.1802892978436148
 31
0.0
  0
LINE
  5
B29C
  8
0
 10
3596.4308985266520722
 20
296.1802892978436148
 30
0.0
 11
3596.4226425736242163
 21
296.1863845869223724
 31
0.0
  0
LINE
  5
B29D
  8
0
 10
3596.4330184044638372
 20
296.1864555035913895
 30
0.0
 11
3596.4308985265561205
 21
296.1802892978598152
 31
0.0
  0
LINE
  5
B29E
  8
0
 10
3596.4497023916860599
 20
296.1741245106467773
 30
0.0
 11
3596.4517333602789222
 21
296.1803521262526147
 31
0.0
  0
LINE
  5
B29F
  8
0
 10
3596.5349140138910116
 20
296.1714944061025108
 30
0.0
 11
3596.5464728997508246
 21
296.1751929565916157
 31
0.0
  0
LINE
  5
B2A0
  8
0
 10
3596.5464728997508246
 20
296.1751929565916157
 30
0.0
 11
3596.5664238495592144
 21
296.1728795425490262
 31
0.0
  0
LINE
  5
B2A1
  8
0
 10
3596.5664238495592144
 20
296.1728795425490262
 30
0.0
 11
3596.5747930030352109
 21
296.166797327704387
 31
0.0
  0
LINE
  5
B2A2
  8
0
 10
3596.5747930030352109
 20
296.166797327704387
 30
0.0
 11
3596.5632309667707887
 21
296.163089116758897
 31
0.0
  0
LINE
  5
B2A3
  8
0
 10
3596.5632309667707887
 20
296.163089116758897
 30
0.0
 11
3596.5433026597438584
 21
296.1654719607797119
 31
0.0
  0
LINE
  5
B2A4
  8
0
 10
3596.5433026597438584
 20
296.1654719607797119
 30
0.0
 11
3596.534914013902835
 21
296.1714944059663139
 31
0.0
  0
LINE
  5
B2A5
  8
0
 10
3596.5464728997508246
 20
296.1751929565916157
 30
0.0
 11
3596.5433026596479067
 21
296.1654719607957986
 31
0.0
  0
LINE
  5
B2A6
  8
0
 10
3596.563230966716219
 20
296.1630891167682762
 30
0.0
 11
3596.5664238495592144
 21
296.1728795425490262
 31
0.0
  0
LINE
  5
B2A7
  8
0
 10
3596.5606486523470267
 20
296.1606174383744019
 30
0.0
 11
3596.5722466665488355
 21
296.1640099220517754
 31
0.0
  0
LINE
  5
B2A8
  8
0
 10
3596.5722466665488355
 20
296.1640099220517754
 30
0.0
 11
3596.5923395953591353
 21
296.162557909249017
 31
0.0
  0
LINE
  5
B2A9
  8
0
 10
3596.5923395953591353
 20
296.162557909249017
 30
0.0
 11
3596.6011322807457873
 21
296.1577743821197828
 31
0.0
  0
LINE
  5
B2AA
  8
0
 10
3596.6011322807457873
 20
296.1577743821197828
 30
0.0
 11
3596.5896832426828951
 21
296.154412661244578
 31
0.0
  0
LINE
  5
B2AB
  8
0
 10
3596.5896832426828951
 20
296.154412661244578
 30
0.0
 11
3596.5694530429527731
 21
296.1558698026191792
 31
0.0
  0
LINE
  5
B2AC
  8
0
 10
3596.5694530429527731
 20
296.1558698026191792
 30
0.0
 11
3596.5606486523602143
 21
296.1606174382380914
 31
0.0
  0
LINE
  5
B2AD
  8
0
 10
3596.5722466665488355
 20
296.1640099220517754
 30
0.0
 11
3596.5694530428568214
 21
296.1558698026353227
 31
0.0
  0
LINE
  5
B2AE
  8
0
 10
3596.5896832426269611
 20
296.1544126612539003
 30
0.0
 11
3596.5923395953591353
 21
296.162557909249017
 31
0.0
  0
LINE
  5
B2AF
  8
0
 10
3596.5915789287519146
 20
296.1656720000501082
 30
0.0
 11
3596.603502028389812
 21
296.1704873493026184
 31
0.0
  0
LINE
  5
B2B0
  8
0
 10
3596.603502028389812
 20
296.1704873493026184
 30
0.0
 11
3596.6241204225839283
 21
296.1702205381261024
 31
0.0
  0
LINE
  5
B2B1
  8
0
 10
3596.6241204225839283
 20
296.1702205381261024
 30
0.0
 11
3596.6327786581578039
 21
296.1650247440434782
 31
0.0
  0
LINE
  5
B2B2
  8
0
 10
3596.6327786581578039
 20
296.1650247440434782
 30
0.0
 11
3596.6208372102842077
 21
296.1601531334276274
 31
0.0
  0
LINE
  5
B2B3
  8
0
 10
3596.6208372102842077
 20
296.1601531334276274
 30
0.0
 11
3596.6002555175291491
 21
296.160532482408712
 31
0.0
  0
LINE
  5
B2B4
  8
0
 10
3596.6002555175291491
 20
296.160532482408712
 30
0.0
 11
3596.5915789287651023
 21
296.1656719999139113
 31
0.0
  0
LINE
  5
B2B5
  8
0
 10
3596.603502028389812
 20
296.1704873493026184
 30
0.0
 11
3596.6002555174331974
 21
296.1605324824247987
 31
0.0
  0
LINE
  5
B2B6
  8
0
 10
3596.6208372102291833
 20
296.1601531334370065
 30
0.0
 11
3596.6241204225839283
 21
296.1702205381261024
 31
0.0
  0
LINE
  5
B2B7
  8
0
 10
3596.5658636494231359
 20
296.1766083290410165
 30
0.0
 11
3596.5780869801428707
 21
296.1818014941600836
 31
0.0
  0
LINE
  5
B2B8
  8
0
 10
3596.5780869801428707
 20
296.1818014941600836
 30
0.0
 11
3596.597971652358865
 21
296.1798276424490268
 31
0.0
  0
LINE
  5
B2B9
  8
0
 10
3596.597971652358865
 20
296.1798276424490268
 30
0.0
 11
3596.6064433714759616
 21
296.1740599276271269
 31
0.0
  0
LINE
  5
B2BA
  8
0
 10
3596.6064433714759616
 20
296.1740599276271269
 30
0.0
 11
3596.5943853425587804
 21
296.1688308408490116
 31
0.0
  0
LINE
  5
B2BB
  8
0
 10
3596.5943853425587804
 20
296.1688308408490116
 30
0.0
 11
3596.5741132106068108
 21
296.1701594048760171
 31
0.0
  0
LINE
  5
B2BC
  8
0
 10
3596.5741132106068108
 20
296.1701594048760171
 30
0.0
 11
3596.5658636494358689
 21
296.176608328904706
 31
0.0
  0
LINE
  5
B2BD
  8
0
 10
3596.5780869801428707
 20
296.1818014941600836
 30
0.0
 11
3596.5741132105122233
 21
296.1701594048922175
 31
0.0
  0
LINE
  5
B2BE
  8
0
 10
3596.5943853425028465
 20
296.168830840858277
 30
0.0
 11
3596.597971652358865
 21
296.1798276424490268
 31
0.0
  0
LINE
  5
B2BF
  8
0
 10
3596.3711297108347935
 20
296.2080048739084077
 30
0.0
 11
3596.3812167662590582
 21
296.2071903090488831
 31
0.0
  0
LINE
  5
B2C0
  8
0
 10
3596.3812167662590582
 20
296.2071903090488831
 30
0.0
 11
3596.3993183578500066
 21
296.1992061569019938
 31
0.0
  0
LINE
  5
B2C1
  8
0
 10
3596.3993183578500066
 20
296.1992061569019938
 30
0.0
 11
3596.406806538193905
 21
296.192216100756184
 31
0.0
  0
LINE
  5
B2C2
  8
0
 10
3596.406806538193905
 20
296.192216100756184
 30
0.0
 11
3596.3973022747709365
 21
296.1930241850984089
 31
0.0
  0
LINE
  5
B2C3
  8
0
 10
3596.3973022747709365
 20
296.1930241850984089
 30
0.0
 11
3596.3791729935369403
 21
296.2009234328098728
 31
0.0
  0
LINE
  5
B2C4
  8
0
 10
3596.3791729935369403
 20
296.2009234328098728
 30
0.0
 11
3596.3711297108479812
 21
296.2080048737719835
 31
0.0
  0
LINE
  5
B2C5
  8
0
 10
3596.3812167662590582
 20
296.2071903090488831
 30
0.0
 11
3596.3791729934418981
 21
296.2009234328260163
 31
0.0
  0
LINE
  5
B2C6
  8
0
 10
3596.3973022747150026
 20
296.1930241851077881
 30
0.0
 11
3596.3993183578500066
 21
296.1992061569019938
 31
0.0
  0
LINE
  5
B2C7
  8
0
 10
3596.6564417367221722
 20
296.1477956948128281
 30
0.0
 11
3596.6468026974671375
 21
296.1499840238620891
 31
0.0
  0
LINE
  5
B2C8
  8
0
 10
3596.6468026974671375
 20
296.1499840238620891
 30
0.0
 11
3596.6259182464827973
 21
296.1494350164734897
 31
0.0
  0
LINE
  5
B2C9
  8
0
 10
3596.6259182464827973
 20
296.1494350164734897
 30
0.0
 11
3596.6152404673589444
 21
296.1468752035489729
 31
0.0
  0
LINE
  5
B2CA
  8
0
 10
3596.6152404673589444
 20
296.1468752035489729
 30
0.0
 11
3596.6564417366857924
 21
296.1477956948045858
 31
0.0
  0
LINE
  5
B2CB
  8
0
 10
3596.6181746010151983
 20
296.1574352441808173
 30
0.0
 11
3596.6299841732961795
 21
296.1619024809654093
 31
0.0
  0
LINE
  5
B2CC
  8
0
 10
3596.6299841732961795
 20
296.1619024809654093
 30
0.0
 11
3596.6507732754689641
 21
296.1626078192795717
 31
0.0
  0
LINE
  5
B2CD
  8
0
 10
3596.6513133154071511
 20
296.1624316998467066
 30
0.0
 11
3596.6600144352710231
 21
296.1587507596393039
 31
0.0
  0
LINE
  5
B2CE
  8
0
 10
3596.6600144352710231
 20
296.1587507596393039
 30
0.0
 11
3596.6481762027337936
 21
296.1541956408593137
 31
0.0
  0
LINE
  5
B2CF
  8
0
 10
3596.6481762027337936
 20
296.1541956408593137
 30
0.0
 11
3596.6272741922848581
 21
296.1535927905248968
 31
0.0
  0
LINE
  5
B2D0
  8
0
 10
3596.6272741922848581
 20
296.1535927905248968
 30
0.0
 11
3596.6181746010320239
 21
296.1574352441353994
 31
0.0
  0
LINE
  5
B2D1
  8
0
 10
3596.5872410209040027
 20
296.1523705523554213
 30
0.0
 11
3596.5985676946188505
 21
296.1553570637819917
 31
0.0
  0
LINE
  5
B2D2
  8
0
 10
3596.5985676946188505
 20
296.1553570637819917
 30
0.0
 11
3596.6191308635889072
 21
296.1549209144260999
 31
0.0
  0
LINE
  5
B2D3
  8
0
 10
3596.6191308635889072
 20
296.1549209144260999
 30
0.0
 11
3596.6283446653010287
 21
296.1514286688442894
 31
0.0
  0
LINE
  5
B2D4
  8
0
 10
3596.6283446653010287
 20
296.1514286688442894
 30
0.0
 11
3596.6169985019878368
 21
296.1483823951369914
 31
0.0
  0
LINE
  5
B2D5
  8
0
 10
3596.6169985019878368
 20
296.1483823951369914
 30
0.0
 11
3596.5964579740748377
 21
296.14888796889079
 31
0.0
  0
LINE
  5
B2D6
  8
0
 10
3596.5964579740748377
 20
296.14888796889079
 30
0.0
 11
3596.5872410209040027
 21
296.1523705523554213
 31
0.0
  0
LINE
  5
B2D7
  8
0
 10
3596.5976813666088674
 20
296.1471927482629098
 30
0.0
 11
3596.5883535108278011
 21
296.1503352672410188
 31
0.0
  0
LINE
  5
B2D8
  8
0
 10
3596.5883535108278011
 20
296.1503352672410188
 30
0.0
 11
3596.5681347643449044
 21
296.1518275284972788
 31
0.0
  0
LINE
  5
B2D9
  8
0
 10
3596.5681347643449044
 20
296.1518275284972788
 30
0.0
 11
3596.5572571202988001
 21
296.1502178892985171
 31
0.0
  0
LINE
  5
B2DA
  8
0
 10
3596.5572571202988001
 20
296.1502178892985171
 30
0.0
 11
3596.5976813666088674
 21
296.1471927482629098
 31
0.0
  0
LINE
  5
B2DB
  8
0
 10
3596.5306672361230085
 20
296.1584723928482958
 30
0.0
 11
3596.5416533899438036
 21
296.1604147588670912
 31
0.0
  0
LINE
  5
B2DC
  8
0
 10
3596.5416533899438036
 20
296.1604147588670912
 30
0.0
 11
3596.5615702435329695
 21
296.157996794853716
 31
0.0
  0
LINE
  5
B2DD
  8
0
 10
3596.5615702435329695
 20
296.157996794853716
 30
0.0
 11
3596.5704868391308082
 21
296.1535932174446089
 31
0.0
  0
LINE
  5
B2DE
  8
0
 10
3596.5704868391308082
 20
296.1535932174446089
 30
0.0
 11
3596.5594936749030239
 21
296.1516293548971248
 31
0.0
  0
LINE
  5
B2DF
  8
0
 10
3596.5594936749030239
 20
296.1516293548971248
 30
0.0
 11
3596.5395908432460601
 21
296.1540903140370915
 31
0.0
  0
LINE
  5
B2E0
  8
0
 10
3596.5395908432460601
 20
296.1540903140370915
 30
0.0
 11
3596.530667235987039
 21
296.158472392920487
 31
0.0
  0
LINE
  5
B2E1
  8
0
 10
3596.501579147125085
 20
296.1590665817172976
 30
0.0
 11
3596.5121388521010886
 21
296.1597013157706897
 31
0.0
  0
LINE
  5
B2E2
  8
0
 10
3596.5121388521010886
 20
296.1597013157706897
 30
0.0
 11
3596.5317390441759926
 21
296.1563123639795094
 31
0.0
  0
LINE
  5
B2E3
  8
0
 10
3596.5317390441759926
 20
296.1563123639795094
 30
0.0
 11
3596.5407719932591135
 21
296.1522655640488892
 31
0.0
  0
LINE
  5
B2E4
  8
0
 10
3596.5407719932591135
 20
296.1522655640488892
 30
0.0
 11
3596.5015791470591466
 21
296.1590665817490162
 31
0.0
  0
LINE
  5
B2E5
  8
0
 10
3596.447579203416808
 20
296.1730606629481031
 30
0.0
 11
3596.4578394326417765
 21
296.1727771062177794
 31
0.0
  0
LINE
  5
B2E6
  8
0
 10
3596.4578394326417765
 20
296.1727771062177794
 30
0.0
 11
3596.476846745389139
 21
296.1675701922379176
 31
0.0
  0
LINE
  5
B2E7
  8
0
 10
3596.476846745389139
 20
296.1675701922379176
 30
0.0
 11
3596.4855913803589829
 21
296.162639326448982
 31
0.0
  0
LINE
  5
B2E8
  8
0
 10
3596.4855913803589829
 20
296.162639326448982
 30
0.0
 11
3596.4475792033540529
 21
296.1730606629517979
 31
0.0
  0
LINE
  5
B2E9
  8
0
 10
3596.3952275813589949
 20
296.1921090388490256
 30
0.0
 11
3596.4051979020050567
 21
296.1909365273139088
 31
0.0
  0
LINE
  5
B2EA
  8
0
 10
3596.4051979020050567
 20
296.1909365273139088
 30
0.0
 11
3596.4236205002957831
 21
296.1839366867631043
 31
0.0
  0
LINE
  5
B2EB
  8
0
 10
3596.4236205002957831
 20
296.1839366867631043
 30
0.0
 11
3596.4320752265680312
 21
296.1781168662481036
 31
0.0
  0
LINE
  5
B2EC
  8
0
 10
3596.4320752265680312
 20
296.1781168662481036
 30
0.0
 11
3596.3952275813589949
 21
296.1921090388490256
 31
0.0
  0
LINE
  5
B2ED
  8
0
 10
3596.3842430477097878
 20
296.2115360058675151
 30
0.0
 11
3596.4009677868589279
 21
296.2042638469490043
 31
0.0
  0
LINE
  5
B2EE
  8
0
 10
3596.4009677868589279
 20
296.2042638469490043
 30
0.0
 11
3596.4115820051310948
 21
296.2050657366389146
 31
0.0
  0
LINE
  5
B2EF
  8
0
 10
3596.4115820051310948
 20
296.2050657366389146
 30
0.0
 11
3596.4064928327670714
 21
296.2109355118204803
 31
0.0
  0
LINE
  5
B2F0
  8
0
 10
3596.4093475916579337
 20
296.2108449919182931
 30
0.0
 11
3596.4110343824581832
 21
296.2088330896305024
 31
0.0
  0
LINE
  5
B2F1
  8
0
 10
3596.4110343824581832
 20
296.2088330896305024
 30
0.0
 11
3596.4294472027590928
 21
296.201803266748982
 31
0.0
  0
LINE
  5
B2F2
  8
0
 10
3596.4294472027590928
 20
296.201803266748982
 30
0.0
 11
3596.4404919117318968
 21
296.2039251822689039
 31
0.0
  0
LINE
  5
B2F3
  8
0
 10
3596.4404919117318968
 20
296.2039251822689039
 30
0.0
 11
3596.4355845640870939
 21
296.2099695907023147
 31
0.0
  0
LINE
  5
B2F4
  8
0
 10
3596.4387825962830902
 20
296.2098509044702155
 30
0.0
 11
3596.4401012239000011
 21
296.2081737485394797
 31
0.0
  0
LINE
  5
B2F5
  8
0
 10
3596.4401012239000011
 20
296.2081737485394797
 30
0.0
 11
3596.4588161793890322
 21
296.2020703714408114
 31
0.0
  0
LINE
  5
B2F6
  8
0
 10
3596.4588161793890322
 20
296.2020703714408114
 30
0.0
 11
3596.470313811215874
 21
296.2055810967920024
 31
0.0
  0
LINE
  5
B2F7
  8
0
 10
3596.470313811215874
 20
296.2055810967920024
 30
0.0
 11
3596.4679461213181639
 21
296.2086542435541219
 31
0.0
  0
LINE
  5
B2F8
  8
0
 10
3596.551376267579144
 20
296.1950223864732266
 30
0.0
 11
3596.54146997739781
 21
296.1898270561849813
 31
0.0
  0
LINE
  5
B2F9
  8
0
 10
3596.54146997739781
 20
296.1898270561849813
 30
0.0
 11
3596.5488523297549364
 21
296.1824890684919183
 31
0.0
  0
LINE
  5
B2FA
  8
0
 10
3596.5488523297549364
 20
296.1824890684919183
 30
0.0
 11
3596.5688208391029548
 21
296.1802294979872272
 31
0.0
  0
LINE
  5
B2FB
  8
0
 10
3596.5688208391029548
 20
296.1802294979872272
 30
0.0
 11
3596.5803916150171062
 21
296.1855597405452727
 31
0.0
  0
LINE
  5
B2FC
  8
0
 10
3604.1696983768601967
 20
295.3176536313565066
 30
0.0
 11
3604.2878365508590832
 21
295.3176536313565066
 31
0.0
  0
LINE
  5
B2FD
  8
0
 10
3604.2878365508590832
 20
297.8373304836488842
 30
0.0
 11
3604.1697263146697878
 21
297.8373304836488842
 31
0.0
  0
LINE
  5
B2FE
  8
0
 10
3602.5612061258339054
 20
297.4042678043488195
 30
0.0
 11
3603.0892868514179099
 21
297.4042678043488195
 31
0.0
  0
LINE
  5
B2FF
  8
0
 10
3603.618542694037842
 20
297.4042678043488195
 30
0.0
 11
3604.1500412752589
 21
297.4042678043488195
 31
0.0
  0
ENDSEC
  0
EOF
