  0
SECTION
  2
HEADER
  9
$ACADVER
  1
AC1009
  9
$INSBASE
 10
519.4239782080874193
 20
-9.223011864896133
 30
0.0
  9
$EXTMIN
 10
514.8402421628095453
 20
-9.2232031260597864
 30
-0.0000000000000058
  9
$EXTMAX
 10
520.3588258356845699
 20
-3.075104695124792
 30
0.0000000000000104
  9
$LIMMIN
 10
0.0
 20
0.0
  9
$LIMMAX
 10
11.6929133858000007
 20
8.2677165353999982
  9
$ORTHOMODE
 70
     0
  9
$REGENMODE
 70
     1
  9
$FILLMODE
 70
     1
  9
$QTEXTMODE
 70
     0
  9
$MIRRTEXT
 70
     0
  9
$DRAGMODE
 70
     2
  9
$LTSCALE
 40
0.6431102362
  9
$OSMODE
 70
  4095
  9
$ATTMODE
 70
     1
  9
$TEXTSIZE
 40
0.2
  9
$TRACEWID
 40
0.05
  9
$TEXTSTYLE
  7
STANDARD
  9
$CLAYER
  8
DEFPOINT
  9
$CELTYPE
  6
BYLAYER
  9
$CECOLOR
 62
   256
  9
$DIMSCALE
 40
1.0
  9
$DIMASZ
 40
0.1875
  9
$DIMEXO
 40
0.0625
  9
$DIMDLI
 40
0.4443307087
  9
$DIMRND
 40
0.0
  9
$DIMDLE
 40
0.0
  9
$DIMEXE
 40
0.125
  9
$DIMTP
 40
0.01
  9
$DIMTM
 40
0.01
  9
$DIMTXT
 40
1.0
  9
$DIMCEN
 40
0.1052362205
  9
$DIMTSZ
 40
0.0
  9
$DIMTOL
 70
     1
  9
$DIMLIM
 70
     0
  9
$DIMTIH
 70
     1
  9
$DIMTOH
 70
     1
  9
$DIMSE1
 70
     0
  9
$DIMSE2
 70
     0
  9
$DIMTAD
 70
     0
  9
$DIMZIN
 70
     0
  9
$DIMBLK
  1

  9
$DIMASO
 70
     1
  9
$DIMSHO
 70
     1
  9
$DIMPOST
  1
\X
  9
$DIMAPOST
  1

  9
$DIMALT
 70
     1
  9
$DIMALTD
 70
     2
  9
$DIMALTF
 40
25.3999999999999986
  9
$DIMLFAC
 40
1.0
  9
$DIMTOFL
 70
     0
  9
$DIMTVP
 40
0.0
  9
$DIMTIX
 70
     0
  9
$DIMSOXD
 70
     0
  9
$DIMSAH
 70
     0
  9
$DIMBLK1
  1

  9
$DIMBLK2
  1

  9
$DIMSTYLE
  2
STANDARD
  9
$DIMCLRD
 70
     0
  9
$DIMCLRE
 70
     0
  9
$DIMCLRT
 70
     0
  9
$DIMTFAC
 40
1.0
  9
$DIMGAP
 40
0.09
  9
$LUNITS
 70
     2
  9
$LUPREC
 70
     4
  9
$SKETCHINC
 40
0.1
  9
$FILLETRAD
 40
0.0
  9
$AUNITS
 70
     0
  9
$AUPREC
 70
     0
  9
$MENU
  1
.
  9
$ELEVATION
 40
0.0
  9
$PELEVATION
 40
0.0
  9
$THICKNESS
 40
0.0
  9
$LIMCHECK
 70
     0
  9
$BLIPMODE
 70
     0
  9
$CHAMFERA
 40
0.0
  9
$CHAMFERB
 40
0.0
  9
$SKPOLY
 70
     0
  9
$TDCREATE
 40
2458305.9844560190103948
  9
$TDUPDATE
 40
2459052.1697106477804482
  9
$TDINDWG
 40
0.117080787
  9
$TDUSRTIMER
 40
0.1170806597
  9
$USRTIMER
 70
     1
  9
$ANGBASE
 50
0.0
  9
$ANGDIR
 70
     0
  9
$PDMODE
 70
     0
  9
$PDSIZE
 40
0.3125
  9
$PLINEWID
 40
0.0
  9
$COORDS
 70
     1
  9
$SPLFRAME
 70
     0
  9
$SPLINETYPE
 70
     6
  9
$SPLINESEGS
 70
     8
  9
$ATTDIA
 70
     1
  9
$ATTREQ
 70
     1
  9
$HANDLING
 70
     1
  9
$HANDSEED
  5
43E7
  9
$SURFTAB1
 70
     6
  9
$SURFTAB2
 70
     6
  9
$SURFTYPE
 70
     6
  9
$SURFU
 70
     6
  9
$SURFV
 70
     6
  9
$UCSNAME
  2

  9
$UCSORG
 10
0.0
 20
0.0
 30
0.0
  9
$UCSXDIR
 10
1.0
 20
0.0
 30
0.0
  9
$UCSYDIR
 10
0.0
 20
1.0
 30
0.0
  9
$PUCSNAME
  2

  9
$PUCSORG
 10
0.0
 20
0.0
 30
0.0
  9
$PUCSXDIR
 10
1.0
 20
0.0
 30
0.0
  9
$PUCSYDIR
 10
0.0
 20
1.0
 30
0.0
  9
$USERI1
 70
     0
  9
$USERI2
 70
     0
  9
$USERI3
 70
     0
  9
$USERI4
 70
     0
  9
$USERI5
 70
     0
  9
$USERR1
 40
0.0
  9
$USERR2
 40
0.0
  9
$USERR3
 40
0.0
  9
$USERR4
 40
0.0
  9
$USERR5
 40
0.0
  9
$WORLDVIEW
 70
     1
  9
$SHADEDGE
 70
     3
  9
$SHADEDIF
 70
    70
  9
$TILEMODE
 70
     1
  9
$MAXACTVP
 70
    64
  9
$PLIMCHECK
 70
     0
  9
$PEXTMIN
 10
1.0000000000000000E+20
 20
1.0000000000000000E+20
 30
1.0000000000000000E+20
  9
$PEXTMAX
 10
-1.0000000000000000E+20
 20
-1.0000000000000000E+20
 30
-1.0000000000000000E+20
  9
$PLIMMIN
 10
0.0
 20
0.0
  9
$PLIMMAX
 10
12.0
 20
9.0
  9
$UNITMODE
 70
     0
  9
$VISRETAIN
 70
     1
  9
$PLINEGEN
 70
     0
  9
$PSLTSCALE
 70
     1
  0
ENDSEC
  0
SECTION
  2
TABLES
  0
TABLE
  2
VPORT
 70
     1
  0
VPORT
  2
*ACTIVE
 70
     0
 10
0.0
 20
0.0
 11
1.0
 21
1.0
 12
175.992247778386286
 22
2.8207831833982029
 13
0.0
 23
0.0
 14
1.0
 24
1.0
 15
0.0
 25
0.0
 16
0.0
 26
0.0
 36
57.1721640433716018
 17
341.6072862208607717
 27
-8.9699370939904934
 37
0.0
 40
6.2207137667334367
 41
2.6528599605522678
 42
50.0
 43
0.0
 44
0.0
 50
0.0
 51
0.0
 71
     0
 72
   100
 73
     1
 74
     1
 75
     0
 76
     0
 77
     0
 78
     0
  0
ENDTAB
  0
TABLE
  2
LTYPE
 70
     1
  0
LTYPE
  2
CONTINUOUS
 70
     0
  3
Solid line
 72
    65
 73
     0
 40
0.0
  0
ENDTAB
  0
TABLE
  2
LAYER
 70
     2
  0
LAYER
  2
0
 70
     0
 62
   255
  6
CONTINUOUS
  0
LAYER
  2
DEFPOINT
 70
     0
 62
     7
  6
CONTINUOUS
  0
ENDTAB
  0
TABLE
  2
STYLE
 70
     1
  0
STYLE
  2
STANDARD
 70
     0
 40
0.0
 41
0.8
 50
0.0
 71
     0
 42
0.2
  3
txt
  4

  0
ENDTAB
  0
TABLE
  2
VIEW
 70
     0
  0
ENDTAB
  0
TABLE
  2
UCS
 70
     0
  0
ENDTAB
  0
TABLE
  2
APPID
 70
    10
  0
APPID
  2
ACAD
 70
     0
  0
APPID
  2
ACADANNOTATIVE
 70
     0
  0
APPID
  2
ACAD_MLEADERVER
 70
     0
  0
APPID
  2
ACAD_EXEMPT_FROM_CAD_STANDARDS
 70
     0
  0
APPID
  2
ACAD_DSTYLE_DIMJAG
 70
     0
  0
APPID
  2
ACAD_DSTYLE_DIMTALN
 70
     0
  0
APPID
  2
ACAD_NAV_VCDISPLAY
 70
     0
  0
APPID
  2
ACAECLAYERSTANDARD
 70
     0
  0
APPID
  2
ACCMTRANSPARENCY
 70
     0
  0
APPID
  2
ACDBATTR
 70
     0
  0
ENDTAB
  0
TABLE
  2
DIMSTYLE
 70
     1
  0
DIMSTYLE
  2
STANDARD
 70
     0
  3

  4

  5

  6

  7

 40
1.0
 41
0.1875
 42
0.0625
 43
0.38
 44
0.125
 45
0.0
 46
0.0
 47
0.01
 48
0.01
140
0.15625
141
0.09
142
0.0
143
25.3999999999999986
144
1.0
145
0.0
146
1.0
147
0.09
 71
     1
 72
     0
 73
     1
 74
     1
 75
     0
 76
     0
 77
     0
 78
     4
170
     0
171
     2
172
     0
173
     0
174
     0
175
     0
176
     0
177
     0
178
     0
  0
ENDTAB
  0
ENDSEC
  0
SECTION
  2
BLOCKS
  0
BLOCK
  8
0
  2
$MODEL_SPACE
 70
     0
 10
0.0
 20
0.0
 30
0.0
  3
$MODEL_SPACE
  1

  0
ENDBLK
  5
1598
  8
0
  0
BLOCK
 67
     1
  8
0
  2
$PAPER_SPACE
 70
     0
 10
0.0
 20
0.0
 30
0.0
  3
$PAPER_SPACE
  1

  0
ENDBLK
  5
1594
 67
     1
  8
0
  0
ENDSEC
  0
SECTION
  2
ENTITIES
  0
ATTDEF
  5
659
  8
DEFPOINT
 10
519.421130145608231
 20
-9.2179528926035967
 30
0.0
 40
0.001
  1
K-74013T-4ND
  3

  2
MODELNUMBER
 70
     0
1001
ACDBATTR
1070
     0
1070
     1
  0
ATTDEF
  5
65A
  8
DEFPOINT
 10
519.421130145608231
 20
-9.2196195592702619
 30
0.0
 40
0.001
  1
TAUT
  3

  2
TRADENAME
 70
     0
1001
ACDBATTR
1070
     0
1070
     1
  0
ATTDEF
  5
65B
  8
DEFPOINT
 10
519.421130145608231
 20
-9.2212862259369253
 30
0.0
 40
0.001
  1
BATHROOM SINK FAUCET
  3

  2
PRODUCT
 70
     0
1001
ACDBATTR
1070
     0
1070
     1
  0
LINE
  5
40B6
  8
0
 10
516.2555113546874281
 20
-3.2303900926724181
 30
0.0
 11
516.2555113546874281
 21
-3.107107431696134
 31
0.0
  0
LINE
  5
40B7
  8
0
 10
519.4857236123873463
 20
-4.0035440685961339
 30
0.0
 11
520.2373990924874079
 21
-3.6530320557961331
 31
0.0
  0
LINE
  5
40B8
  8
0
 10
518.5952215679874371
 20
-3.7502460153961432
 30
0.0
 11
518.5952215679874371
 21
-4.020634277101081
 31
0.0
  0
LINE
  5
40B9
  8
0
 10
520.2506808702138414
 20
-4.1329504479961328
 30
0.0
 11
518.5971641153873861
 21
-4.1329504479961328
 31
0.0
  0
LINE
  5
40BA
  8
0
 10
518.6150180538824088
 20
-4.0404307629961336
 30
0.0
 11
519.3193384776874382
 21
-4.0404307629961336
 31
0.0
  0
LINE
  5
40BB
  8
0
 10
516.3304821956874093
 20
-3.2638959049961338
 30
0.0
 11
519.0892826435072038
 21
-3.341258811961493
 31
0.0
  0
LINE
  5
40BC
  8
0
 10
516.2852167142873441
 20
-3.2635871898961328
 30
0.0
 11
518.1235687777874546
 21
-3.3674191589961331
 31
0.0
  0
LINE
  5
40BD
  8
0
 10
518.1235605040874361
 20
-3.3676672685961342
 30
0.0
 11
518.5653469550643422
 21
-3.392717610415227
 31
0.0
  0
LINE
  5
40BE
  8
0
 10
520.2172688119873101
 20
-3.0756113686961331
 30
0.0
 11
516.2870074176873914
 21
-3.0756113686961331
 31
0.0
  0
ARC
  5
40BF
  8
0
 10
516.2886992594299045
 20
-3.2305819522720092
 30
0.0
 40
0.0331884593088317
 50
179.6687762320684953
 51
263.976727360116513
  0
ARC
  5
40C0
  8
0
 10
516.2870074176873914
 20
-3.107107431696134
 30
0.0
 40
0.031496063
 50
90.0
 51
180.0
  0
ARC
  5
40C1
  8
0
 10
519.5298541129874366
 20
-4.2525517462961338
 30
0.0
 40
0.8661417323
 50
165.8238798575434885
 51
172.0629436037366133
  0
ARC
  5
40C2
  8
0
 10
519.3181023030874712
 20
-4.2525517462961338
 30
0.0
 40
0.8661417323
 50
7.9370563962631611
 51
35.2979626538707265
  0
ARC
  5
40C3
  8
0
 10
520.2157987319902759
 20
-3.1106337621969429
 30
0.0
 40
0.0350537365836474
 50
5.6715839312498657
 51
87.5964301551218654
  0
ARC
  5
40C4
  8
0
 10
518.6149143602873437
 20
-4.0207379706961328
 30
0.0
 40
0.0196930653
 50
179.698308377981391
 51
270.3016916217546282
  0
LINE
  5
40C5
  8
0
 10
516.2797908654431467
 20
-3.2625524753811428
 30
0.0
 11
516.3304823536874437
 21
-3.2638912079961329
 31
0.0
  0
ARC
  5
40C6
  8
0
 10
525.7114426490685446
 20
220.6874527125513907
 30
0.0
 40
226.6975645975234954
 50
267.561951004732407
 51
267.9527482616281873
  0
ARC
  5
40C7
  8
0
 10
517.6035521662977317
 20
-7.1996035531043807
 30
0.0
 40
1.3342247003360781
 50
57.2717816966775928
 51
89.5955130165887113
  0
ARC
  5
40C8
  8
0
 10
517.8982972502877828
 20
-6.6196824131581362
 30
0.0
 40
0.6901371914232132
 50
6.9415129386325107
 51
51.8186818353200067
  0
ARC
  5
40C9
  8
0
 10
517.1954857839486976
 20
-6.7333413726080851
 30
0.0
 40
1.4018108635610811
 50
359.6856230962814038
 51
8.0813963388572123
  0
ARC
  5
40CA
  8
0
 10
493.6954517786689962
 20
680.0799332669711248
 30
0.0
 40
685.2926495634261528
 50
271.7721223213209214
 51
271.9992738044268776
  0
ARC
  5
40CB
  8
0
 10
517.6194533352208964
 20
-3.3136213716217009
 30
0.0
 40
1.4820260199153319
 50
269.3693021714145743
 51
297.9660270743326009
  0
ARC
  5
40CC
  8
0
 10
518.0055602303808655
 20
-4.1177937321867448
 30
0.0
 40
0.5917980084359981
 50
301.4628260583468204
 51
358.5324201826817898
  0
ARC
  5
40CD
  8
0
 10
519.3193384776419634
 20
-3.646729975212915
 30
0.0
 40
0.393700787783219
 50
270.0000000211567226
 51
294.9999987421253991
  0
ARC
  5
40CE
  8
0
 10
520.2234689163467465
 20
-3.6287972685976628
 30
0.0
 40
0.0279530806506688
 50
299.8903255913077146
 51
346.7768997514972966
  0
ARC
  5
40CF
  8
0
 10
517.8076219043462061
 20
-3.6074493471961331
 30
0.0
 40
0.8004399531612797
 50
349.7235541746829881
 51
10.2764458214186902
  0
ARC
  5
40D0
  8
0
 10
518.5636606929755317
 20
-3.424233190569125
 30
0.0
 40
0.0315606601999909
 50
359.9084028995454219
 51
86.937271677432534
  0
LINE
  5
40D1
  8
0
 10
518.5952213128450694
 20
-3.4242836456594641
 30
0.0
 11
518.5952215679971005
 21
-3.4646526790497179
 31
0.0
  0
ARC
  5
40D2
  8
0
 10
519.3400597932279652
 20
-8.5337105363957306
 30
0.0
 40
5.1985040241787042
 50
92.7650360409837162
 51
98.5454430210061929
  0
LINE
  5
40D4
  8
0
 10
520.2506808702138414
 20
-4.1329504479961328
 30
0.0
 11
520.2506808702138414
 21
-8.8626095918569074
 31
0.0
  0
LINE
  5
40D5
  8
0
 10
518.5972755459609971
 20
-6.7410329469500061
 30
0.0
 11
518.5972755459609971
 21
-8.8626095918626255
 31
0.0
  0
LINE
  5
40D6
  8
0
 10
520.2506808702138414
 20
-3.6351913505961142
 30
0.0
 11
520.2506808702138414
 21
-3.1071695333597091
 31
0.0
  0
LINE
  5
40D7
  8
0
 10
514.8570490741874437
 20
-4.916628219531832
 30
0.0
 11
514.8570490741874437
 21
-5.633061852065655
 31
0.0
  0
LINE
  5
40D8
  8
0
 10
515.289601464187399
 20
-5.6956872863961312
 30
0.0
 11
515.2892817189908783
 21
-5.6966713611133999
 31
0.0
  0
LINE
  5
40D9
  8
0
 10
515.2916638916941565
 20
-5.6893397870188824
 30
0.0
 11
515.2907313065874177
 21
-5.6922099892961331
 31
0.0
  0
LINE
  5
40DA
  8
0
 10
515.2950100160873035
 20
-5.699288383696131
 30
0.0
 11
515.295625044987446
 21
-5.6973955191961307
 31
0.0
  0
LINE
  5
40DB
  8
0
 10
515.2973233924874421
 20
-5.6921685431961322
 30
0.0
 11
515.2985727631810278
 21
-5.688323374730583
 31
0.0
  0
LINE
  5
40DC
  8
0
 10
515.3167096744874698
 20
-5.7023452037961331
 30
0.0
 11
515.3154778045874309
 21
-5.7061365094961314
 31
0.0
  0
LINE
  5
40DD
  8
0
 10
515.3214565219501537
 20
-5.6877359091595237
 30
0.0
 11
515.3195593804873624
 21
-5.6935747107961321
 31
0.0
  0
LINE
  5
40DE
  8
0
 10
515.3138028430872737
 20
-5.7112915108961326
 30
0.0
 11
515.3131961703873003
 21
-5.7131586574961322
 31
0.0
  0
LINE
  5
40DF
  8
0
 10
515.3180238984994048
 20
-5.7185473465682906
 30
0.0
 11
515.318334780487362
 21
-5.7175905499961308
 31
0.0
  0
LINE
  5
40E0
  8
0
 10
515.3194404333872853
 20
-5.7141877001961321
 30
0.0
 11
515.3203528048874205
 21
-5.7113797094961329
 31
0.0
  0
LINE
  5
40E1
  8
0
 10
515.3225976730874436
 20
-5.7044707155961323
 30
0.0
 11
515.324149653587483
 21
-5.6996942108961308
 31
0.0
  0
LINE
  5
40E2
  8
0
 10
515.3482498990758813
 20
-5.6953627838886991
 30
0.0
 11
515.3460508498874333
 21
-5.7021307612961323
 31
0.0
  0
LINE
  5
40E3
  8
0
 10
515.3426366348874126
 20
-5.7126386345961322
 30
0.0
 11
515.3411031165874192
 21
-5.7173583185961308
 31
0.0
  0
LINE
  5
40E4
  8
0
 10
515.3368892655873879
 20
-5.7303272184961322
 30
0.0
 11
515.3365778518057141
 21
-5.7312856515189106
 31
0.0
  0
LINE
  5
40E5
  8
0
 10
515.3388843724874278
 20
-5.7241869107961332
 30
0.0
 11
515.3379824275873489
 21
-5.726962811896132
 31
0.0
  0
LINE
  5
40E6
  8
0
 10
515.3425042159874465
 20
-5.7332930859961317
 30
0.0
 11
515.3431000978874863
 21
-5.7314591501961321
 31
0.0
  0
LINE
  5
40E7
  8
0
 10
515.3447448790874432
 20
-5.7263970340961317
 30
0.0
 11
515.3459541818873504
 21
-5.7226751829961318
 31
0.0
  0
LINE
  5
40E8
  8
0
 10
515.3487504386873752
 20
-5.714069189396132
 30
0.0
 11
515.3506109469874445
 21
-5.7083431334961316
 31
0.0
  0
LINE
  5
40E9
  8
0
 10
515.3747262183874227
 20
-5.7039654614961321
 30
0.0
 11
515.3734340709872868
 21
-5.7079422823961323
 31
0.0
  0
LINE
  5
40EA
  8
0
 10
515.3694361961873938
 20
-5.7202464757961318
 30
0.0
 11
515.3675941499874398
 21
-5.725915711196131
 31
0.0
  0
LINE
  5
40EB
  8
0
 10
515.3619975103873685
 20
-5.7431403965961296
 30
0.0
 11
515.3614070935874452
 21
-5.7449575127961321
 31
0.0
  0
LINE
  5
40EC
  8
0
 10
515.3648249024873849
 20
-5.7344385785961309
 30
0.0
 11
515.3636270148873564
 21
-5.7381252973961319
 31
0.0
  0
LINE
  5
40ED
  8
0
 10
515.3664328021640131
 20
-5.7497368804275393
 30
0.0
 11
515.366753897487456
 21
-5.7487486505961316
 31
0.0
  0
LINE
  5
40EE
  8
0
 10
515.3678312427873607
 20
-5.745432922596132
 30
0.0
 11
515.3687199909874153
 21
-5.7426976367961311
 31
0.0
  0
LINE
  5
40EF
  8
0
 10
515.3709056939874245
 20
-5.7359707348961333
 30
0.0
 11
515.3724158822874415
 21
-5.731322853196132
 31
0.0
  0
LINE
  5
40F0
  8
0
 10
515.3757766476874167
 20
-5.7209794806961307
 30
0.0
 11
515.3779564049873443
 21
-5.7142708774961308
 31
0.0
  0
LINE
  5
40F1
  8
0
 10
515.3971133852872981
 20
-5.7251532563961307
 30
0.0
 11
515.3949511288874419
 21
-5.7318079974961309
 31
0.0
  0
LINE
  5
40F2
  8
0
 10
515.3916164896874079
 20
-5.7420709614961298
 30
0.0
 11
515.3901177165873833
 21
-5.7466837108961322
 31
0.0
  0
LINE
  5
40F3
  8
0
 10
515.387948192187423
 20
-5.7533608202961322
 30
0.0
 11
515.3870659094874327
 21
-5.7560762072961316
 31
0.0
  0
LINE
  5
40F4
  8
0
 10
515.385996316187402
 20
-5.7593680770961324
 30
0.0
 11
515.3856638140920268
 21
-5.7603914131283194
 31
0.0
  0
LINE
  5
40F5
  8
0
 10
515.3918035735873673
 20
-5.7617420845961318
 30
0.0
 11
515.3923872938872819
 21
-5.759945578196132
 31
0.0
  0
LINE
  5
40F6
  8
0
 10
515.3939980866874748
 20
-5.7549880678961296
 30
0.0
 11
515.3951819992872743
 21
-5.7513443595961329
 31
0.0
  0
LINE
  5
40F7
  8
0
 10
515.397918205387441
 20
-5.7429231829961331
 30
0.0
 11
515.3997376862873807
 21
-5.737323396596131
 31
0.0
  0
LINE
  5
40F8
  8
0
 10
515.4036848914873872
 20
-5.7251751479961319
 30
0.0
 11
515.4061999825873954
 21
-5.717434493796131
 31
0.0
  0
LINE
  5
40F9
  8
0
 10
515.4182142071873614
 20
-5.7180955655961307
 30
0.0
 11
515.4165065725874229
 21
-5.7233511245961326
 31
0.0
  0
LINE
  5
40FA
  8
0
 10
515.4143070540874305
 20
-5.7301205464961331
 30
0.0
 11
515.410109706187427
 21
-5.7430386550961323
 31
0.0
  0
LINE
  5
40FB
  8
0
 10
515.40851811848745
 20
-5.7479370580961318
 30
0.0
 11
515.405607965687409
 21
-5.7568935874961307
 31
0.0
  0
LINE
  5
40FC
  8
0
 10
515.404572175687349
 20
-5.7600814213961309
 30
0.0
 11
515.4028587859872914
 21
-5.765354692796131
 31
0.0
  0
LINE
  5
40FD
  8
0
 10
515.4481687431873524
 20
-5.7278283842961333
 30
0.0
 11
515.4306087046874154
 21
-5.781872625596133
 31
0.0
  0
LINE
  5
40FE
  8
0
 10
515.527958603087427
 20
-5.8135114987961334
 30
0.0
 11
515.5455209849874336
 21
-5.7594600451961311
 31
0.0
  0
LINE
  5
40FF
  8
0
 10
515.5590426040729426
 20
-5.8197681816687581
 30
0.0
 11
515.5596093651872707
 21
-5.8180238703961296
 31
0.0
  0
LINE
  5
4100
  8
0
 10
515.5628692794873587
 20
-5.8079908857961309
 30
0.0
 11
515.565779432287286
 21
-5.799034356396132
 31
0.0
  0
LINE
  5
4101
  8
0
 10
515.560120099687424
 20
-5.8164519910961321
 30
0.0
 11
515.561833489387368
 21
-5.8111787196961311
 31
0.0
  0
LINE
  5
4102
  8
0
 10
515.567371019887446
 20
-5.7941359533961316
 30
0.0
 11
515.5715683677874495
 21
-5.7812178447961333
 31
0.0
  0
LINE
  5
4103
  8
0
 10
515.5737678862874418
 20
-5.774448422896131
 30
0.0
 11
515.5754755209794666
 21
-5.7691928639205283
 31
0.0
  0
LINE
  5
4104
  8
0
 10
515.5855838010872958
 20
-5.7757198296961318
 30
0.0
 11
515.5830687100874457
 21
-5.783460483896131
 31
0.0
  0
LINE
  5
4105
  8
0
 10
515.5745658178874464
 20
-5.8096296953961311
 30
0.0
 11
515.5733819052874196
 21
-5.8132734037961331
 31
0.0
  0
LINE
  5
4106
  8
0
 10
515.5791215048874392
 20
-5.7956087324961318
 30
0.0
 11
515.5773020239872722
 21
-5.8012085188961322
 31
0.0
  0
LINE
  5
4107
  8
0
 10
515.571771112487454
 20
-5.818230913996131
 30
0.0
 11
515.5711873921874258
 21
-5.8200274204961326
 31
0.0
  0
LINE
  5
4108
  8
0
 10
515.5769308899276666
 20
-5.8225976600361431
 30
0.0
 11
515.5772809687873632
 21
-5.8215202282961309
 31
0.0
  0
LINE
  5
4109
  8
0
 10
515.5783505620872802
 20
-5.818228358596131
 30
0.0
 11
515.5792328447873842
 21
-5.8155129715961307
 31
0.0
  0
LINE
  5
410A
  8
0
 10
515.5814023691873444
 20
-5.8088358620961333
 30
0.0
 11
515.5829011422873691
 21
-5.804223112696131
 31
0.0
  0
LINE
  5
410B
  8
0
 10
515.5862357813873587
 20
-5.7939601487961321
 30
0.0
 11
515.5883980378874867
 21
-5.7873054075961301
 31
0.0
  0
LINE
  5
410C
  8
0
 10
515.6102928622874515
 20
-5.7897615686961323
 30
0.0
 11
515.6081131049874102
 21
-5.7964701717961322
 31
0.0
  0
LINE
  5
410D
  8
0
 10
515.6010564483874532
 20
-5.8181883278961317
 30
0.0
 11
515.6001677000873542
 21
-5.82092361379613
 31
0.0
  0
LINE
  5
410E
  8
0
 10
515.604752339587435
 20
-5.8068135442961308
 30
0.0
 11
515.603242151287418
 21
-5.8114614259961321
 31
0.0
  0
LINE
  5
410F
  8
0
 10
515.5990903547874495
 20
-5.8242393416961313
 30
0.0
 11
515.5987455407215521
 21
-5.8253005703137344
 31
0.0
  0
LINE
  5
4110
  8
0
 10
515.6056443848874551
 20
-5.824315019296133
 30
0.0
 11
515.6062348016874921
 21
-5.8224979030961332
 31
0.0
  0
LINE
  5
4111
  8
0
 10
515.6078643061873663
 20
-5.817482803896131
 30
0.0
 11
515.6090621937873948
 21
-5.8137960850961301
 31
0.0
  0
LINE
  5
4112
  8
0
 10
515.6118314412874497
 20
-5.805273217696131
 30
0.0
 11
515.61367348748729
 21
-5.7996039822961309
 31
0.0
  0
LINE
  5
4113
  8
0
 10
515.6176713622872967
 20
-5.7872997888961333
 30
0.0
 11
515.6189635096866368
 21
-5.7833229679984743
 31
0.0
  0
LINE
  5
4114
  8
0
 10
515.6359000430874175
 20
-5.8010391799961321
 30
0.0
 11
515.6340395347873482
 21
-5.8067652357961332
 31
0.0
  0
LINE
  5
4115
  8
0
 10
515.6283891939874593
 20
-5.8241551966961298
 30
0.0
 11
515.6277933120874195
 21
-5.8259891324961313
 31
0.0
  0
LINE
  5
4116
  8
0
 10
515.631243277887279
 20
-5.815371229396133
 30
0.0
 11
515.6300339751874162
 21
-5.8190930805961321
 31
0.0
  0
LINE
  5
4117
  8
0
 10
515.6337363163370355
 20
-5.8279453544239859
 30
0.0
 11
515.6340791955874465
 21
-5.8268900802961321
 31
0.0
  0
LINE
  5
4118
  8
0
 10
515.6351723575872938
 20
-5.8235256736961309
 30
0.0
 11
515.6360743025873035
 21
-5.8207497725961321
 31
0.0
  0
LINE
  5
4119
  8
0
 10
515.6382930466874086
 20
-5.8139211803961297
 30
0.0
 11
515.6398265648873576
 21
-5.809201496396132
 31
0.0
  0
LINE
  5
411A
  8
0
 10
515.6432407798872646
 20
-5.798693623096133
 30
0.0
 11
515.645439829087195
 21
-5.7919256456539063
 31
0.0
  0
LINE
  5
411B
  8
0
 10
515.6623913883873911
 20
-5.809595612596131
 30
0.0
 11
515.6608394078873516
 21
-5.8143721172961316
 31
0.0
  0
LINE
  5
411C
  8
0
 10
515.6565765152873837
 20
-5.827491951696131
 30
0.0
 11
515.6562305550520477
 21
-5.8285567080345979
 31
0.0
  0
LINE
  5
411D
  8
0
 10
515.6585945396874422
 20
-5.8212811111961322
 30
0.0
 11
515.6576821681873071
 21
-5.8240891018961332
 31
0.0
  0
LINE
  5
411E
  8
0
 10
515.6633387391874521
 20
-5.8269268745961318
 30
0.0
 11
515.6639454118874255
 21
-5.8250597279961323
 31
0.0
  0
LINE
  5
411F
  8
0
 10
515.665620373387469
 20
-5.819904726596131
 30
0.0
 11
515.6668522432872805
 21
-5.8161134208961309
 31
0.0
  0
LINE
  5
4120
  8
0
 10
515.6697019491874698
 20
-5.8073429278961308
 30
0.0
 11
515.6715990362872617
 21
-5.801504294296131
 31
0.0
  0
LINE
  5
4121
  8
0
 10
515.6868194184872891
 20
-5.8245022761961334
 30
0.0
 11
515.686204389587374
 21
-5.8263951406961327
 31
0.0
  0
LINE
  5
4122
  8
0
 10
515.6897671369874843
 20
-5.8154301317961323
 30
0.0
 11
515.6885177659873989
 21
-5.8192753001961322
 31
0.0
  0
LINE
  5
4123
  8
0
 10
515.692338337508545
 20
-5.827763698161597
 30
0.0
 11
515.6926966717874166
 21
-5.8266608587961333
 31
0.0
  0
LINE
  5
4124
  8
0
 10
515.6938265140872772
 20
-5.8231835615961307
 30
0.0
 11
515.6947590889874391
 21
-5.820313391396132
 31
0.0
  0
LINE
  5
4125
  8
0
 10
515.6970546254874534
 20
-5.8132484564961313
 30
0.0
 11
515.698392467867393
 21
-5.8091310009579491
 31
0.0
  0
LINE
  5
4126
  8
0
 10
515.715945318387412
 20
-5.824950383396132
 30
0.0
 11
515.7155738662781914
 21
-5.8260935958435223
 31
0.0
  0
LINE
  5
4127
  8
0
 10
515.718041740787271
 20
-5.8184982589961312
 30
0.0
 11
515.7170936841873754
 21
-5.8214160771961314
 31
0.0
  0
LINE
  5
4128
  8
0
 10
515.7229389114872902
 20
-5.8236732252961314
 30
0.0
 11
515.7235699442874193
 21
-5.8217311059961316
 31
0.0
  0
LINE
  5
4129
  8
0
 10
515.8630318495877418
 20
-5.7632748174952741
 30
0.0
 11
515.8449557370963703
 21
-5.8189073715684021
 31
0.0
  0
LINE
  5
412A
  8
0
 10
515.8151118085429516
 20
-5.8470554136678681
 30
0.0
 11
515.8253862088677124
 21
-5.8418203452061022
 31
0.0
  0
LINE
  5
412B
  8
0
 10
515.3265505084873439
 20
-5.723436587296133
 30
0.0
 11
515.327543394887357
 21
-5.7241700999961314
 31
0.0
  0
LINE
  5
412C
  8
0
 10
515.2885684674872664
 20
-5.6945202242961317
 30
0.0
 11
515.288842581387371
 21
-5.6947259970961328
 31
0.0
  0
LINE
  5
412D
  8
0
 10
515.4013159449873456
 20
-5.7367973034961324
 30
0.0
 11
515.4021321297874465
 21
-5.7374225682961324
 31
0.0
  0
LINE
  5
412E
  8
0
 10
515.4146648263873658
 20
-5.7223093765961313
 30
0.0
 11
515.4156839621873587
 21
-5.7231665566961309
 31
0.0
  0
LINE
  5
412F
  8
0
 10
515.4018200003872607
 20
-5.7648829413961318
 30
0.0
 11
515.4020810620874045
 21
-5.7650319784961317
 31
0.0
  0
LINE
  5
4130
  8
0
 10
515.3755777269874443
 20
-5.7538215406961308
 30
0.0
 11
515.3763096507874479
 21
-5.7542598166961323
 31
0.0
  0
LINE
  5
4131
  8
0
 10
515.3358149974874323
 20
-5.7293142089961311
 30
0.0
 11
515.3374813768873537
 21
-5.7303203363961313
 31
0.0
  0
LINE
  5
4132
  8
0
 10
515.3654384473874188
 20
-5.7479224583961317
 30
0.0
 11
515.3651193708874416
 21
-5.7477220566961309
 31
0.0
  0
LINE
  5
4133
  8
0
 10
515.3853834582873787
 20
-5.7587310568961332
 30
0.0
 11
515.3866084819874231
 21
-5.7593161074961312
 31
0.0
  0
LINE
  5
4134
  8
0
 10
515.4041869477873661
 20
-5.7462793253961317
 30
0.0
 11
515.4023824508874441
 21
-5.745699728696132
 31
0.0
  0
LINE
  5
4135
  8
0
 10
515.3002507781563963
 20
-5.6797669241029221
 30
0.0
 11
515.8151118085429516
 21
-5.8470554136678681
 31
0.0
  0
LINE
  5
4136
  8
0
 10
515.6001677000873542
 20
-5.82092361379613
 30
0.0
 11
515.6005634372872919
 21
-5.8209931729961317
 31
0.0
  0
LINE
  5
4137
  8
0
 10
515.5767341821873515
 20
-5.8211030045961323
 30
0.0
 11
515.5786047723872798
 21
-5.8214491248961311
 31
0.0
  0
LINE
  5
4138
  8
0
 10
515.5599145068873668
 20
-5.8180628383961324
 30
0.0
 11
515.5596093651872707
 21
-5.8180238703961296
 31
0.0
  0
LINE
  5
4139
  8
0
 10
515.5599145107872801
 20
-5.8180628159961323
 30
0.0
 11
515.5596093651872707
 21
-5.8180238703961296
 31
0.0
  0
ARC
  5
413A
  8
0
 10
514.8885538665041395
 20
-5.6331969229835748
 30
0.0
 40
0.0315050818610782
 50
179.7543565424055032
 51
255.2540337482890891
  0
ARC
  5
413B
  8
0
 10
515.8075125670874286
 20
-5.8067413481961321
 30
0.0
 40
0.0393700787
 50
297.0000000792484798
 51
342.0000000734327159
  0
ARC
  5
413C
  8
0
 10
515.5584692713873665
 20
-5.3529881936961319
 30
0.0
 40
0.4362977481000001
 50
243.5873892414012971
 51
243.8391561786964132
  0
ARC
  5
413D
  8
0
 10
515.5583750241872849
 20
-5.3531800593961316
 30
0.0
 40
0.4360839843
 50
243.8391562185020121
 51
244.0910146187987948
  0
ARC
  5
413E
  8
0
 10
515.5546069058874536
 20
-5.3538643323961326
 30
0.0
 40
0.4328655342000001
 50
247.3554733698960035
 51
247.6065858497003944
  0
ARC
  5
413F
  8
0
 10
515.5545663482873806
 20
-5.3539627635961313
 30
0.0
 40
0.4327590747
 50
247.6065859032005108
 51
247.8577764030983985
  0
ARC
  5
4140
  8
0
 10
515.5544906838874795
 20
-5.3541493159961302
 30
0.0
 40
0.432557762
 50
247.8577461089996916
 51
248.6118215345967997
  0
ARC
  5
4141
  8
0
 10
515.552911654487275
 20
-5.3527883903961326
 30
0.0
 40
0.4324559454
 50
246.1740848007974023
 51
247.9367646166006978
  0
ARC
  5
4142
  8
0
 10
515.5544145520874508
 20
-5.3543430651961312
 30
0.0
 40
0.432349592
 50
248.6118521875987994
 51
249.1149464384020007
  0
ARC
  5
4143
  8
0
 10
515.5543611248873503
 20
-5.3544830522961302
 30
0.0
 40
0.4321997559000001
 50
249.114948068600313
 51
249.6183496307019993
  0
ARC
  5
4144
  8
0
 10
515.5527159355873437
 20
-5.3532628732961332
 30
0.0
 40
0.4319426911999999
 50
247.9371833230970026
 51
248.1893269101963142
  0
ARC
  5
4145
  8
0
 10
515.5526761073874695
 20
-5.3533623960961316
 30
0.0
 40
0.4318354947
 50
248.1893269650967113
 51
248.4415523883037054
  0
ARC
  5
4146
  8
0
 10
515.5271963563874351
 20
-5.3342903144961307
 30
0.0
 40
0.4239917981000001
 50
240.2352193834001071
 51
240.4958678150995013
  0
ARC
  5
4147
  8
0
 10
515.5270588957874907
 20
-5.3345332339961313
 30
0.0
 40
0.4237126828
 50
240.4958678411975939
 51
240.7566225515990936
  0
ARC
  5
4148
  8
0
 10
515.5269197290873535
 20
-5.3347818010961321
 30
0.0
 40
0.4234278092000001
 50
240.7566225779962963
 51
241.0174926624972898
  0
ARC
  5
4149
  8
0
 10
515.5264172815874417
 20
-5.3356994305961338
 30
0.0
 40
0.4223816394
 50
241.0168000731000859
 51
242.5848229713035948
  0
ARC
  5
414A
  8
0
 10
515.5207392315872994
 20
-5.3354800692961328
 30
0.0
 40
0.4170960541
 50
244.7222851171017055
 51
245.2458088487969121
  0
ARC
  5
414B
  8
0
 10
515.520408866887351
 20
-5.3362056708961321
 30
0.0
 40
0.4162987938000001
 50
245.2452830858971993
 51
247.0805846192986905
  0
ARC
  5
414C
  8
0
 10
515.5188571057874469
 20
-5.3347937523961324
 30
0.0
 40
0.4156755187
 50
245.3172043566964931
 51
245.5803894932026878
  0
ARC
  5
414D
  8
0
 10
515.518786485987448
 20
-5.3349492903961302
 30
0.0
 40
0.4155046994
 50
245.5803895468986866
 51
245.8436684078990027
  0
ARC
  5
414E
  8
0
 10
515.5153957350873952
 20
-5.3348494334961334
 30
0.0
 40
0.4121105036000001
 50
249.2570646938970924
 51
249.7837326243964924
  0
ARC
  5
414F
  8
0
 10
515.5153345124873567
 20
-5.33501585279613
 30
0.0
 40
0.4119331802000001
 50
249.7837246189961036
 51
251.6290456815999903
  0
ARC
  5
4150
  8
0
 10
515.5259086338872976
 20
-5.332528601796132
 30
0.0
 40
0.4238826832
 50
238.9835373433998029
 51
240.2922358756962922
  0
ARC
  5
4151
  8
0
 10
515.5253276855873992
 20
-5.3335388193961331
 30
0.0
 40
0.42271734
 50
240.2927714083998012
 51
240.8172569366014955
  0
ARC
  5
4152
  8
0
 10
515.5251233148874235
 20
-5.333904071496133
 30
0.0
 40
0.4222987992000001
 50
240.8173022445012919
 51
241.0797198102968082
  0
ARC
  5
4153
  8
0
 10
515.5249869290873903
 20
-5.3341509269961316
 30
0.0
 40
0.4220167731
 50
241.0797198383000932
 51
241.3422647652027138
  0
ARC
  5
4154
  8
0
 10
515.5192021029873786
 20
-5.3340554078961322
 30
0.0
 40
0.4164904722
 50
243.4770509651002044
 51
245.3164962031983976
  0
ARC
  5
4155
  8
0
 10
515.5137117446873845
 20
-5.3336957528961308
 30
0.0
 40
0.4111140976
 50
248.0172266218015977
 51
249.8673051742019879
  0
ARC
  5
4156
  8
0
 10
515.5136118951872959
 20
-5.3339628145961324
 30
0.0
 40
0.4108289861000001
 50
249.8675599822990137
 51
250.132132215997899
  0
ARC
  5
4157
  8
0
 10
515.513591779687431
 20
-5.3340184791961303
 30
0.0
 40
0.4107697984000001
 50
250.1321322839004893
 51
250.3967783663024989
  0
ARC
  5
4158
  8
0
 10
515.5109670247874192
 20
-5.3318539598961312
 30
0.0
 40
0.4094473268
 50
255.7125641628001063
 51
256.244266783602427
  0
ARC
  5
4159
  8
0
 10
515.510934468187429
 20
-5.3319822282961322
 30
0.0
 40
0.4093149913000001
 50
255.4467923979005093
 51
255.7125494181998988
  0
ARC
  5
415A
  8
0
 10
515.510870741187432
 20
-5.3322253132961333
 30
0.0
 40
0.4090636925
 50
253.8536354823025079
 51
255.4468764611966094
  0
ARC
  5
415B
  8
0
 10
515.5091339298872981
 20
-5.3312018775961301
 30
0.0
 40
0.4078411915000001
 50
254.7490832160019067
 51
255.0157113585005106
  0
ARC
  5
415C
  8
0
 10
515.509119822687353
 20
-5.3312536207961312
 30
0.0
 40
0.4077875597
 50
254.4825221430969009
 51
254.7490831443004993
  0
ARC
  5
415D
  8
0
 10
515.5090735010873004
 20
-5.3314193913961301
 30
0.0
 40
0.4076154391
 50
252.6183433602020045
 51
254.4825620870020089
  0
ARC
  5
415E
  8
0
 10
515.5038206995874361
 20
-5.3259724154961328
 30
0.0
 40
0.4051290148
 50
243.2474280067650909
 51
245.6796137714981114
  0
ARC
  5
415F
  8
0
 10
515.4986148300872628
 20
-5.3249706315961323
 30
0.0
 40
0.3996964175
 50
248.013198170037299
 51
250.3512198153972008
  0
ARC
  5
4160
  8
0
 10
515.558471110287428
 20
-5.336652925296133
 30
0.0
 40
0.448237036
 50
231.6939749033363114
 51
232.9764907448966085
  0
ARC
  5
4161
  8
0
 10
515.5578761249873878
 20
-5.337439743296132
 30
0.0
 40
0.4472505833
 50
233.0205667928017021
 51
233.2334528634009132
  0
ARC
  5
4162
  8
0
 10
515.5576216483874532
 20
-5.3377803994961299
 30
0.0
 40
0.4468253716
 50
233.2334470446986074
 51
233.490402702898507
  0
ARC
  5
4163
  8
0
 10
515.5573487980874461
 20
-5.338149006896133
 30
0.0
 40
0.4463667665
 50
233.490402662297214
 51
233.7475412270026141
  0
ARC
  5
4164
  8
0
 10
515.557073604687389
 20
-5.3385242899961307
 30
0.0
 40
0.4459013969
 50
233.7475411866973047
 51
234.0048721108011023
  0
ARC
  5
4165
  8
0
 10
515.5582704683872635
 20
-5.3401789444961318
 30
0.0
 40
0.4456108639
 50
233.4330737264984919
 51
235.2244651095030008
  0
ARC
  5
4166
  8
0
 10
515.5497696899874427
 20
-5.3401675218961318
 30
0.0
 40
0.4392526372
 50
236.074502466300487
 51
237.6084118002968069
  0
ARC
  5
4167
  8
0
 10
515.5510063285872775
 20
-5.3418781805961313
 30
0.0
 40
0.4390121891
 50
237.2951300493982103
 51
237.5497305848006135
  0
ARC
  5
4168
  8
0
 10
515.550817647087456
 20
-5.3421749191961299
 30
0.0
 40
0.4386605437
 50
237.549730587602312
 51
237.8044553083022947
  0
ARC
  5
4169
  8
0
 10
515.5504457185874116
 20
-5.3427674806961329
 30
0.0
 40
0.4379609302000001
 50
237.8043265606029024
 51
238.5692996897001876
  0
ARC
  5
416A
  8
0
 10
515.548972491787481
 20
-5.3414102730961321
 30
0.0
 40
0.4377761886
 50
237.6093821507984956
 51
237.8656342121975058
  0
ARC
  5
416B
  8
0
 10
515.5487865744872806
 20
-5.3417062559961312
 30
0.0
 40
0.4374266588000001
 50
237.865634215597396
 51
238.1220246426998983
  0
ARC
  5
416C
  8
0
 10
515.5485988058874227
 20
-5.3420081774961314
 30
0.0
 40
0.4370711117
 50
238.1220246461977013
 51
238.3785623264020899
  0
ARC
  5
416D
  8
0
 10
515.5497825688873945
 20
-5.3438558391961317
 30
0.0
 40
0.4366864543000001
 50
238.5690771315003929
 51
239.5910748333969877
  0
ARC
  5
416E
  8
0
 10
515.5436731141874134
 20
-5.3442360342961317
 30
0.0
 40
0.4316261082000001
 50
241.6758911980980997
 51
241.9307955111985962
  0
ARC
  5
416F
  8
0
 10
515.5421751737874274
 20
-5.3428321126961311
 30
0.0
 40
0.4313940969
 50
240.4619275385965977
 51
242.2527844647009942
  0
ARC
  5
4170
  8
0
 10
515.5435581244873902
 20
-5.3444516691961299
 30
0.0
 40
0.4313817293000001
 50
241.9307955446984124
 51
242.1857891874965958
  0
ARC
  5
4171
  8
0
 10
515.5433339965874211
 20
-5.3448779156961317
 30
0.0
 40
0.4309001496000001
 50
242.1857019846007972
 51
242.9512655014966924
  0
ARC
  5
4172
  8
0
 10
515.5416269575874821
 20
-5.3438590771961341
 30
0.0
 40
0.4302299891
 50
242.2537235536001106
 51
242.5100460579006949
  0
ARC
  5
4173
  8
0
 10
515.5429829934872714
 20
-5.3455662011961333
 30
0.0
 40
0.4301275308000001
 50
242.9512140555000883
 51
243.9732085449030876
  0
ARC
  5
4174
  8
0
 10
515.5415131487874305
 20
-5.3440777949961333
 30
0.0
 40
0.4299834329000001
 50
242.5100460931022042
 51
242.7664754683972035
  0
ARC
  5
4175
  8
0
 10
515.5374303775872704
 20
-5.3452915220961312
 30
0.0
 40
0.4257089166
 50
246.0804061987981015
 51
247.6154237303996979
  0
ARC
  5
4176
  8
0
 10
515.5359664696874233
 20
-5.3436955154961341
 30
0.0
 40
0.4255878853000001
 50
244.8719335521994935
 51
245.8977411625986065
  0
ARC
  5
4177
  8
0
 10
515.5372107396874526
 20
-5.3458190479961321
 30
0.0
 40
0.4251374977000001
 50
247.6157195037025929
 51
248.384297010699413
  0
ARC
  5
4178
  8
0
 10
515.5357464610874558
 20
-5.3441857451961328
 30
0.0
 40
0.4250505507000001
 50
245.8978266858985933
 51
246.6680080990014119
  0
ARC
  5
4179
  8
0
 10
515.5356372458874148
 20
-5.3444378155961321
 30
0.0
 40
0.4247758377000001
 50
246.6680687395017912
 51
246.9249408344016103
  0
ARC
  5
417A
  8
0
 10
515.5355831726874385
 20
-5.3445647405961321
 30
0.0
 40
0.4246378744000001
 50
246.9249408892025883
 51
247.1818958109020059
  0
ARC
  5
417B
  8
0
 10
515.5306466485874353
 20
-5.3430745002961313
 30
0.0
 40
0.4213025798
 50
249.3171698104011114
 51
250.0898948493970124
  0
ARC
  5
417C
  8
0
 10
515.5305912131874493
 20
-5.3432271864961312
 30
0.0
 40
0.4211401417000001
 50
250.0899119002993132
 51
251.3791878750998876
  0
ARC
  5
417D
  8
0
 10
515.5305606752873473
 20
-5.3433165657961306
 30
0.0
 40
0.4210456904
 50
251.3792423317995031
 51
251.6373111615006906
  0
ARC
  5
417E
  8
0
 10
515.5447529401874363
 20
-5.3227549753961307
 30
0.0
 40
0.4548014054
 50
275.1507978255029911
 51
276.1198622654845849
  0
ARC
  5
417F
  8
0
 10
515.5430706513874384
 20
-5.3230617986961324
 30
0.0
 40
0.4528159617
 50
274.7553363623994755
 51
275.8081950955188972
  0
ARC
  5
4180
  8
0
 10
515.5432026324873505
 20
-5.3246323689961317
 30
0.0
 40
0.4512398562
 50
274.2387075307963187
 51
274.7551681395980836
  0
ARC
  5
4181
  8
0
 10
515.543256335687488
 20
-5.3253496156961306
 30
0.0
 40
0.4505206021000001
 50
273.9820007805979003
 51
274.2386384404996988
  0
ARC
  5
4182
  8
0
 10
515.5343730409874752
 20
-5.3324640388961324
 30
0.0
 40
0.4315878019
 50
235.7806048299923134
 51
236.8230095604010046
  0
ARC
  5
4183
  8
0
 10
515.5324414375874085
 20
-5.3317945472961323
 30
0.0
 40
0.4302904973
 50
234.5131576678784882
 51
236.8784498647981138
  0
ARC
  5
4184
  8
0
 10
515.5335805081873559
 20
-5.333684573496134
 30
0.0
 40
0.4301325383
 50
236.8224005086993031
 51
238.1280978713992056
  0
ARC
  5
4185
  8
0
 10
515.5760537722874233
 20
-5.3604317124961307
 30
0.0
 40
0.4415861068
 50
243.1065121163034064
 51
244.4190482963034015
  0
ARC
  5
4186
  8
0
 10
515.5776215917874197
 20
-5.3617074461961334
 30
0.0
 40
0.4414229533
 50
244.2714460959981864
 51
244.5190323112992132
  0
ARC
  5
4187
  8
0
 10
515.5775434893873808
 20
-5.3618713306961299
 30
0.0
 40
0.4412414096
 50
244.5190323532004015
 51
244.7666970527002093
  0
ARC
  5
4188
  8
0
 10
515.5756923719874294
 20
-5.3611807630961339
 30
0.0
 40
0.4407544326
 50
244.5958513369994876
 51
244.8443219522025061
  0
ARC
  5
4189
  8
0
 10
515.5756168579873702
 20
-5.3613415603961316
 30
0.0
 40
0.4405767865
 50
244.8443219955026962
 51
245.092869064300487
  0
ARC
  5
418A
  8
0
 10
515.5772566932872678
 20
-5.3624870794961321
 30
0.0
 40
0.4405621532000001
 50
244.76629817129961
 51
246.254291082997014
  0
ARC
  5
418B
  8
0
 10
515.5755398695873737
 20
-5.3615073629961341
 30
0.0
 40
0.4403939815
 50
245.0928691079008956
 51
245.3415002772991045
  0
ARC
  5
418C
  8
0
 10
515.577070949487279
 20
-5.3629069769961344
 30
0.0
 40
0.4401030085000001
 50
246.2544128793024925
 51
246.5026407189004942
  0
ARC
  5
418D
  8
0
 10
515.5832275635874566
 20
-5.3464863734961323
 30
0.0
 40
0.4596774352000001
 50
271.2998789532974797
 51
273.0539254111998844
  0
ARC
  5
418E
  8
0
 10
515.58803613508735
 20
-5.3538785777961317
 30
0.0
 40
0.4550056454
 50
268.909853239202107
 51
269.1646251821978808
  0
ARC
  5
418F
  8
0
 10
515.588029299187383
 20
-5.3542378955961327
 30
0.0
 40
0.4546462626
 50
268.6565337970970972
 51
268.9098530486983236
  0
ARC
  5
4190
  8
0
 10
515.587989210587466
 20
-5.3556888118961314
 30
0.0
 40
0.4531948053
 50
267.4113424912023902
 51
268.6572999100949914
  0
ARC
  5
4191
  8
0
 10
515.5879404692874459
 20
-5.3567996053961311
 30
0.0
 40
0.452082944
 50
266.9230422358988903
 51
267.4111552114990786
  0
ARC
  5
4192
  8
0
 10
515.5662352906873593
 20
-5.3495816671961309
 30
0.0
 40
0.4441737443
 50
237.4942617160982934
 51
238.7507796513997107
  0
ARC
  5
4193
  8
0
 10
515.5674918412873922
 20
-5.3512744452961316
 30
0.0
 40
0.4436874495000001
 50
238.6851175243994021
 51
238.9356471287979105
  0
ARC
  5
4194
  8
0
 10
515.5673278312873435
 20
-5.3515467103961329
 30
0.0
 40
0.4433696011000001
 50
238.9356471425006134
 51
239.1862813098975948
  0
ARC
  5
4195
  8
0
 10
515.5654657919874353
 20
-5.3508436434961322
 30
0.0
 40
0.4426956675
 50
239.0031268623980907
 51
239.2549900635027882
  0
ARC
  5
4196
  8
0
 10
515.5653046747873987
 20
-5.3511145105961306
 30
0.0
 40
0.4423805044
 50
239.2549900776984941
 51
239.5069707901002971
  0
ARC
  5
4197
  8
0
 10
515.5651418425874226
 20
-5.3513910214961324
 30
0.0
 40
0.442059611
 50
239.5069708045988932
 51
239.7590773412973988
  0
ARC
  5
4198
  8
0
 10
515.5666137097873616
 20
-5.3527594207961311
 30
0.0
 40
0.4419622726
 50
239.1852578219026952
 51
240.9434779811001022
  0
ARC
  5
4199
  8
0
 10
515.5604928903874224
 20
-5.3533585904961329
 30
0.0
 40
0.4374131597
 50
243.0126479640989032
 51
243.2632712012012064
  0
ARC
  5
419A
  8
0
 10
515.5589240695873059
 20
-5.3520861069961301
 30
0.0
 40
0.4373079785
 50
241.8271025023015
 51
243.5865970658026072
  0
ARC
  5
419B
  8
0
 10
515.5603974522873614
 20
-5.3535480447961321
 30
0.0
 40
0.4372010244000001
 50
243.2632712394998009
 51
243.5139730659016948
  0
ARC
  5
419C
  8
0
 10
515.5599956734873786
 20
-5.3543656284961312
 30
0.0
 40
0.4362900666
 50
243.5133143082007905
 51
245.2709876476982913
  0
ARC
  5
419D
  8
0
 10
515.6074104989872922
 20
-5.3638593028961319
 30
0.0
 40
0.4539333662
 50
236.7555781691017103
 51
237.0032617921989981
  0
ARC
  5
419E
  8
0
 10
515.6091362734874792
 20
-5.3647097284961323
 30
0.0
 40
0.4538260945000001
 50
236.9159946794030986
 51
237.1663257914985081
  0
ARC
  5
419F
  8
0
 10
515.607112782687409
 20
-5.3643184950961329
 30
0.0
 40
0.4533861073
 50
237.0032141610010967
 51
237.4961153873018986
  0
ARC
  5
41A0
  8
0
 10
515.6088345978874941
 20
-5.3651779715961299
 30
0.0
 40
0.453269085
 50
237.1662752217997081
 51
237.6646144438994952
  0
ARC
  5
41A1
  8
0
 10
515.6124373801874299
 20
-5.3667900639961319
 30
0.0
 40
0.4532689205
 50
265.3457930408990251
 51
267.0733087551008111
  0
ARC
  5
41A2
  8
0
 10
515.606819315487428
 20
-5.3647783338961306
 30
0.0
 40
0.4528406033
 50
237.496165937596686
 51
237.7413901990007901
  0
ARC
  5
41A3
  8
0
 10
515.6084486865872805
 20
-5.3657874617961321
 30
0.0
 40
0.4525476933000001
 50
237.6646230597006877
 51
238.1598755123984859
  0
ARC
  5
41A4
  8
0
 10
515.6066044440874521
 20
-5.3651189703961304
 30
0.0
 40
0.452437859
 50
237.7890977360968918
 51
237.985811286599386
  0
ARC
  5
41A5
  8
0
 10
515.6105144215873679
 20
-5.366969037796129
 30
0.0
 40
0.4524041207
 50
265.6734915769002896
 51
265.923093253500781
  0
ARC
  5
41A6
  8
0
 10
515.6104897901874438
 20
-5.3672946213961321
 30
0.0
 40
0.4520776067
 50
265.4246108017953816
 51
265.6734914695991847
  0
ARC
  5
41A7
  8
0
 10
515.6080909295874335
 20
-5.3663634996961331
 30
0.0
 40
0.4518696006000001
 50
238.1598797750970107
 51
238.6519889679985909
  0
ARC
  5
41A8
  8
0
 10
515.612318505287476
 20
-5.3683634714961288
 30
0.0
 40
0.4516910556
 50
265.0971659331020192
 51
265.3446277741991821
  0
ARC
  5
41A9
  8
0
 10
515.6122902791873912
 20
-5.3686925246961312
 30
0.0
 40
0.451360794
 50
264.8495597305010847
 51
265.097165925596812
  0
ARC
  5
41AA
  8
0
 10
515.6077817883874559
 20
-5.3668706028961326
 30
0.0
 40
0.4512756967
 50
238.6520144834022119
 51
239.0325964363017022
  0
ARC
  5
41AB
  8
0
 10
515.6103954510873564
 20
-5.368419458896132
 30
0.0
 40
0.4509488283
 50
264.1910318023981858
 51
265.4251583251003126
  0
ARC
  5
41AC
  8
0
 10
515.6103022832874103
 20
-5.3693452143961311
 30
0.0
 40
0.4500183969
 50
263.7024534349984037
 51
264.1909034311979099
  0
ARC
  5
41AD
  8
0
 10
515.617213956487376
 20
-5.3585710355961327
 30
0.0
 40
0.4628005324
 50
231.441755200598891
 51
232.4465741821026938
  0
ARC
  5
41AE
  8
0
 10
515.6180868565874107
 20
-5.3604920047961331
 30
0.0
 40
0.4612584347000001
 50
232.6082554663960877
 51
233.1109423907971063
  0
ARC
  5
41AF
  8
0
 10
515.6162719774874859
 20
-5.3597963595961327
 30
0.0
 40
0.4612549763000001
 50
232.4465681032025088
 51
233.1921153278983923
  0
ARC
  5
41B0
  8
0
 10
515.6077857684873607
 20
-5.3579857640961333
 30
0.0
 40
0.460251949
 50
269.6587424717988029
 51
271.3974112297968873
  0
ARC
  5
41B1
  8
0
 10
515.6173768725874424
 20
-5.3614392819961321
 30
0.0
 40
0.4600746228000001
 50
233.1108458810967932
 51
233.8591829513966047
  0
ARC
  5
41B2
  8
0
 10
515.6155638482873655
 20
-5.3607411502961329
 30
0.0
 40
0.4600742666
 50
233.1922282633036048
 51
233.6855163745013897
  0
ARC
  5
41B3
  8
0
 10
515.6059291596874345
 20
-5.3583980757961331
 30
0.0
 40
0.4590888066
 50
269.9905427767982928
 51
270.2415133073976108
  0
ARC
  5
41B4
  8
0
 10
515.6167061148873927
 20
-5.3623561949961331
 30
0.0
 40
0.4589385575
 50
233.8592970972987928
 51
234.3543489149986954
  0
ARC
  5
41B5
  8
0
 10
515.6059290890874536
 20
-5.3588308205961299
 30
0.0
 40
0.4586560618
 50
269.7402425021954855
 51
269.9905426781991764
  0
ARC
  5
41B6
  8
0
 10
515.6163054903872762
 20
-5.3629140727961309
 30
0.0
 40
0.4582517333
 50
234.3544048539015137
 51
234.631066266097406
  0
ARC
  5
41B7
  8
0
 10
515.6077837440874418
 20
-5.3602810548961317
 30
0.0
 40
0.4579566870000001
 50
269.1583057364965725
 51
269.6572853576990951
  0
ARC
  5
41B8
  8
0
 10
515.6160494962873599
 20
-5.3632745689961299
 30
0.0
 40
0.4578095902000001
 50
234.6310761450972109
 51
234.8463819678013067
  0
ARC
  5
41B9
  8
0
 10
515.6059089790874168
 20
-5.3608123484961299
 30
0.0
 40
0.4566744633
 50
268.0070837226962226
 51
269.7416384422970737
  0
ARC
  5
41BA
  8
0
 10
515.6078684714874498
 20
-5.3631624764961341
 30
0.0
 40
0.4547672157
 50
235.7563529944000891
 51
236.7554506633024971
  0
ARC
  5
41BB
  8
0
 10
515.6127888353872777
 20
-5.3465600902961308
 30
0.0
 40
0.4724350797
 50
227.0236125476012035
 51
227.5324628203987913
  0
ARC
  5
41BC
  8
0
 10
515.6118427288872681
 20
-5.3475938908961327
 30
0.0
 40
0.4710337014000001
 50
227.5324520382997946
 51
228.2909856865981908
  0
ARC
  5
41BD
  8
0
 10
515.6185356228872934
 20
-5.3513149070961328
 30
0.0
 40
0.4709494588
 50
275.4878584426004977
 51
275.737923861300203
  0
ARC
  5
41BE
  8
0
 10
515.6099795257873666
 20
-5.3469375284961318
 30
0.0
 40
0.4707860903000001
 50
227.605977696398611
 51
228.1084687555014909
  0
ARC
  5
41BF
  8
0
 10
515.6186544943874424
 20
-5.3525677333961328
 30
0.0
 40
0.4696910065
 50
274.4861614171985025
 51
275.4880398591997164
  0
ARC
  5
41C0
  8
0
 10
515.6107600397873512
 20
-5.3488055032961324
 30
0.0
 40
0.4694088273
 50
228.2912444541011894
 51
228.7940204647991891
  0
ARC
  5
41C1
  8
0
 10
515.602507083287378
 20
-5.3472245042961344
 30
0.0
 40
0.4690280894
 50
274.0138039634048255
 51
275.7691227514999923
  0
ARC
  5
41C2
  8
0
 10
515.610181355087434
 20
-5.3494654049961321
 30
0.0
 40
0.4685311338
 50
228.7940998487997888
 51
229.0445659869994017
  0
ARC
  5
41C3
  8
0
 10
515.6097949359874519
 20
-5.3499106271961319
 30
0.0
 40
0.4679416064
 50
229.044566070998286
 51
229.2944273393030983
  0
ARC
  5
41C4
  8
0
 10
515.6007546178874463
 20
-5.3478643358961309
 30
0.0
 40
0.4675661621
 50
274.3519797059008738
 51
274.604932900696781
  0
ARC
  5
41C5
  8
0
 10
515.6188350742874036
 20
-5.3548258971961342
 30
0.0
 40
0.4674256365
 50
273.4806232962978925
 51
274.4857450271998118
  0
ARC
  5
41C6
  8
0
 10
515.6007957861874047
 20
-5.3484052847961312
 30
0.0
 40
0.4670236488000001
 50
274.0996186708970868
 51
274.3519796347999886
  0
ARC
  5
41C7
  8
0
 10
515.6027218206872931
 20
-5.3500767083961316
 30
0.0
 40
0.4661678505
 50
273.5077073228965787
 51
274.0120137532967988
  0
ARC
  5
41C8
  8
0
 10
515.6009595634874358
 20
-5.3508881245961328
 30
0.0
 40
0.4645354537000001
 50
272.3499391890009065
 51
274.101362948901226
  0
ARC
  5
41C9
  8
0
 10
515.6008756475873724
 20
-5.350186366596132
 30
0.0
 40
0.4634820204
 50
230.1862024182007076
 51
231.1970749014014075
  0
ARC
  5
41CA
  8
0
 10
515.6017929972874754
 20
-5.3520280464961321
 30
0.0
 40
0.4622807012
 50
231.3699679127965112
 51
231.6229961595028897
  0
ARC
  5
41CB
  8
0
 10
515.5998523412874874
 20
-5.351459042696133
 30
0.0
 40
0.461848968
 50
231.1970692471981863
 51
231.9477517206983066
  0
ARC
  5
41CC
  8
0
 10
515.6013118141872837
 20
-5.3526365595961334
 30
0.0
 40
0.4615049274000001
 50
231.6229259887012972
 51
232.1268410383015066
  0
ARC
  5
41CD
  8
0
 10
515.5992247798874359
 20
-5.352258354796132
 30
0.0
 40
0.4608327343
 50
231.9479373171980114
 51
232.1967894390990921
  0
ARC
  5
41CE
  8
0
 10
515.6006969051873057
 20
-5.3534270651961311
 30
0.0
 40
0.4605034224000001
 50
232.1268520107996949
 51
232.6279108046026067
  0
ARC
  5
41CF
  8
0
 10
515.5989103570874477
 20
-5.3526636577961328
 30
0.0
 40
0.4603197702000001
 50
232.1967895497008953
 51
232.4449652287981962
  0
ARC
  5
41D0
  8
0
 10
515.6002632858874222
 20
-5.35399391009613
 30
0.0
 40
0.4597897428000001
 50
232.6279772638006023
 51
232.8774116413000002
  0
ARC
  5
41D1
  8
0
 10
515.5997818824873775
 20
-5.3546312224961321
 30
0.0
 40
0.4589910466
 50
232.8773133745970938
 51
233.4669101436994936
  0
ARC
  5
41D2
  8
0
 10
515.5898931016872666
 20
-5.3535463122961326
 30
0.0
 40
0.4563410356000001
 50
268.5627818291985136
 51
270.3159366156031069
  0
ARC
  5
41D3
  8
0
 10
515.5898510440873679
 20
-5.3556905433961344
 30
0.0
 40
0.4541964244
 50
268.0714415668957145
 51
268.561301334900179
  0
ARC
  5
41D4
  8
0
 10
515.5848285207873687
 20
-5.3428470287961343
 30
0.0
 40
0.464394462
 50
273.2014856157990152
 51
274.7210425901999997
  0
ARC
  5
41D5
  8
0
 10
515.583086305387269
 20
-5.3436187903961327
 30
0.0
 40
0.4625484765
 50
273.3070146011988868
 51
273.5629496294984051
  0
ARC
  5
41D6
  8
0
 10
515.5831143167873734
 20
-5.3441035415961311
 30
0.0
 40
0.4620629166
 50
273.0522066000013979
 51
273.3070144405949122
  0
ARC
  5
41D7
  8
0
 10
515.5849895498873821
 20
-5.3455519321961322
 30
0.0
 40
0.4616847871
 50
272.4533416710967799
 51
273.2002798489033921
  0
ARC
  5
41D8
  8
0
 10
515.5672596943873032
 20
-5.3372737611961307
 30
0.0
 40
0.4584891849
 50
272.9858328407980252
 51
273.7588417572985122
  0
ARC
  5
41D9
  8
0
 10
515.5673759321873604
 20
-5.3395271731961333
 30
0.0
 40
0.4562327774
 50
271.4752252312003975
 51
272.9859958522014267
  0
ARC
  5
41DA
  8
0
 10
515.5655485903873796
 20
-5.3385702904961336
 30
0.0
 40
0.455859499
 50
272.3418361477021108
 51
272.6010118225999008
  0
ARC
  5
41DB
  8
0
 10
515.5655748572874018
 20
-5.3392244451961322
 30
0.0
 40
0.4552048173
 50
271.8278309628992133
 51
272.3418971476992283
  0
ARC
  5
41DC
  8
0
 10
515.5656269748874365
 20
-5.3409916672961311
 30
0.0
 40
0.4534368321000001
 50
270.8162648147975915
 51
271.828371367396926
  0
ARC
  5
41DD
  8
0
 10
515.5656440577873809
 20
-5.3421279779961326
 30
0.0
 40
0.4523003934000001
 50
270.318821423695681
 51
270.8161516616981999
  0
ARC
  5
41DE
  8
0
 10
515.5597701280873935
 20
-5.3381404547961298
 30
0.0
 40
0.4481415443
 50
232.9246652572967093
 51
233.1795543616028112
  0
ARC
  5
41DF
  8
0
 10
515.5594950183874516
 20
-5.3385079286961332
 30
0.0
 40
0.4476824992
 50
233.1795543212028008
 51
233.4346114671978114
  0
ARC
  5
41E0
  8
0
 10
515.5787548018872712
 20
-5.3295423476961314
 30
0.0
 40
0.4749481626
 50
278.4264085525986729
 51
279.1998388035015068
  0
ARC
  5
41E1
  8
0
 10
515.5791682184874389
 20
-5.3323413417961323
 30
0.0
 40
0.4721188022
 50
276.9015847876985958
 51
278.4265551580008946
  0
ARC
  5
41E2
  8
0
 10
515.5772989516874532
 20
-5.3313760623961333
 30
0.0
 40
0.4719470598
 50
277.7733899682024798
 51
278.0318139980994943
  0
ARC
  5
41E3
  8
0
 10
515.5774217279874847
 20
-5.3322804807961344
 30
0.0
 40
0.4710343461999999
 50
277.259339598496183
 51
277.7734726074994001
  0
ARC
  5
41E4
  8
0
 10
515.5777715274873572
 20
-5.3351172945961318
 30
0.0
 40
0.4681760705000001
 50
275.7384773644963047
 51
277.2607428266953775
  0
ARC
  5
41E5
  8
0
 10
515.5615019460874464
 20
-5.3248458956961331
 30
0.0
 40
0.4674698027000001
 50
277.5172175117971847
 51
278.2993307272993775
  0
ARC
  5
41E6
  8
0
 10
515.561859147987434
 20
-5.3275633337961326
 30
0.0
 40
0.4647289887
 50
275.9821870387950185
 51
277.5173869725974782
  0
ARC
  5
41E7
  8
0
 10
515.560012619487452
 20
-5.3265341730961326
 30
0.0
 40
0.464359218
 50
276.8710257859996773
 51
277.132734680898011
  0
ARC
  5
41E8
  8
0
 10
515.5602492273874304
 20
-5.3285698018961307
 30
0.0
 40
0.4623099027000001
 50
275.5800255898985256
 51
276.8720945223004151
  0
ARC
  5
41E9
  8
0
 10
515.5604704676874235
 20
-5.3308280667961307
 30
0.0
 40
0.4600408265000001
 50
274.8186545033008201
 51
275.5799499478977168
  0
ARC
  5
41EA
  8
0
 10
515.6136748511872838
 20
-5.3373044416961308
 30
0.0
 40
0.4841433497
 50
280.3130791820971126
 51
281.2157342063622991
  0
ARC
  5
41EB
  8
0
 10
515.6121453340873586
 20
-5.338555092396132
 30
0.0
 40
0.4822275165
 50
279.8882651532995851
 51
280.1413530550992164
  0
ARC
  5
41EC
  8
0
 10
515.6123225020872951
 20
-5.3395759077961289
 30
0.0
 40
0.4811914412
 50
279.3814727577956774
 51
279.8883563350992745
  0
ARC
  5
41ED
  8
0
 10
515.6142244678874249
 20
-5.3403699856961326
 30
0.0
 40
0.4810289359000001
 50
279.0353561157002105
 51
280.314041281900586
  0
ARC
  5
41EE
  8
0
 10
515.6128103878874072
 20
-5.3426048749961321
 30
0.0
 40
0.478123458
 50
277.8553774153958784
 51
279.3829565954001168
  0
ARC
  5
41EF
  8
0
 10
515.5946841884873493
 20
-5.3353806953961298
 30
0.0
 40
0.4778870299000001
 50
278.7789981173008869
 51
279.0315331132006236
  0
ARC
  5
41F0
  8
0
 10
515.5948320016874504
 20
-5.3363425363961321
 30
0.0
 40
0.4769138976
 50
278.2730608682007869
 51
278.7790843926972002
  0
ARC
  5
41F1
  8
0
 10
515.5967463898873575
 20
-5.3374380100961298
 30
0.0
 40
0.4766991372
 50
277.9152049714971895
 51
278.6818269417959186
  0
ARC
  5
41F2
  8
0
 10
515.5952452300874711
 20
-5.3392674906961322
 30
0.0
 40
0.4739599220000001
 50
276.7473552957987977
 51
278.2745050223983867
  0
ARC
  5
41F3
  8
0
 10
515.6109353659874159
 20
-5.3458914824961328
 30
0.0
 40
0.4722030738000001
 50
225.8237255057991035
 51
227.6058998265006892
  0
ARC
  5
41F4
  8
0
 10
515.5962453390874316
 20
-5.3342410577961319
 30
0.0
 40
0.4799350907
 50
278.6833476729959216
 51
280.2074935541957075
  0
ARC
  5
41F5
  8
0
 10
515.6508542786873477
 20
-5.3733690343961316
 30
0.0
 40
0.4563265215
 50
233.6837794812026914
 51
234.9358315598994125
  0
ARC
  5
41F6
  8
0
 10
515.6501990530873627
 20
-5.3742993398961314
 30
0.0
 40
0.4551886351
 50
234.936064890001802
 51
235.184938333302
  0
ARC
  5
41F7
  8
0
 10
515.6519616738873992
 20
-5.3750113257961321
 30
0.0
 40
0.4546455980000001
 50
234.8352259228961998
 51
235.5865055013017013
  0
ARC
  5
41F8
  8
0
 10
515.6497368874872791
 20
-5.374965885696132
 30
0.0
 40
0.4543775376000001
 50
235.184797979096686
 51
235.9284530007020919
  0
ARC
  5
41F9
  8
0
 10
515.651491189587432
 20
-5.3756959356961342
 30
0.0
 40
0.4538149088
 50
235.5866602123016094
 51
235.8361877818998096
  0
ARC
  5
41FA
  8
0
 10
515.6509102576874284
 20
-5.3765548227961322
 30
0.0
 40
0.4527780065
 50
235.8359810350989108
 51
237.0763615156967887
  0
ARC
  5
41FB
  8
0
 10
515.6285930990874249
 20
-5.3732073699961322
 30
0.0
 40
0.4516907704000001
 50
264.8592258534959001
 51
266.3343377085989232
  0
ARC
  5
41FC
  8
0
 10
515.6254432922874003
 20
-5.3734896114961312
 30
0.0
 40
0.4507728261
 50
239.0695668570031955
 51
239.8080661297989025
  0
ARC
  5
41FD
  8
0
 10
515.6250730728872895
 20
-5.3741245654961327
 30
0.0
 40
0.4500378237
 50
239.8081527315968913
 51
240.2592559444013887
  0
ARC
  5
41FE
  8
0
 10
515.6722984175873989
 20
-5.3844800320961328
 30
0.0
 40
0.4437467276
 50
265.2358073209985037
 51
265.9941350047993751
  0
ARC
  5
41FF
  8
0
 10
515.6702902946874474
 20
-5.3850340221961321
 30
0.0
 40
0.4433373657
 50
264.2998289126960003
 51
265.3149516427949948
  0
ARC
  5
4200
  8
0
 10
515.6722266959874332
 20
-5.3853551037961314
 30
0.0
 40
0.4428687224
 50
264.985126811398402
 51
265.2356513821009116
  0
ARC
  5
4201
  8
0
 10
515.6721908858874031
 20
-5.3857620584961321
 30
0.0
 40
0.4424601952
 50
264.4877520229989045
 51
264.9851396670968029
  0
ARC
  5
4202
  8
0
 10
515.672163356487431
 20
-5.3860495341961299
 30
0.0
 40
0.4421714045
 50
264.2409163363008133
 51
264.4877245011970786
  0
ARC
  5
4203
  8
0
 10
515.6701444494874522
 20
-5.3865028006961326
 30
0.0
 40
0.4418613642000001
 50
263.0565678834956884
 51
264.2997304841002233
  0
ARC
  5
4204
  8
0
 10
515.658043406687284
 20
-5.3868596679961316
 30
0.0
 40
0.4417901221000001
 50
260.3888065951967974
 51
260.8933632887960812
  0
ARC
  5
4205
  8
0
 10
515.6579800294873621
 20
-5.3872293193961323
 30
0.0
 40
0.4414150778
 50
259.640724787798888
 51
260.3889065510040268
  0
ARC
  5
4206
  8
0
 10
515.6559668344874581
 20
-5.3873102799961341
 30
0.0
 40
0.4412819334000001
 50
259.4767507259974195
 51
259.7285457917988083
  0
ARC
  5
4207
  8
0
 10
515.6559508660874371
 20
-5.3873942875961323
 30
0.0
 40
0.4411964223
 50
258.727583414997298
 51
259.4767970973023239
  0
ARC
  5
4208
  8
0
 10
515.6578219998873465
 20
-5.3880923107961296
 30
0.0
 40
0.4405377330000001
 50
258.6584921428955113
 51
259.3933101804998955
  0
ARC
  5
4209
  8
0
 10
515.655817565687471
 20
-5.3880700207961327
 30
0.0
 40
0.4405076679000001
 50
257.4976747364005973
 51
258.7274066006024782
  0
ARC
  5
420A
  8
0
 10
515.6767812634874417
 20
-5.3903198239961307
 30
0.0
 40
0.4373664387
 50
260.9104819524982872
 51
262.1729650508996201
  0
ARC
  5
420B
  8
0
 10
515.6747117733873438
 20
-5.3907634391961334
 30
0.0
 40
0.4371312652000001
 50
259.9801234764011042
 51
260.9874489665982082
  0
ARC
  5
420C
  8
0
 10
515.6766349271873651
 20
-5.3912392850961321
 30
0.0
 40
0.4364354057
 50
260.1585969429007719
 51
260.9103827957965223
  0
ARC
  5
420D
  8
0
 10
515.6745490187873884
 20
-5.3916825875961312
 30
0.0
 40
0.4361978184000001
 50
258.7290055838028024
 51
259.9801694122998015
  0
ARC
  5
420E
  8
0
 10
515.6765918062874334
 20
-5.3914910544961341
 30
0.0
 40
0.4361799709000001
 50
259.9617628749967935
 51
260.1585251520031079
  0
ARC
  5
420F
  8
0
 10
515.6791883272874202
 20
-5.3944911840961298
 30
0.0
 40
0.4327244435
 50
255.6401605628975062
 51
256.6445727668984205
  0
ARC
  5
4210
  8
0
 10
515.6790932304874104
 20
-5.3948631905961308
 30
0.0
 40
0.4323404744
 50
254.6336292009006002
 51
255.6401425513026879
  0
ARC
  5
4211
  8
0
 10
515.6790515658874483
 20
-5.3950167737961312
 30
0.0
 40
0.4321813409000001
 50
254.3816366001024107
 51
254.6335598735992107
  0
ARC
  5
4212
  8
0
 10
515.6783413625872754
 20
-5.3739767497961326
 30
0.0
 40
0.4578659036000001
 50
230.2406116770997926
 51
231.3130208890000858
  0
ARC
  5
4213
  8
0
 10
515.6776270860874547
 20
-5.3748661411961312
 30
0.0
 40
0.4567251997
 50
231.3132237196020924
 51
231.5144757809009946
  0
ARC
  5
4214
  8
0
 10
515.6767744288874837
 20
-5.3759453897961311
 30
0.0
 40
0.4553497783
 50
231.5139467935975972
 51
232.5257905636987061
  0
ARC
  5
4215
  8
0
 10
515.6790343098873564
 20
-5.3759581007961312
 30
0.0
 40
0.4553376799000001
 50
231.3988257712001086
 51
232.4164724171980083
  0
ARC
  5
4216
  8
0
 10
515.6776163102874762
 20
-5.3778000096961316
 30
0.0
 40
0.4530131624
 50
232.5465610851018141
 51
233.680600407401613
  0
ARC
  5
4217
  8
0
 10
515.6723529827874017
 20
-5.3837140975961306
 30
0.0
 40
0.4445146027000001
 50
265.9940158001001009
 51
266.5055801827969049
  0
ARC
  5
4218
  8
0
 10
515.6445868299874746
 20
-5.3605867123961319
 30
0.0
 40
0.4693505915
 50
228.2308757973972888
 51
229.2425355891033121
  0
ARC
  5
4219
  8
0
 10
515.6437645175874422
 20
-5.3615384909961303
 30
0.0
 40
0.4680927848
 50
229.2427202255967131
 51
229.4939450304970876
  0
ARC
  5
421A
  8
0
 10
515.6451496924873936
 20
-5.3626839850961314
 30
0.0
 40
0.467159719
 50
229.3949801245987032
 51
230.1521178663967078
  0
ARC
  5
421B
  8
0
 10
515.6427469809874538
 20
-5.362736603896133
 30
0.0
 40
0.4665208959
 50
229.4933877906962039
 51
230.4921976663007968
  0
ARC
  5
421C
  8
0
 10
515.6443483433872643
 20
-5.363640189996131
 30
0.0
 40
0.4659121288000001
 50
230.1524308001986867
 51
230.4036682977009036
  0
ARC
  5
421D
  8
0
 10
515.6434678769874154
 20
-5.3647080857961331
 30
0.0
 40
0.4645280704000001
 50
230.4033966013971053
 51
231.6497592089984892
  0
ARC
  5
421E
  8
0
 10
515.6439697461872811
 20
-5.3644620591961329
 30
0.0
 40
0.4632016966000001
 50
272.0520782812006928
 51
273.8137742894032272
  0
ARC
  5
421F
  8
0
 10
515.6258166989873644
 20
-5.3616325433961309
 30
0.0
 40
0.4625300078000001
 50
270.8160143783989042
 51
272.5582366555029239
  0
ARC
  5
4220
  8
0
 10
515.6421279574874461
 20
-5.3651699802961321
 30
0.0
 40
0.4622437957
 50
272.3759798218961237
 51
272.6300302362013781
  0
ARC
  5
4221
  8
0
 10
515.6421476182874812
 20
-5.3656437940961306
 30
0.0
 40
0.4617695743
 50
272.1229184762955242
 51
272.3759796797996842
  0
ARC
  5
4222
  8
0
 10
515.6239640735874445
 20
-5.3621686862961306
 30
0.0
 40
0.4614931153000001
 50
271.1437719708001737
 51
271.3916795206002917
  0
ARC
  5
4223
  8
0
 10
515.6239733446874425
 20
-5.3626330625961289
 30
0.0
 40
0.4610286464000001
 50
270.8956806821973942
 51
271.1437720143990759
  0
ARC
  5
4224
  8
0
 10
515.6440690286874542
 20
-5.3668346080961324
 30
0.0
 40
0.4608271144
 50
271.802191806401197
 51
272.0503049393005881
  0
ARC
  5
4225
  8
0
 10
515.6339340792874282
 20
-5.3662239703961321
 30
0.0
 40
0.4605119867000001
 50
232.602587016799589
 51
233.6041821541975025
  0
ARC
  5
4226
  8
0
 10
515.6440834270873665
 20
-5.3672921773961324
 30
0.0
 40
0.4603693187
 50
271.5550321979969226
 51
271.8021916645977853
  0
ARC
  5
4227
  8
0
 10
515.6258638999872801
 20
-5.3640772634961333
 30
0.0
 40
0.4600848636000001
 50
270.3144841821949171
 51
270.8144727381039729
  0
ARC
  5
4228
  8
0
 10
515.6422187314874463
 20
-5.3679124782961321
 30
0.0
 40
0.4594998131000001
 50
270.3791271406021792
 51
272.1245364143006213
  0
ARC
  5
4229
  8
0
 10
515.6330660989874559
 20
-5.367401547996133
 30
0.0
 40
0.4590490859000001
 50
233.6041749062009956
 51
234.3485302305984135
  0
ARC
  5
422A
  8
0
 10
515.6239944834874223
 20
-5.3647465828961289
 30
0.0
 40
0.4589150541
 50
269.1540931430972137
 51
270.8971666774028222
  0
ARC
  5
422B
  8
0
 10
515.634911002587387
 20
-5.3680264807961304
 30
0.0
 40
0.458877038
 50
233.7584272303014075
 51
234.2592514363996088
  0
ARC
  5
422C
  8
0
 10
515.634392935987421
 20
-5.3687463345961328
 30
0.0
 40
0.4579901431000001
 50
234.2592537224979026
 51
234.7576926538025077
  0
ARC
  5
422D
  8
0
 10
515.6324244441874498
 20
-5.3682946024961327
 30
0.0
 40
0.4579494193000001
 50
234.3486396502966898
 51
234.8416953713976056
  0
ARC
  5
422E
  8
0
 10
515.6336318680874911
 20
-5.3698256727961304
 30
0.0
 40
0.4566694639000001
 50
234.7575373522973905
 51
235.992674487699901
  0
ARC
  5
422F
  8
0
 10
515.6306602663873946
 20
-5.3707754074961311
 30
0.0
 40
0.454561699
 50
266.5040825478969282
 51
268.2436303678992999
  0
ARC
  5
4230
  8
0
 10
515.628730179687409
 20
-5.3710988756961324
 30
0.0
 40
0.4538037315
 50
266.8328501181039201
 51
267.0840041618959049
  0
ARC
  5
4231
  8
0
 10
515.6249464820873527
 20
-5.3706524614961326
 30
0.0
 40
0.4534679377000001
 50
236.9266897560005134
 51
237.9212649177989078
  0
ARC
  5
4232
  8
0
 10
515.6287111381874411
 20
-5.371443017896131
 30
0.0
 40
0.4534590629000001
 50
266.5826890137984719
 51
266.8328499787958776
  0
ARC
  5
4233
  8
0
 10
515.6286903237873958
 20
-5.3717916033961313
 30
0.0
 40
0.4531098565
 50
266.3335145353022995
 51
266.5826888724000128
  0
ARC
  5
4234
  8
0
 10
515.630565423387452
 20
-5.3724967569961333
 30
0.0
 40
0.4528377695000001
 50
266.2579975367025895
 51
266.5027797262948184
  0
ARC
  5
4235
  8
0
 10
515.6305439767874077
 20
-5.3728246865961298
 30
0.0
 40
0.4525091394
 50
266.0141928591045257
 51
266.2579973984003914
  0
ARC
  5
4236
  8
0
 10
515.6261178647873749
 20
-5.3723697766961296
 30
0.0
 40
0.4520801503000001
 50
238.0767873249978948
 51
238.8222186904019964
  0
ARC
  5
4237
  8
0
 10
515.6242054178874241
 20
-5.3718382805961307
 30
0.0
 40
0.4520696031000001
 50
237.921030203199507
 51
238.9057649183031913
  0
ARC
  5
4238
  8
0
 10
515.6257682865874585
 20
-5.3729455657961314
 30
0.0
 40
0.4514065502000001
 50
238.8223460704018066
 51
239.0696760540996024
  0
ARC
  5
4239
  8
0
 10
515.6238363756873468
 20
-5.3724485916961324
 30
0.0
 40
0.4513563913000001
 50
238.9058695801030865
 51
239.1504405393025934
  0
ARC
  5
423A
  8
0
 10
515.6298843285874227
 20
-5.3420580990961328
 30
0.0
 40
0.4838127533
 50
280.6112032705988213
 51
281.0267660861143781
  0
ARC
  5
423B
  8
0
 10
515.6317400946874159
 20
-5.3424604368961299
 30
0.0
 40
0.4837974911
 50
280.7902439357026765
 51
280.9768961730317756
  0
ARC
  5
423C
  8
0
 10
515.631923094787453
 20
-5.3434256696961331
 30
0.0
 40
0.4828150642000001
 50
280.2747013995015095
 51
280.7903555628982986
  0
ARC
  5
423D
  8
0
 10
515.6304388092872841
 20
-5.345090775296133
 30
0.0
 40
0.480729834
 50
279.0760592591992122
 51
280.6128061969030796
  0
ARC
  5
423E
  8
0
 10
515.6384842960874266
 20
-5.3513115401961331
 30
0.0
 40
0.4777378118000001
 50
223.8498000649690027
 51
226.1446735809016957
  0
ARC
  5
423F
  8
0
 10
515.6380147600874579
 20
-5.3522494972961328
 30
0.0
 40
0.4747686642000001
 50
277.1553269714019052
 51
278.171048787496602
  0
ARC
  5
4240
  8
0
 10
515.6364096665873831
 20
-5.3539565950961299
 30
0.0
 40
0.4727268139
 50
276.7217004511988989
 51
276.9763034989002222
  0
ARC
  5
4241
  8
0
 10
515.6282690928874217
 20
-5.3528325182961298
 30
0.0
 40
0.4726193120000001
 50
227.0857376605002003
 51
228.0991201605980052
  0
ARC
  5
4242
  8
0
 10
515.6383061304874218
 20
-5.3545337048961317
 30
0.0
 40
0.4724659527
 50
276.3961180455008275
 51
277.1547714225970935
  0
ARC
  5
4243
  8
0
 10
515.620274449287308
 20
-5.3505569189961308
 30
0.0
 40
0.4722816225
 50
275.1555768395990071
 51
276.9142604095966931
  0
ARC
  5
4244
  8
0
 10
515.636480050387263
 20
-5.3545537882961307
 30
0.0
 40
0.4721254873
 50
276.4676808989976848
 51
276.7217003956977237
  0
ARC
  5
4245
  8
0
 10
515.6271922915874484
 20
-5.3540311770961297
 30
0.0
 40
0.4710080134
 50
228.0992354237961024
 51
228.6019067797030004
  0
ARC
  5
4246
  8
0
 10
515.6384939924873834
 20
-5.3561895136961306
 30
0.0
 40
0.4707995224000001
 50
275.8915273930984995
 51
276.3958463012971833
  0
ARC
  5
4247
  8
0
 10
515.6288050864874322
 20
-5.3549349434961311
 30
0.0
 40
0.4706554213000001
 50
228.2619976355985898
 51
228.7683987002016011
  0
ARC
  5
4248
  8
0
 10
515.6261351497873875
 20
-5.3552332993961311
 30
0.0
 40
0.4694071877
 50
228.6016686755029923
 51
229.3510711351993052
  0
ARC
  5
4249
  8
0
 10
515.6367758620873474
 20
-5.3573038998961318
 30
0.0
 40
0.4693595579000001
 50
274.7061787399982791
 51
276.4696158865946813
  0
ARC
  5
424A
  8
0
 10
515.627934339387366
 20
-5.3559286196961313
 30
0.0
 40
0.4693342124
 50
228.7683877621018951
 51
229.5228111173989873
  0
ARC
  5
424B
  8
0
 10
515.620560126287387
 20
-5.3535536596961304
 30
0.0
 40
0.4692713347
 50
274.6489188490995161
 51
275.1537169790973962
  0
ARC
  5
424C
  8
0
 10
515.6266875213874528
 20
-5.35738774779613
 30
0.0
 40
0.4674149394
 50
229.5229611624980919
 51
230.5193863914022074
  0
ARC
  5
424D
  8
0
 10
515.6558034612872916
 20
-5.357742420596133
 30
0.0
 40
0.4752296499
 50
225.9899967414970092
 51
226.2438630753987923
  0
ARC
  5
424E
  8
0
 10
515.673474594287427
 20
-5.3609933931961304
 30
0.0
 40
0.4742291974000001
 50
224.7995701997008098
 51
225.8274601565991873
  0
ARC
  5
424F
  8
0
 10
515.6548422512873913
 20
-5.3587486316961321
 30
0.0
 40
0.4738381101
 50
226.2436679524016085
 51
227.2524862034005935
  0
ARC
  5
4250
  8
0
 10
515.6724616909873475
 20
-5.3620334611961322
 30
0.0
 40
0.4727774014000001
 50
225.827673195301486
 51
226.0832058736974091
  0
ARC
  5
4251
  8
0
 10
515.6740977349874129
 20
-5.3628055370961336
 30
0.0
 40
0.4719707265000001
 50
225.9681850922972046
 51
226.2250880463990086
  0
ARC
  5
4252
  8
0
 10
515.6564581798874087
 20
-5.3576476452961312
 30
0.0
 40
0.4710738523
 50
277.5071973250962856
 51
277.7608915143968034
  0
ARC
  5
4253
  8
0
 10
515.671202307587464
 20
-5.3633490771961307
 30
0.0
 40
0.4709561757
 50
226.0825569136970898
 51
227.0997237399980975
  0
ARC
  5
4254
  8
0
 10
515.673330207187405
 20
-5.3636078090961323
 30
0.0
 40
0.4708604389000001
 50
226.2249870551003994
 51
226.9923674722008968
  0
ARC
  5
4255
  8
0
 10
515.6546795739874369
 20
-5.3581544139961297
 30
0.0
 40
0.4704965206000001
 50
276.801458103898824
 51
277.8235748059998969
  0
ARC
  5
4256
  8
0
 10
515.6565371502874768
 20
-5.358246896696131
 30
0.0
 40
0.4704694198
 50
277.2543474425983163
 51
277.5071972165977741
  0
ARC
  5
4257
  8
0
 10
515.6723882802873504
 20
-5.3646131443961318
 30
0.0
 40
0.4694827902
 50
226.9927410622971138
 51
227.1977445394012136
  0
ARC
  5
4258
  8
0
 10
515.6548477204872825
 20
-5.3595490610961303
 30
0.0
 40
0.4690917749000001
 50
276.5479564159003871
 51
276.8012387085973955
  0
ARC
  5
4259
  8
0
 10
515.6549439331873828
 20
-5.3603926986961321
 30
0.0
 40
0.4682426689
 50
276.044132240296392
 51
276.5480321594981774
  0
ARC
  5
425A
  8
0
 10
515.6714844156874733
 20
-5.365591844296131
 30
0.0
 40
0.4681505659000001
 50
227.1975206778014922
 51
228.2612802274003059
  0
ARC
  5
425B
  8
0
 10
515.6610921517874431
 20
-5.3678634569961314
 30
0.0
 40
0.4641519426
 50
229.2784524626017912
 51
230.5438679650021925
  0
ARC
  5
425C
  8
0
 10
515.6618387058873623
 20
-5.3697685913961317
 30
0.0
 40
0.4619747067000001
 50
230.4368835276976029
 51
231.4473463879016037
  0
ARC
  5
425D
  8
0
 10
515.6595824090874203
 20
-5.3697008839961331
 30
0.0
 40
0.4617738220000001
 50
230.5436232839028037
 51
231.5466658819981092
  0
ARC
  5
425E
  8
0
 10
515.6604109890872678
 20
-5.3715563994961331
 30
0.0
 40
0.4596867758000001
 50
231.447633491402911
 51
232.6998053593009956
  0
ARC
  5
425F
  8
0
 10
515.6576633901873947
 20
-5.3558426656961311
 30
0.0
 40
0.4778883297000001
 50
224.9684657215971981
 51
225.2247664119979902
  0
ARC
  5
4260
  8
0
 10
515.6549153766873133
 20
-5.3561597422961329
 30
0.0
 40
0.4768877171
 50
223.7849003100114942
 51
226.0848399686018126
  0
ARC
  5
4261
  8
0
 10
515.6568448464873882
 20
-5.3566688857961298
 30
0.0
 40
0.4767252937000001
 50
225.2246623827981011
 51
225.9896231116013041
  0
ARC
  5
4262
  8
0
 10
515.6560279812873659
 20
-5.3546291017961334
 30
0.0
 40
0.4741228407
 50
277.7631436143013843
 51
279.5605373143004044
  0
ARC
  5
4263
  8
0
 10
515.6543481542873906
 20
-5.3557206931961314
 30
0.0
 40
0.4729527083
 50
278.0804148678008119
 51
278.3388236902022754
  0
ARC
  5
4264
  8
0
 10
515.6544349813874533
 20
-5.3563322644961326
 30
0.0
 40
0.4723350042
 50
277.8228808351998964
 51
278.0804147652985989
  0
ARC
  5
4265
  8
0
 10
515.6890368982874406
 20
-5.38875891899613
 30
0.0
 40
0.4370214762
 50
264.409295937396621
 51
265.6782724590983094
  0
ARC
  5
4266
  8
0
 10
515.6812419299874364
 20
-5.3944035530961312
 30
0.0
 40
0.4325341866
 50
256.567201766200526
 51
257.8258795295964774
  0
ARC
  5
4267
  8
0
 10
515.6811150688873795
 20
-5.3949381849961329
 30
0.0
 40
0.4319847102
 50
255.5585134812980073
 51
256.5670947396030783
  0
ARC
  5
4268
  8
0
 10
515.6937186659872623
 20
-5.3930477100961323
 30
0.0
 40
0.431569145
 50
262.0682257696956867
 51
262.3241057885015266
  0
ARC
  5
4269
  8
0
 10
515.6957669136874074
 20
-5.3926963753961319
 30
0.0
 40
0.4314338003
 50
262.2556712826986995
 51
263.5381887844955031
  0
ARC
  5
426A
  8
0
 10
515.6936650475873876
 20
-5.3934280394961336
 30
0.0
 40
0.4311850551
 50
261.3017061769970155
 51
262.0683084688009785
  0
ARC
  5
426B
  8
0
 10
515.710158288687353
 20
-5.3887987913961322
 30
0.0
 40
0.4310201239
 50
267.3818487282997012
 51
268.1649756484047202
  0
ARC
  5
426C
  8
0
 10
515.6956316614873685
 20
-5.3936960744961322
 30
0.0
 40
0.4304249936
 50
261.4887307347028127
 51
262.2555789457016999
  0
ARC
  5
426D
  8
0
 10
515.7081084012872907
 20
-5.390138329196132
 30
0.0
 40
0.4303818762
 50
265.8722868771048979
 51
267.1720495535989244
  0
ARC
  5
426E
  8
0
 10
515.7101287994873928
 20
-5.3894684397961301
 30
0.0
 40
0.4303498275
 50
267.121546366599091
 51
267.381698177501903
  0
ARC
  5
426F
  8
0
 10
515.6935267453873166
 20
-5.3943293811961306
 30
0.0
 40
0.4302731647
 50
260.0269531047990768
 51
261.3017594923990146
  0
ARC
  5
4270
  8
0
 10
515.6955751826874348
 20
-5.394078060696132
 30
0.0
 40
0.4300388553000001
 50
261.2335212473034858
 51
261.4886403096987806
  0
ARC
  5
4271
  8
0
 10
515.6981739234873885
 20
-5.39743376629613
 30
0.0
 40
0.4257915933
 50
256.896837405299209
 51
257.9195540731017218
  0
ARC
  5
4272
  8
0
 10
515.7002663180874151
 20
-5.3971468152961304
 30
0.0
 40
0.4255236700000001
 50
257.84586835110008
 51
259.128112711096378
  0
ARC
  5
4273
  8
0
 10
515.6980499972872849
 20
-5.3979660252961326
 30
0.0
 40
0.4252450978000001
 50
255.615798113398796
 51
256.8968419536972192
  0
ARC
  5
4274
  8
0
 10
515.7001339396874755
 20
-5.3977670855961337
 30
0.0
 40
0.424889432
 50
257.0751662348017135
 51
257.845708958401076
  0
ARC
  5
4275
  8
0
 10
515.7000835852874161
 20
-5.3979882922961311
 30
0.0
 40
0.4246625668
 50
256.8181026840979939
 51
257.0751123630020061
  0
ARC
  5
4276
  8
0
 10
515.7049370909874142
 20
-5.3997462791961306
 30
0.0
 40
0.4212631865
 50
253.3945161089000067
 51
254.6828470298032983
  0
ARC
  5
4277
  8
0
 10
515.7048836355872936
 20
-5.3999269117961344
 30
0.0
 40
0.4210748102000001
 50
252.3626996079995024
 51
253.3944371170985903
  0
ARC
  5
4278
  8
0
 10
515.7052688913872771
 20
-5.3752144265961324
 30
0.0
 40
0.4544851886
 50
227.8800678923014118
 51
228.8495250270970018
  0
ARC
  5
4279
  8
0
 10
515.7071914796873671
 20
-5.3756130627961323
 30
0.0
 40
0.4536192774
 50
228.1924506887984023
 51
228.7173141293012861
  0
ARC
  5
427A
  8
0
 10
515.7060950336873475
 20
-5.37686363909613
 30
0.0
 40
0.4519561076
 50
228.7171671617988977
 51
229.8478405450005937
  0
ARC
  5
427B
  8
0
 10
515.6976569466872888
 20
-5.3733231328961297
 30
0.0
 40
0.4503757092000001
 50
274.727418221997425
 51
275.1047450181195018
  0
ARC
  5
427C
  8
0
 10
515.6862042498873961
 20
-5.3778127176961323
 30
0.0
 40
0.4485827433
 50
271.0111889591966019
 51
272.3051918295997211
  0
ARC
  5
427D
  8
0
 10
515.6842952434874405
 20
-5.3791233495961333
 30
0.0
 40
0.4476163605
 50
270.042887412497123
 51
271.075462590801294
  0
ARC
  5
427E
  8
0
 10
515.6862314583872831
 20
-5.3792241754961321
 30
0.0
 40
0.4471710251
 50
270.755303479298675
 51
271.0108948563001832
  0
ARC
  5
427F
  8
0
 10
515.6862395806873565
 20
-5.3798639119961296
 30
0.0
 40
0.4465312371000001
 50
270.247443686597876
 51
270.7553434539005934
  0
ARC
  5
4280
  8
0
 10
515.6862423540874261
 20
-5.3804116154961337
 30
0.0
 40
0.4459835268
 50
269.9951226703008729
 51
270.2473912618003737
  0
ARC
  5
4281
  8
0
 10
515.6842984055874695
 20
-5.3812125482961308
 30
0.0
 40
0.44552716
 50
268.7756953875982049
 51
270.0426818653987198
  0
ARC
  5
4282
  8
0
 10
515.7049716259874685
 20
-5.3785138241961308
 30
0.0
 40
0.4430684311000001
 50
272.6053094184957786
 51
273.733189803126777
  0
ARC
  5
4283
  8
0
 10
515.7030886988874272
 20
-5.3798849701961311
 30
0.0
 40
0.4423205728000001
 50
271.602976338396104
 51
272.6539770981996753
  0
ARC
  5
4284
  8
0
 10
515.7050340920874305
 20
-5.3798471277961299
 30
0.0
 40
0.4417336663000001
 50
272.3433716970989735
 51
272.6050765342969839
  0
ARC
  5
4285
  8
0
 10
515.7050627482874461
 20
-5.3805570305961314
 30
0.0
 40
0.4410231854
 50
271.8222569804997875
 51
272.3434229323959244
  0
ARC
  5
4286
  8
0
 10
515.7050833663872709
 20
-5.3811899188961307
 30
0.0
 40
0.4403899615000001
 50
271.5627646140980005
 51
271.8221942106006281
  0
ARC
  5
4287
  8
0
 10
515.7031533968873873
 20
-5.3821309061961333
 30
0.0
 40
0.4400737059000001
 50
270.3046152147967973
 51
271.6027360058982936
  0
ARC
  5
4288
  8
0
 10
515.691179232687432
 20
-5.3862249537961322
 30
0.0
 40
0.4391438115
 50
266.6387433812960808
 51
267.9257923549985208
  0
ARC
  5
4289
  8
0
 10
515.6891560027872856
 20
-5.3871688833961331
 30
0.0
 40
0.4386159661
 50
265.678410181696222
 51
266.7049603974958814
  0
ARC
  5
428A
  8
0
 10
515.6910959224874205
 20
-5.3876599354961332
 30
0.0
 40
0.4377064138000001
 50
265.8747211632979202
 51
266.638616661900528
  0
ARC
  5
428B
  8
0
 10
515.6910569788874454
 20
-5.3882132227961304
 30
0.0
 40
0.4371517585
 50
265.6214328458980276
 51
265.8745954157010942
  0
ARC
  5
428C
  8
0
 10
515.710206849987344
 20
-5.3872533945961312
 30
0.0
 40
0.4325662833
 50
268.1651014692973831
 51
269.478768773699926
  0
ARC
  5
428D
  8
0
 10
515.7081927720873864
 20
-5.388402630596131
 30
0.0
 40
0.4321196237
 50
267.1722306855950819
 51
268.2185086242978969
  0
ARC
  5
428E
  8
0
 10
515.7128976489874503
 20
-5.3946713888961328
 30
0.0
 40
0.4239499566
 50
263.5035058225009266
 51
263.7647783200013123
  0
ARC
  5
428F
  8
0
 10
515.7149015810873607
 20
-5.3947428366961301
 30
0.0
 40
0.4230974759000001
 50
262.9198776536014179
 51
265.0177788986990208
  0
ARC
  5
4290
  8
0
 10
515.7127814797872816
 20
-5.3956631883961332
 30
0.0
 40
0.4229513820000001
 50
261.4162416982994159
 51
263.5039404836999779
  0
ARC
  5
4291
  8
0
 10
515.7147767122872892
 20
-5.3957759360961344
 30
0.0
 40
0.4220568632
 50
262.6577327357990157
 51
262.91941333709849
  0
ARC
  5
4292
  8
0
 10
515.7173970927874507
 20
-5.3995412680961339
 30
0.0
 40
0.4169396712
 50
258.230798909102873
 51
259.2777977260969919
  0
ARC
  5
4293
  8
0
 10
515.7195093234872729
 20
-5.399124383096134
 30
0.0
 40
0.4165048092000001
 50
259.2092233949991851
 51
260.5230571553009895
  0
ARC
  5
4294
  8
0
 10
515.7172556230874534
 20
-5.4002196828961297
 30
0.0
 40
0.4162466631
 50
256.9194339355959755
 51
258.2308153554994874
  0
ARC
  5
4295
  8
0
 10
515.7193693134873911
 20
-5.3998595264961313
 30
0.0
 40
0.4157564520000001
 50
258.1564618500984238
 51
259.2092093838980986
  0
ARC
  5
4296
  8
0
 10
515.732220930487415
 20
-5.3960494817961306
 30
0.0
 40
0.4136771599000001
 50
264.2689162652957862
 51
264.8496525203602232
  0
ARC
  5
4297
  8
0
 10
515.7321188147874409
 20
-5.3970576213961312
 30
0.0
 40
0.4126638623
 50
262.9256522371957203
 51
264.269045788701078
  0
ARC
  5
4298
  8
0
 10
515.7221071279874423
 20
-5.4020665789961324
 30
0.0
 40
0.4120604827000001
 50
253.6892008432963905
 51
254.7429564631985102
  0
ARC
  5
4299
  8
0
 10
515.7220580243873655
 20
-5.4022354651961333
 30
0.0
 40
0.4118846031000001
 50
252.370868645900913
 51
253.6891585498001973
  0
ARC
  5
429A
  8
0
 10
515.7241761190873603
 20
-5.4020155572961333
 30
0.0
 40
0.4111752924000001
 50
254.6616637386995876
 51
255.9827208425008962
  0
ARC
  5
429B
  8
0
 10
515.7240931353874203
 20
-5.4023207272961331
 30
0.0
 40
0.4108590417000001
 50
253.6032722142005866
 51
254.6615667971965138
  0
ARC
  5
429C
  8
0
 10
515.7274194415873581
 20
-5.40230859239613
 30
0.0
 40
0.4093281788000001
 50
247.7556559665999032
 51
249.0829878939979949
  0
ARC
  5
429D
  8
0
 10
515.7272956225873486
 20
-5.4026305256961296
 30
0.0
 40
0.4089832561
 50
249.0830893141962861
 51
250.1464708130012866
  0
ARC
  5
429E
  8
0
 10
515.7293029098874513
 20
-5.4028200984961341
 30
0.0
 40
0.4077640791
 50
248.9842525048011908
 51
250.0492668403005041
  0
ARC
  5
429F
  8
0
 10
515.7292326934873472
 20
-5.4030126775961316
 30
0.0
 40
0.4075590986
 50
250.0493079183005989
 51
251.3817574960002901
  0
ARC
  5
42A0
  8
0
 10
515.736867569987453
 20
-5.40073981639613
 30
0.0
 40
0.4060445151
 50
259.6714619295005946
 51
260.7500147794992245
  0
ARC
  5
42A1
  8
0
 10
515.7367240382874343
 20
-5.4015293994961322
 30
0.0
 40
0.4052419924000001
 50
258.3205957544990952
 51
259.6714109940036224
  0
ARC
  5
42A2
  8
0
 10
515.7414809431874119
 20
-5.4039687130961322
 30
0.0
 40
0.3996144721
 50
253.6486421683021888
 51
255.9870839213996874
  0
ARC
  5
42A3
  8
0
 10
515.6899637008874606
 20
-5.3675904511961301
 30
0.0
 40
0.4664078099000001
 50
225.6996836079015054
 51
226.9927566578969049
  0
ARC
  5
42A4
  8
0
 10
515.6909397497873897
 20
-5.3690366469961344
 30
0.0
 40
0.4643994895000001
 50
226.8672637857970926
 51
227.1260072262004996
  0
ARC
  5
42A5
  8
0
 10
515.6880669169873954
 20
-5.3696274828961332
 30
0.0
 40
0.4636244160000001
 50
226.9924620082992988
 51
228.0190837468983034
  0
ARC
  5
42A6
  8
0
 10
515.6902162217874093
 20
-5.36981714489613
 30
0.0
 40
0.4633352202000001
 50
227.1259079436021864
 51
227.8994409385022948
  0
ARC
  5
42A7
  8
0
 10
515.6892833380874208
 20
-5.3708452643961317
 30
0.0
 40
0.4619469503
 50
227.8997987602018043
 51
228.1569416307972915
  0
ARC
  5
42A8
  8
0
 10
515.6884223594872765
 20
-5.371809024796133
 30
0.0
 40
0.4606546206
 50
228.1567538295009001
 51
229.1808147499019981
  0
LINE
  5
42A9
  8
0
 10
515.5604568025872823
 20
-5.8181320283961329
 30
0.0
 11
515.5599145068873668
 21
-5.8180628383961324
 31
0.0
  0
LINE
  5
42AA
  8
0
 10
515.562696030787265
 20
-5.8112403926961331
 30
0.0
 11
515.561833489387368
 21
-5.8111787196961311
 31
0.0
  0
LINE
  5
42AB
  8
0
 10
515.5666582510873468
 20
-5.7990459325961314
 30
0.0
 11
515.565779432287286
 21
-5.799034356396132
 31
0.0
  0
LINE
  5
42AC
  8
0
 10
515.5829011422873691
 20
-5.804223112696131
 30
0.0
 11
515.5756547570874773
 21
-5.8020099924961333
 31
0.0
  0
LINE
  5
42AD
  8
0
 10
515.5756547570874773
 20
-5.8020099924961333
 30
0.0
 11
515.5666582510873468
 21
-5.7990459325961314
 31
0.0
  0
LINE
  5
42AE
  8
0
 10
515.5724652915874913
 20
-5.781173699496132
 30
0.0
 11
515.5715683677874495
 21
-5.7812178447961333
 31
0.0
  0
LINE
  5
42AF
  8
0
 10
515.4143070540874305
 20
-5.7301205464961331
 30
0.0
 11
515.4136073753874143
 21
-5.7295576335961309
 31
0.0
  0
LINE
  5
42B0
  8
0
 10
515.40851811848745
 20
-5.7479370580961318
 30
0.0
 11
515.4078003348873835
 21
-5.7474298666961321
 31
0.0
  0
LINE
  5
42B1
  8
0
 10
515.4078003348873835
 20
-5.7474298666961321
 30
0.0
 11
515.4041861124873094
 21
-5.7462819087961332
 31
0.0
  0
LINE
  5
42B2
  8
0
 10
515.4023824508874441
 20
-5.745699728696132
 30
0.0
 11
515.3916164896874079
 21
-5.7420709614961298
 31
0.0
  0
LINE
  5
42B3
  8
0
 10
515.404572175687349
 20
-5.7600814213961309
 30
0.0
 11
515.4038381145873018
 21
-5.7596243267961329
 31
0.0
  0
LINE
  5
42B4
  8
0
 10
515.4023480513874347
 20
-5.7669265720961329
 30
0.0
 11
515.4015988863874327
 21
-5.7665159625961318
 31
0.0
  0
LINE
  5
42B5
  8
0
 10
515.560120099687424
 20
-5.8164519910961321
 30
0.0
 11
515.5609389782873677
 21
-5.8166480443961328
 31
0.0
  0
LINE
  5
42B6
  8
0
 10
515.5628692794873587
 20
-5.8079908857961309
 30
0.0
 11
515.5636739071874217
 21
-5.8082307984961314
 31
0.0
  0
LINE
  5
42B7
  8
0
 10
515.5737678862874418
 20
-5.774448422896131
 30
0.0
 11
515.5745418783874356
 21
-5.7747826225961321
 31
0.0
  0
LINE
  5
42B8
  8
0
 10
515.567371019887446
 20
-5.7941359533961316
 30
0.0
 11
515.5681608628874528
 21
-5.7944213689961312
 31
0.0
  0
LINE
  5
42B9
  8
0
 10
515.4093029466873759
 20
-5.742805303096131
 30
0.0
 11
515.410109706187427
 21
-5.7430386550961323
 31
0.0
  0
LINE
  5
42BA
  8
0
 10
515.4048159909874585
 20
-5.7566147326961321
 30
0.0
 11
515.405607965687409
 21
-5.7568935874961307
 31
0.0
  0
LINE
  5
42BB
  8
0
 10
515.4020810620874045
 20
-5.7650319784961317
 30
0.0
 11
515.4028587859872914
 21
-5.765354692796131
 31
0.0
  0
LINE
  5
42BC
  8
0
 10
515.4156839621873587
 20
-5.7231665566961309
 30
0.0
 11
515.4165065725874229
 21
-5.7233511245961326
 31
0.0
  0
ARC
  5
42BD
  8
0
 10
515.5704316392622104
 20
-3.043595997297416
 30
0.0
 40
2.7093755511698641
 50
255.2481502055399858
 51
256.3167250540540749
  0
ARC
  5
42BE
  8
0
 10
515.0692368398986218
 20
-4.0508192581163156
 30
0.0
 40
1.631250065728296
 50
265.0864660259617835
 51
271.1011285376616797
  0
ARC
  5
42BF
  8
0
 10
515.2801285778965621
 20
-13.6339096835715097
 30
0.0
 40
7.9541682117585264
 50
88.6954911955003666
 51
91.2934067494048804
  0
ARC
  5
42C0
  8
0
 10
515.4693067952949832
 20
-7.1985467196460142
 30
0.0
 40
1.516765287625212
 50
66.7548454742886008
 51
90.3057359148245951
  0
ARC
  5
42C1
  8
0
 10
514.8885589316873848
 20
-4.9164578089961353
 30
0.0
 40
0.0315103183000013
 50
91.4856829104083431
 51
180.3098620579366127
  0
ARC
  5
42C2
  8
0
 10
515.6611900957517491
 20
-5.2319406900881393
 30
0.0
 40
0.5966366313881872
 50
257.0968174388628995
 51
277.7378669865555025
  0
ARC
  5
42C3
  8
0
 10
515.6663668481070317
 20
-5.2310506154447909
 30
0.0
 40
0.5991626435262899
 50
228.4930652429598865
 51
246.8285849665944909
  0
LINE
  5
42C4
  8
0
 10
515.4023480513874347
 20
-5.7669265720961329
 30
0.0
 11
515.4017930654989641
 21
-5.7686346432525086
 31
0.0
  0
LINE
  5
42C5
  8
0
 10
516.0410693675901257
 20
-5.7936750177930056
 30
0.0
 11
516.0379374059873498
 21
-5.7952673875961329
 31
0.0
  0
LINE
  5
42C6
  8
0
 10
516.0379374059873498
 20
-5.7952673875961329
 30
0.0
 11
515.8031194868317471
 21
-5.718970420594883
 31
0.0
  0
LINE
  5
42C7
  8
0
 10
515.9676837054872749
 20
-5.7724405764961331
 30
0.0
 11
515.9627227860872836
 21
-5.7749682911961333
 31
0.0
  0
LINE
  5
42C8
  8
0
 10
515.9627227860872836
 20
-5.7749682911961333
 30
0.0
 11
515.7662650207075785
 21
-5.7111352936765112
 31
0.0
  0
LINE
  5
42C9
  8
0
 10
515.8878364462874515
 20
-5.7506362443961327
 30
0.0
 11
515.863031849509639
 21
-5.7632748177357911
 31
0.0
  0
LINE
  5
42CA
  8
0
 10
515.863031849509639
 20
-5.7632748177357911
 30
0.0
 11
515.6428922314538568
 21
-5.6917471197992606
 31
0.0
  0
LINE
  5
42CB
  8
0
 10
515.280626204724399
 20
-5.6883895439396186
 30
0.0
 11
515.2818720698896868
 21
-5.684555165325416
 31
0.0
  0
LINE
  5
42CC
  8
0
 10
515.2818719447567446
 20
-5.6845555504451113
 30
0.0
 11
515.2754222600864296
 21
-5.6797428641288521
 31
0.0
  0
LINE
  5
42CD
  8
0
 10
515.2806262046976826
 20
-5.6883895439185279
 30
0.0
 11
515.2712347297086808
 21
-5.6797464440840129
 31
0.0
  0
LINE
  5
42CE
  8
0
 10
515.2826509265087225
 20
-5.6821580908359008
 30
0.0
 11
515.2834359103201223
 21
-5.6797421594051949
 31
0.0
  0
LINE
  5
42CF
  8
0
 10
515.2985727631810278
 20
-5.688323374730583
 30
0.0
 11
515.2902304232358119
 21
-5.679760504867712
 31
0.0
  0
LINE
  5
42D0
  8
0
 10
515.282650651847689
 20
-5.6821589364183893
 30
0.0
 11
515.2802562047281754
 21
-5.6797414728368869
 31
0.0
  0
LINE
  5
42D1
  8
0
 10
515.2947781901158351
 20
-5.679754962307177
 30
0.0
 11
515.2939596782983926
 21
-5.682274082730558
 31
0.0
  0
LINE
  5
42D2
  8
0
 10
515.2994994325206335
 20
-5.679765058852837
 30
0.0
 11
515.3106298135445513
 21
-5.6861435990712996
 31
0.0
  0
LINE
  5
42D3
  8
0
 10
515.3106278254189192
 20
-5.6861424597267236
 30
0.0
 11
515.3074646991206009
 21
-5.6957813403925099
 31
0.0
  0
LINE
  5
42D4
  8
0
 10
520.2525325174301543
 20
-8.8749068813961181
 30
0.0
 11
518.5954239030039616
 21
-8.8749068675961151
 31
0.0
  0
LINE
  5
42D5
  8
0
 10
520.2527071415024693
 20
-8.8754589919477258
 30
0.0
 11
520.3473766705609478
 21
-9.1779253734961337
 31
0.0
  0
ARC
  5
42D6
  8
0
 10
520.2923109253713392
 20
-8.8626292537472349
 30
0.0
 40
0.0416300598008258
 50
179.9729391843218025
 51
197.9498526481307863
  0
ARC
  5
42D7
  8
0
 10
520.3066370019004125
 20
-9.1901044604726021
 30
0.0
 40
0.0425211801594351
 50
0.3981912130493685
 51
16.6439873859456995
  0
LINE
  5
42D8
  8
0
 10
518.4987992609760568
 20
-9.223011864896133
 30
0.0
 11
520.3491571551988955
 21
-9.223011864896133
 31
0.0
  0
LINE
  5
42D9
  8
0
 10
518.4987992609760568
 20
-9.1898089513765395
 30
0.0
 11
520.3491571551988955
 21
-9.1898089513765395
 31
0.0
  0
LINE
  5
42DA
  8
0
 10
520.3491571551988955
 20
-9.223011864896133
 30
0.0
 11
520.3491571551988955
 21
-9.1898089513765395
 31
0.0
  0
LINE
  5
42DB
  8
0
 10
518.5952492746722555
 20
-8.8754589919476423
 30
0.0
 11
518.500579745613777
 21
-9.1779253734961337
 31
0.0
  0
ARC
  5
42DC
  8
0
 10
518.5556454908033857
 20
-8.8626292537472349
 30
0.0
 40
0.0416300598008258
 50
342.0501473519867091
 51
0.0270608078084914
  0
ARC
  5
42DD
  8
0
 10
518.5413194142745397
 20
-9.1901044604726021
 30
0.0
 40
0.0425211801594351
 50
163.3560126140542934
 51
179.6018087869506132
  0
LINE
  5
42DE
  8
0
 10
518.4987992609760568
 20
-9.223011864896133
 30
0.0
 11
518.4987992609760568
 21
-9.1898089513765395
 31
0.0
  0
ENDSEC
  0
EOF
