  0
SECTION
  2
HEADER
  9
$ACADVER
  1
AC1009
  9
$INSBASE
 10
505.2558572764231144
 20
-9.9550510667982941
 30
0.0
  9
$EXTMIN
 10
500.6562579773578818
 20
-9.9598143750943322
 30
-0.0000000349181948
  9
$EXTMAX
 10
506.5305994000091232
 20
-3.7474953462519518
 30
0.0000000814935746
  9
$LIMMIN
 10
0.0
 20
0.0
  9
$LIMMAX
 10
11.6929133858000007
 20
8.2677165353999982
  9
$ORTHOMODE
 70
     0
  9
$REGENMODE
 70
     1
  9
$FILLMODE
 70
     1
  9
$QTEXTMODE
 70
     0
  9
$MIRRTEXT
 70
     0
  9
$DRAGMODE
 70
     2
  9
$LTSCALE
 40
0.6431102362
  9
$OSMODE
 70
  3839
  9
$ATTMODE
 70
     1
  9
$TEXTSIZE
 40
0.2
  9
$TRACEWID
 40
0.05
  9
$TEXTSTYLE
  7
STANDARD
  9
$CLAYER
  8
DEFPOINT
  9
$CELTYPE
  6
BYLAYER
  9
$CECOLOR
 62
   256
  9
$DIMSCALE
 40
1.0
  9
$DIMASZ
 40
0.1875
  9
$DIMEXO
 40
0.0625
  9
$DIMDLI
 40
0.4443307087
  9
$DIMRND
 40
0.0
  9
$DIMDLE
 40
0.0
  9
$DIMEXE
 40
0.125
  9
$DIMTP
 40
0.01
  9
$DIMTM
 40
0.01
  9
$DIMTXT
 40
1.0
  9
$DIMCEN
 40
0.1052362205
  9
$DIMTSZ
 40
0.0
  9
$DIMTOL
 70
     1
  9
$DIMLIM
 70
     0
  9
$DIMTIH
 70
     1
  9
$DIMTOH
 70
     1
  9
$DIMSE1
 70
     0
  9
$DIMSE2
 70
     0
  9
$DIMTAD
 70
     0
  9
$DIMZIN
 70
     0
  9
$DIMBLK
  1

  9
$DIMASO
 70
     1
  9
$DIMSHO
 70
     1
  9
$DIMPOST
  1
\X
  9
$DIMAPOST
  1

  9
$DIMALT
 70
     1
  9
$DIMALTD
 70
     2
  9
$DIMALTF
 40
25.3999999999999986
  9
$DIMLFAC
 40
1.0
  9
$DIMTOFL
 70
     0
  9
$DIMTVP
 40
0.0
  9
$DIMTIX
 70
     0
  9
$DIMSOXD
 70
     0
  9
$DIMSAH
 70
     0
  9
$DIMBLK1
  1

  9
$DIMBLK2
  1

  9
$DIMSTYLE
  2
STANDARD
  9
$DIMCLRD
 70
     0
  9
$DIMCLRE
 70
     0
  9
$DIMCLRT
 70
     0
  9
$DIMTFAC
 40
1.0
  9
$DIMGAP
 40
0.09
  9
$LUNITS
 70
     2
  9
$LUPREC
 70
     4
  9
$SKETCHINC
 40
0.1
  9
$FILLETRAD
 40
0.0
  9
$AUNITS
 70
     0
  9
$AUPREC
 70
     0
  9
$MENU
  1
.
  9
$ELEVATION
 40
0.0
  9
$PELEVATION
 40
0.0
  9
$THICKNESS
 40
0.0
  9
$LIMCHECK
 70
     0
  9
$BLIPMODE
 70
     0
  9
$CHAMFERA
 40
0.0
  9
$CHAMFERB
 40
0.0
  9
$SKPOLY
 70
     0
  9
$TDCREATE
 40
2458306.6094560190103948
  9
$TDUPDATE
 40
2459184.7566087958402932
  9
$TDINDWG
 40
0.1196849537
  9
$TDUSRTIMER
 40
0.1196848264
  9
$USRTIMER
 70
     1
  9
$ANGBASE
 50
0.0
  9
$ANGDIR
 70
     0
  9
$PDMODE
 70
     0
  9
$PDSIZE
 40
0.3125
  9
$PLINEWID
 40
0.0
  9
$COORDS
 70
     1
  9
$SPLFRAME
 70
     0
  9
$SPLINETYPE
 70
     6
  9
$SPLINESEGS
 70
     8
  9
$ATTDIA
 70
     1
  9
$ATTREQ
 70
     1
  9
$HANDLING
 70
     1
  9
$HANDSEED
  5
4A8D
  9
$SURFTAB1
 70
     6
  9
$SURFTAB2
 70
     6
  9
$SURFTYPE
 70
     6
  9
$SURFU
 70
     6
  9
$SURFV
 70
     6
  9
$UCSNAME
  2

  9
$UCSORG
 10
0.0
 20
0.0
 30
0.0
  9
$UCSXDIR
 10
1.0
 20
0.0
 30
0.0
  9
$UCSYDIR
 10
0.0
 20
1.0
 30
0.0
  9
$PUCSNAME
  2

  9
$PUCSORG
 10
0.0
 20
0.0
 30
0.0
  9
$PUCSXDIR
 10
1.0
 20
0.0
 30
0.0
  9
$PUCSYDIR
 10
0.0
 20
1.0
 30
0.0
  9
$USERI1
 70
     0
  9
$USERI2
 70
     0
  9
$USERI3
 70
     0
  9
$USERI4
 70
     0
  9
$USERI5
 70
     0
  9
$USERR1
 40
0.0
  9
$USERR2
 40
0.0
  9
$USERR3
 40
0.0
  9
$USERR4
 40
0.0
  9
$USERR5
 40
0.0
  9
$WORLDVIEW
 70
     1
  9
$SHADEDGE
 70
     3
  9
$SHADEDIF
 70
    70
  9
$TILEMODE
 70
     1
  9
$MAXACTVP
 70
    64
  9
$PLIMCHECK
 70
     0
  9
$PEXTMIN
 10
1.0000000000000000E+20
 20
1.0000000000000000E+20
 30
1.0000000000000000E+20
  9
$PEXTMAX
 10
-1.0000000000000000E+20
 20
-1.0000000000000000E+20
 30
-1.0000000000000000E+20
  9
$PLIMMIN
 10
0.0
 20
0.0
  9
$PLIMMAX
 10
12.0
 20
9.0
  9
$UNITMODE
 70
     0
  9
$VISRETAIN
 70
     1
  9
$PLINEGEN
 70
     0
  9
$PSLTSCALE
 70
     1
  0
ENDSEC
  0
SECTION
  2
TABLES
  0
TABLE
  2
VPORT
 70
     1
  0
VPORT
  2
*ACTIVE
 70
     0
 10
0.0
 20
0.0
 11
1.0
 21
1.0
 12
161.9861424678227024
 22
2.1162822333173512
 13
0.0
 23
0.0
 14
1.0
 24
1.0
 15
0.0
 25
0.0
 16
0.0
 26
0.0
 36
57.1721640433716018
 17
341.6072862208607717
 27
-8.9699370939904934
 37
0.0
 40
6.2810900882022578
 41
3.0887245841035109
 42
50.0
 43
0.0
 44
0.0
 50
0.0
 51
0.0
 71
     0
 72
   100
 73
     1
 74
     1
 75
     0
 76
     0
 77
     0
 78
     0
  0
ENDTAB
  0
TABLE
  2
LTYPE
 70
     1
  0
LTYPE
  2
CONTINUOUS
 70
     0
  3
Solid line
 72
    65
 73
     0
 40
0.0
  0
ENDTAB
  0
TABLE
  2
LAYER
 70
     2
  0
LAYER
  2
0
 70
     0
 62
   255
  6
CONTINUOUS
  0
LAYER
  2
DEFPOINT
 70
     0
 62
     7
  6
CONTINUOUS
  0
ENDTAB
  0
TABLE
  2
STYLE
 70
     1
  0
STYLE
  2
STANDARD
 70
     0
 40
0.0
 41
0.8
 50
0.0
 71
     0
 42
0.2
  3
txt
  4

  0
ENDTAB
  0
TABLE
  2
VIEW
 70
     0
  0
ENDTAB
  0
TABLE
  2
UCS
 70
     0
  0
ENDTAB
  0
TABLE
  2
APPID
 70
    10
  0
APPID
  2
ACAD
 70
     0
  0
APPID
  2
ACADANNOTATIVE
 70
     0
  0
APPID
  2
ACAD_MLEADERVER
 70
     0
  0
APPID
  2
ACAD_EXEMPT_FROM_CAD_STANDARDS
 70
     0
  0
APPID
  2
ACAD_DSTYLE_DIMJAG
 70
     0
  0
APPID
  2
ACAD_DSTYLE_DIMTALN
 70
     0
  0
APPID
  2
ACAD_NAV_VCDISPLAY
 70
     0
  0
APPID
  2
ACAECLAYERSTANDARD
 70
     0
  0
APPID
  2
ACCMTRANSPARENCY
 70
     0
  0
APPID
  2
ACDBATTR
 70
     0
  0
ENDTAB
  0
TABLE
  2
DIMSTYLE
 70
     1
  0
DIMSTYLE
  2
STANDARD
 70
     0
  3

  4

  5

  6

  7

 40
1.0
 41
0.1875
 42
0.0625
 43
0.38
 44
0.125
 45
0.0
 46
0.0
 47
0.01
 48
0.01
140
0.15625
141
0.09
142
0.0
143
25.3999999999999986
144
1.0
145
0.0
146
1.0
147
0.09
 71
     1
 72
     0
 73
     1
 74
     1
 75
     0
 76
     0
 77
     0
 78
     4
170
     0
171
     2
172
     0
173
     0
174
     0
175
     0
176
     0
177
     0
178
     0
  0
ENDTAB
  0
ENDSEC
  0
SECTION
  2
BLOCKS
  0
BLOCK
  8
0
  2
$MODEL_SPACE
 70
     0
 10
0.0
 20
0.0
 30
0.0
  3
$MODEL_SPACE
  1

  0
ENDBLK
  5
1598
  8
0
  0
BLOCK
 67
     1
  8
0
  2
$PAPER_SPACE
 70
     0
 10
0.0
 20
0.0
 30
0.0
  3
$PAPER_SPACE
  1

  0
ENDBLK
  5
1594
 67
     1
  8
0
  0
BLOCK
  8
0
  2
_FILLED
 70
     0
 10
0.0
 20
0.0
 30
0.0
  3
_FILLED
  1

  0
SOLID
  5
3F0C
  8
0
  6
BYBLOCK
 62
     0
 10
0.0
 20
0.0
 30
0.0
 11
-1.0
 21
0.1666666667
 31
0.0
 12
-1.0
 22
-0.1666666667
 32
0.0
 13
-1.0
 23
-0.1666666667
 33
0.0
  0
ENDBLK
  5
3F0D
  8
0
  6
BYBLOCK
 62
     0
  0
ENDSEC
  0
SECTION
  2
ENTITIES
  0
ATTDEF
  5
659
  8
DEFPOINT
 10
505.2446747766758222
 20
-9.9562664189805776
 30
0.0
 40
0.001
  1
K-74013AR-4ND
  3

  2
MODELNUMBER
 70
     0
1001
ACDBATTR
1070
     0
1070
     1
  0
ATTDEF
  5
65A
  8
DEFPOINT
 10
505.2446747766758222
 20
-9.9579330856472428
 30
0.0
 40
0.001
  1
TAUT
  3

  2
TRADENAME
 70
     0
1001
ACDBATTR
1070
     0
1070
     1
  0
ATTDEF
  5
65B
  8
DEFPOINT
 10
505.2446747766758222
 20
-9.9595997523139062
 30
0.0
 40
0.001
  1
BATHROOM SINK FAUCET
  3

  2
PRODUCT
 70
     0
1001
ACDBATTR
1070
     0
1070
     1
  0
LINE
  5
47D9
  8
0
 10
500.6879933701583241
 20
-5.5697452295982863
 30
0.0
 11
500.6879933701583241
 21
-6.2865080352982856
 31
0.0
  0
LINE
  5
47DA
  8
0
 10
501.1194381296584766
 20
-6.3493255790982941
 30
0.0
 11
501.1216140454583865
 21
-6.3426287988982919
 31
0.0
  0
LINE
  5
47DB
  8
0
 10
501.1279406968586159
 20
-6.3495436522982827
 30
0.0
 11
501.1306609272585888
 21
-6.3411716438982948
 31
0.0
  0
LINE
  5
47DC
  8
0
 10
501.1444825245583274
 20
-6.3623352670983051
 30
0.0
 11
501.1471834630586955
 21
-6.3540226330982854
 31
0.0
  0
LINE
  5
47DD
  8
0
 10
501.1497219781584818
 20
-6.3725961713983033
 30
0.0
 11
501.1518472244587201
 21
-6.3660553357982819
 31
0.0
  0
LINE
  5
47DE
  8
0
 10
501.1535478775584238
 20
-6.3608212635983001
 30
0.0
 11
501.1568201344584281
 21
-6.3507502924982786
 31
0.0
  0
LINE
  5
47DF
  8
0
 10
501.1666240821584779
 20
-6.3842789694983004
 30
0.0
 11
501.1687267631584746
 21
-6.3778075829982903
 31
0.0
  0
LINE
  5
47E0
  8
0
 10
501.1704089542583915
 20
-6.3726303310982964
 30
0.0
 11
501.1736446323582754
 21
-6.3626719377983001
 31
0.0
  0
LINE
  5
47E1
  8
0
 10
501.1753528128585913
 20
-6.383800983198288
 30
0.0
 11
501.1780003018582761
 21
-6.3756528498982759
 31
0.0
  0
LINE
  5
47E2
  8
0
 10
501.1800392228586247
 20
-6.3693776961982884
 30
0.0
 11
501.1836135659585238
 21
-6.3583769991983017
 31
0.0
  0
LINE
  5
47E3
  8
0
 10
501.1925642094586806
 20
-6.3945318765982817
 30
0.0
 11
501.195188368558604
 21
-6.3864555455982979
 31
0.0
  0
LINE
  5
47E4
  8
0
 10
501.1972088273586223
 20
-6.3802372125983062
 30
0.0
 11
501.2009973085586125
 21
-6.368577466398281
 31
0.0
  0
LINE
  5
47E5
  8
0
 10
501.1981189298584241
 20
-6.4038224895983014
 30
0.0
 11
501.2001885694584189
 21
-6.3974527939983012
 31
0.0
  0
LINE
  5
47E6
  8
0
 10
501.2018437511586058
 20
-6.3923586682983027
 30
0.0
 11
501.205025980158382
 21
-6.3825647744982952
 31
0.0
  0
LINE
  5
47E7
  8
0
 10
501.2074149714583768
 20
-6.3752122153982809
 30
0.0
 11
501.2100898853585136
 21
-6.3669796768982989
 31
0.0
  0
LINE
  5
47E8
  8
0
 10
501.2156566022584911
 20
-6.4135492095983038
 30
0.0
 11
501.2177122668584275
 21
-6.4072225243982963
 31
0.0
  0
LINE
  5
47E9
  8
0
 10
501.2193560333582809
 20
-6.4021635311982861
 30
0.0
 11
501.2225156952584939
 21
-6.3924390918983001
 31
0.0
  0
LINE
  5
47EA
  8
0
 10
501.2248871854583854
 20
-6.3851403954982997
 30
0.0
 11
501.2288114703586075
 21
-6.3730626885982851
 31
0.0
  0
LINE
  5
47EB
  8
0
 10
501.2246095603584877
 20
-6.4123811220982851
 30
0.0
 11
501.2272006781585105
 21
-6.4044064813982997
 31
0.0
  0
LINE
  5
47EC
  8
0
 10
501.2291950129585985
 20
-6.3982685500982974
 30
0.0
 11
501.2329328258585974
 21
-6.3867647448983043
 31
0.0
  0
LINE
  5
47ED
  8
0
 10
501.2356895752585046
 20
-6.3782803425982912
 30
0.0
 11
501.2365662047585033
 21
-6.375582354498281
 31
0.0
  0
LINE
  5
47EE
  8
0
 10
501.2424423970585963
 20
-6.4211994196982998
 30
0.0
 11
501.2450203181587085
 21
-6.4132653941982802
 31
0.0
  0
LINE
  5
47EF
  8
0
 10
501.2470042264583867
 20
-6.4071595524982881
 30
0.0
 11
501.2507218359585863
 21
-6.3957179268983033
 31
0.0
  0
LINE
  5
47F0
  8
0
 10
501.2534631036585893
 20
-6.3872811724982936
 30
0.0
 11
501.2552877897585972
 21
-6.3816653661982938
 31
0.0
  0
LINE
  5
47F1
  8
0
 10
501.2482768632584111
 20
-6.429629063498286
 30
0.0
 11
501.2503138160585081
 21
-6.4233599671982828
 31
0.0
  0
LINE
  5
47F2
  8
0
 10
501.2519423059583232
 20
-6.4183479907982841
 30
0.0
 11
501.2550717875586201
 21
-6.408716436898291
 31
0.0
  0
LINE
  5
47F3
  8
0
 10
501.2574198917585022
 20
-6.4014897150982817
 30
0.0
 11
501.2617436812586789
 21
-6.3881824594982994
 31
0.0
  0
LINE
  5
47F4
  8
0
 10
501.2664147278586029
 20
-6.4375085816982986
 30
0.0
 11
501.2684449842585082
 21
-6.4312600950982839
 31
0.0
  0
LINE
  5
47F5
  8
0
 10
501.2700680090587184
 20
-6.4262649382982922
 30
0.0
 11
501.2731866997585826
 21
-6.416666595198282
 31
0.0
  0
LINE
  5
47F6
  8
0
 10
501.2755264477585229
 20
-6.4094655912983027
 30
0.0
 11
501.2798342333583719
 21
-6.3962075905982969
 31
0.0
  0
LINE
  5
47F7
  8
0
 10
501.2755961055585203
 20
-6.4356374911982961
 30
0.0
 11
501.2781582099585762
 21
-6.427752144498303
 31
0.0
  0
LINE
  5
47F8
  8
0
 10
501.280129627258475
 20
-6.4216847458982933
 30
0.0
 11
501.2838230473582826
 21
-6.4103175676982893
 31
0.0
  0
LINE
  5
47F9
  8
0
 10
501.2865457916586251
 20
-6.4019378222982972
 30
0.0
 11
501.2895188434583815
 21
-6.392787709798287
 31
0.0
  0
LINE
  5
47FA
  8
0
 10
501.2940242130583215
 20
-6.442623733498297
 30
0.0
 11
501.2965820427583026
 21
-6.4347515430982902
 31
0.0
  0
LINE
  5
47FB
  8
0
 10
501.2985500851585243
 20
-6.4286945313982962
 30
0.0
 11
501.3022369722582994
 21
-6.4173474596982798
 31
0.0
  0
LINE
  5
47FC
  8
0
 10
501.3049547162585213
 20
-6.4089831037982812
 30
0.0
 11
501.3082404284585891
 21
-6.3988707214983007
 31
0.0
  0
LINE
  5
47FD
  8
0
 10
501.300113791758406
 20
-6.4502682216982841
 30
0.0
 11
501.3021379835585094
 21
-6.4440383999982798
 31
0.0
  0
LINE
  5
47FE
  8
0
 10
501.3037560600586175
 20
-6.4390584726982949
 30
0.0
 11
501.3068649826585101
 21
-6.4294901925982826
 31
0.0
  0
LINE
  5
47FF
  8
0
 10
501.3091971688584749
 20
-6.4223124616982856
 30
0.0
 11
501.3134904778584087
 21
-6.4090990150982954
 31
0.0
  0
LINE
  5
4800
  8
0
 10
501.3188353767584999
 20
-6.4563512333982969
 30
0.0
 11
501.3208595685584896
 21
-6.4501214116982943
 31
0.0
  0
LINE
  5
4801
  8
0
 10
501.3279187538586257
 20
-6.4283954733983002
 30
0.0
 11
501.3322120628583889
 21
-6.4151820267982798
 31
0.0
  0
LINE
  5
4802
  8
0
 10
501.3282552668587186
 20
-6.4537460770982911
 30
0.0
 11
501.3308130965586997
 21
-6.4458738866982834
 31
0.0
  0
LINE
  5
4803
  8
0
 10
501.3327811389585236
 20
-6.4398168749982894
 30
0.0
 11
501.3364680260585828
 21
-6.4284698032983023
 31
0.0
  0
LINE
  5
4804
  8
0
 10
501.3391857700582932
 20
-6.4201054473983019
 30
0.0
 11
501.3424714822584178
 21
-6.4099930650982939
 31
0.0
  0
LINE
  5
4805
  8
0
 10
501.3472703292584924
 20
-6.4589258581982882
 30
0.0
 11
501.3498324336587189
 21
-6.4510405114982952
 31
0.0
  0
LINE
  5
4806
  8
0
 10
501.3518038509586177
 20
-6.4449731128982846
 30
0.0
 11
501.3554972710584252
 21
-6.4336059346982806
 31
0.0
  0
LINE
  5
4807
  8
0
 10
501.3582200153584836
 20
-6.4252261892982894
 30
0.0
 11
501.3611930671585242
 21
-6.4160760767982801
 31
0.0
  0
LINE
  5
4808
  8
0
 10
501.3535984203584235
 20
-6.4658362805982987
 30
0.0
 11
501.3556286767582719
 21
-6.459587793998284
 31
0.0
  0
LINE
  5
4809
  8
0
 10
501.3572517015584822
 20
-6.4545926371982922
 30
0.0
 11
501.3603703922584032
 21
-6.4449942940982821
 31
0.0
  0
LINE
  5
480A
  8
0
 10
501.3627101403583879
 20
-6.4377932900982868
 30
0.0
 11
501.3670179258585904
 21
-6.424535289498297
 31
0.0
  0
LINE
  5
480B
  8
0
 10
501.3729037256583752
 20
-6.470122785798285
 30
0.0
 11
501.3749406785585165
 21
-6.4638536894982819
 31
0.0
  0
LINE
  5
480C
  8
0
 10
501.3820467542585106
 20
-6.441983437298294
 30
0.0
 11
501.3863705436586997
 21
-6.4286761817982976
 31
0.0
  0
LINE
  5
480D
  8
0
 10
501.3825787283583963
 20
-6.4667324737982907
 30
0.0
 11
501.3851566494585086
 21
-6.4587984483982872
 31
0.0
  0
LINE
  5
480E
  8
0
 10
501.3871405576585971
 20
-6.452692606598279
 30
0.0
 11
501.3908581671583988
 21
-6.441250981098281
 31
0.0
  0
LINE
  5
480F
  8
0
 10
501.3935994348582881
 20
-6.4328142266983006
 30
0.0
 11
501.395424120958296
 21
-6.4271984203983008
 31
0.0
  0
LINE
  5
4810
  8
0
 10
501.402189061558488
 20
-6.4700801996982911
 30
0.0
 11
501.4047801793585108
 21
-6.4621055589982781
 31
0.0
  0
LINE
  5
4811
  8
0
 10
501.4067745141585988
 20
-6.4559676276983033
 30
0.0
 11
501.4105123270585977
 21
-6.4444638224982809
 31
0.0
  0
LINE
  5
4812
  8
0
 10
501.413269076458505
 20
-6.4359794200982812
 30
0.0
 11
501.4141457059585036
 21
-6.4332814320982861
 31
0.0
  0
LINE
  5
4813
  8
0
 10
501.4087455721585798
 20
-6.4762876190982901
 30
0.0
 11
501.4108012368586742
 21
-6.4699609338982809
 31
0.0
  0
LINE
  5
4814
  8
0
 10
501.4124450033585845
 20
-6.4649019405982839
 30
0.0
 11
501.4156046652586269
 21
-6.455177501298297
 31
0.0
  0
LINE
  5
4815
  8
0
 10
501.4179761554585752
 20
-6.447878804998286
 30
0.0
 11
501.4219004403582858
 21
-6.435801097998282
 31
0.0
  0
LINE
  5
4816
  8
0
 10
501.4286510697587005
 20
-6.4787269224982849
 30
0.0
 11
501.4307207093586953
 21
-6.4723572268982847
 31
0.0
  0
LINE
  5
4817
  8
0
 10
501.4323758910584843
 20
-6.4672631011982871
 30
0.0
 11
501.4355581200582037
 21
-6.4574692073982787
 31
0.0
  0
LINE
  5
4818
  8
0
 10
501.4379471113583122
 20
-6.4501166481983061
 30
0.0
 11
501.4406220252583921
 21
-6.4418841096982957
 31
0.0
  0
LINE
  5
4819
  8
0
 10
501.4386058182583952
 20
-6.4744756413983033
 30
0.0
 11
501.4412299772582742
 21
-6.4663993103982911
 31
0.0
  0
LINE
  5
481A
  8
0
 10
501.4432504361582801
 20
-6.4601809773982977
 30
0.0
 11
501.4470389172586806
 21
-6.4485212311983018
 31
0.0
  0
LINE
  5
481B
  8
0
 10
501.4588375914585185
 20
-6.4759107713982793
 30
0.0
 11
501.4614850804584876
 21
-6.4677626380982964
 31
0.0
  0
LINE
  5
481C
  8
0
 10
501.4635240015584827
 20
-6.4614874843982788
 30
0.0
 11
501.4670983446674768
 21
-6.4504867873706964
 31
0.0
  0
LINE
  5
481D
  8
0
 10
501.465618329658696
 20
-6.4814280894982828
 30
0.0
 11
501.4677210105585914
 21
-6.4749567029983011
 31
0.0
  0
LINE
  5
481E
  8
0
 10
501.4694032016585084
 20
-6.4697794511982947
 30
0.0
 11
501.4726388798583798
 21
-6.4598210578982993
 31
0.0
  0
LINE
  5
481F
  8
0
 10
501.4861593955586727
 20
-6.4819113147982854
 30
0.0
 11
501.4882846418585132
 21
-6.47537047929828
 31
0.0
  0
LINE
  5
4820
  8
0
 10
501.4899852949586716
 20
-6.4701364069982823
 30
0.0
 11
501.4932575518586191
 21
-6.4600654359983061
 31
0.0
  0
LINE
  5
4821
  8
0
 10
501.4964294107584237
 20
-6.4766897424982828
 30
0.0
 11
501.4991303492586781
 21
-6.4683771084982906
 31
0.0
  0
LINE
  5
4822
  8
0
 10
501.5173307529582871
 20
-6.476064150998301
 30
0.0
 11
501.5200509833720162
 21
-6.467692142656265
 31
0.0
  0
LINE
  5
4823
  8
0
 10
501.5243376545583942
 20
-6.4808854097982787
 30
0.0
 11
501.5265135703583042
 21
-6.4741886295982773
 31
0.0
  0
LINE
  5
4824
  8
0
 10
501.6734668283588121
 20
-6.4796950500982886
 30
0.0
 11
501.6915429408584828
 21
-6.4240624960982897
 31
0.0
  0
LINE
  5
4825
  8
0
 10
501.8880366237866042
 20
-6.453423900288672
 30
0.0
 11
501.8876350655585838
 21
-6.4546597691982903
 31
0.0
  0
LINE
  5
4826
  8
0
 10
502.1100776979586726
 20
-3.9042211892982861
 30
0.0
 11
502.1100776979586726
 21
-3.7800915153982859
 31
0.0
  0
LINE
  5
4827
  8
0
 10
501.7064256988585953
 20
-6.4164793520982961
 30
0.0
 11
501.6915429408584828
 21
-6.4240624960982897
 31
0.0
  0
LINE
  5
4828
  8
0
 10
501.6538973001586896
 20
-6.5026080236982891
 30
0.0
 11
501.6436228997584976
 21
-6.5078430921983026
 31
0.0
  0
LINE
  5
4829
  8
0
 10
505.3402899555583758
 20
-4.67652815239828
 30
0.0
 11
506.0919654356583806
 21
-4.3260161394982823
 31
0.0
  0
LINE
  5
482A
  8
0
 10
501.1030623802350874
 20
-6.3322043323692334
 30
0.0
 11
501.6436228997584976
 21
-6.5078430921983026
 31
0.0
  0
LINE
  5
482B
  8
0
 10
501.6915429408584828
 20
-6.4240624960982897
 30
0.0
 11
501.44748855976502
 21
-6.3447644206653449
 31
0.0
  0
LINE
  5
482C
  8
0
 10
501.5019310753767741
 20
-6.3500350211932393
 30
0.0
 11
501.8627986902587281
 21
-6.4672880169982854
 31
0.0
  0
LINE
  5
482D
  8
0
 10
501.6317698242585834
 20
-6.3715241126982987
 30
0.0
 11
501.8876350655585838
 21
-6.4546597691982903
 31
0.0
  0
LINE
  5
482E
  8
0
 10
504.4497879112586247
 20
-4.0971664875982903
 30
0.0
 11
504.4497879112586247
 21
-4.1376367627982829
 31
0.0
  0
LINE
  5
482F
  8
0
 10
504.4497879112586247
 20
-4.42323009909828
 30
0.0
 11
504.4497879112586247
 21
-4.693729807398288
 31
0.0
  0
LINE
  5
4830
  8
0
 10
506.1033312183583917
 20
-3.7800915154983019
 30
0.0
 11
506.1033312183583917
 21
-4.3081754341982927
 31
0.0
  0
LINE
  5
4831
  8
0
 10
502.1397823516584822
 20
-3.9365712337982788
 30
0.0
 11
503.9781268309582742
 21
-4.0406513513982851
 31
0.0
  0
LINE
  5
4832
  8
0
 10
503.9781268309582742
 20
-4.0406513513982851
 30
0.0
 11
504.4204668280584087
 21
-4.0657403330982929
 31
0.0
  0
LINE
  5
4833
  8
0
 10
506.0718351552584977
 20
-3.7485955344192829
 30
0.0
 11
502.1415737609585221
 21
-3.7485955344192829
 31
0.0
  0
ARC
  5
4834
  8
0
 10
500.7219490661188956
 20
-5.5721408566560093
 30
0.0
 40
0.0340400986656741
 50
95.5003432468876383
 51
175.964380747455607
  0
ARC
  5
4835
  8
0
 10
501.2622846256584808
 20
-6.2550655267982931
 30
0.0
 40
0.1713762515
 50
272.6030938885048158
 51
276.1624029990936151
  0
ARC
  5
4836
  8
0
 10
501.2655423956583718
 20
-6.2598582240982843
 30
0.0
 40
0.1683672392
 50
270.7205453662908212
 51
274.2972197572884738
  0
ARC
  5
4837
  8
0
 10
501.292450462663794
 20
-6.2746072423103127
 30
0.0
 40
0.1680238613876304
 50
270.5366533957915749
 51
274.1163944426187982
  0
ARC
  5
4838
  8
0
 10
501.2545936100585209
 20
-6.265579759398296
 30
0.0
 40
0.1560933395
 50
265.5352462745913158
 51
269.2834353616884187
  0
ARC
  5
4839
  8
0
 10
501.2575114857585277
 20
-6.2692816298983054
 30
0.0
 40
0.154246363
 50
263.5656375177106838
 51
267.3254091964022905
  0
ARC
  5
483A
  8
0
 10
501.2841049730540135
 20
-6.283783121574575
 30
0.0
 40
0.154739981392258
 50
263.4354566388266221
 51
267.1810953605757959
  0
ARC
  5
483B
  8
0
 10
501.2870447045586957
 20
-6.2869184645983038
 30
0.0
 40
0.1531991691
 50
261.4775395103018241
 51
265.2327614441064156
  0
ARC
  5
483C
  8
0
 10
501.2457888190577933
 20
-6.2699339711485642
 30
0.0
 40
0.1467422475259503
 50
258.15053163880998
 51
262.0329503531760906
  0
ARC
  5
483D
  8
0
 10
501.248635066858526
 20
-6.2725747843983051
 30
0.0
 40
0.1460129348
 50
256.1278728612120972
 51
260.012619759808274
  0
ARC
  5
483E
  8
0
 10
501.2199145316583895
 20
-6.2537303673982789
 30
0.0
 40
0.1450698091
 50
258.2564965207885166
 51
262.1849589758874117
  0
ARC
  5
483F
  8
0
 10
501.2063747434584116
 20
-6.214190217598289
 30
0.0
 40
0.174606126
 50
275.1855448692015784
 51
278.7488071886019725
  0
ARC
  5
4840
  8
0
 10
501.1970388243582875
 20
-6.2216611769982846
 30
0.0
 40
0.1585761267
 50
270.0614244807958926
 51
273.8454665874068041
  0
ARC
  5
4841
  8
0
 10
501.200002486358585
 20
-6.2265127616982774
 30
0.0
 40
0.1561328479
 50
268.0464978506963121
 51
271.8437803632075997
  0
ARC
  5
4842
  8
0
 10
501.2171487099585079
 20
-6.250546913798277
 30
0.0
 40
0.1460687071
 50
260.3105553886886128
 51
264.234969345194088
  0
ARC
  5
4843
  8
0
 10
501.1891413245583067
 20
-6.2286407927983047
 30
0.0
 40
0.145202923
 50
262.5877151994114911
 51
266.5677827695016049
  0
ARC
  5
4844
  8
0
 10
501.1918526916587098
 20
-6.2323709845982789
 30
0.0
 40
0.1439499275
 50
260.4929379468957791
 51
264.4778466813947944
  0
ARC
  5
4845
  8
0
 10
501.2086439185644053
 20
-6.2499409554409651
 30
0.0
 40
0.1407564160969013
 50
252.6307423786701065
 51
256.6422663751570781
  0
ARC
  5
4846
  8
0
 10
501.2115104246585133
 20
-6.2521743361982969
 30
0.0
 40
0.1407868852
 50
250.5528378145930049
 51
254.5594349209059999
  0
ARC
  5
4847
  8
0
 10
501.1764205701587116
 20
-6.2253410113982879
 30
0.0
 40
0.1377516141
 50
244.6725170555033912
 51
248.7846402870115128
  0
ARC
  5
4848
  8
0
 10
501.1834239374583149
 20
-6.2320001735982968
 30
0.0
 40
0.1377239098
 50
252.6454943466879968
 51
256.74558108981239
  0
ARC
  5
4849
  8
0
 10
501.1806787908593037
 20
-6.2293200062090959
 30
0.0
 40
0.137852201096613
 50
254.7772100401604973
 51
258.8835355439110799
  0
ARC
  5
484A
  8
0
 10
501.173160765692387
 20
-6.2240899374353118
 30
0.0
 40
0.1362721085577627
 50
246.7820023865722021
 51
250.9274495296758971
  0
ARC
  5
484B
  8
0
 10
501.2109349307586967
 20
-6.178411784998306
 30
0.0
 40
0.2233164834
 50
287.9616014329034215
 51
288.4626923628114241
  0
ARC
  5
484C
  8
0
 10
501.2053069871583943
 20
-6.1885388801982826
 30
0.0
 40
0.2044933013
 50
283.6205051548910205
 51
286.6471844562091746
  0
ARC
  5
484D
  8
0
 10
501.2095066716586871
 20
-6.1952582948982844
 30
0.0
 40
0.1998710546
 50
281.8409596844920202
 51
285.1503921576938865
  0
ARC
  5
484E
  8
0
 10
501.2028715515583031
 20
-6.2081657437982791
 30
0.0
 40
0.1783387661
 50
277.0911612157127024
 51
280.6364126278882054
  0
ARC
  5
484F
  8
0
 10
501.1720012255585743
 20
-6.2019706355982889
 30
0.0
 40
0.1560878476
 50
270.5024370399050895
 51
273.5634439650053196
  0
ARC
  5
4850
  8
0
 10
501.16445348625831
 20
-6.2082689049982811
 30
0.0
 40
0.1426857171
 50
262.8777887933961779
 51
266.9333459343998811
  0
ARC
  5
4851
  8
0
 10
501.1561330404587125
 20
-6.2092474090982854
 30
0.0
 40
0.1343076307
 50
254.8589405607883123
 51
258.8819488629881107
  0
ARC
  5
4852
  8
0
 10
501.2734273066582773
 20
-6.2217585153982808
 30
0.0
 40
0.2161103626
 50
283.8341522439097275
 51
286.960127703106707
  0
ARC
  5
4853
  8
0
 10
501.2363259240585762
 20
-6.2145695961982907
 30
0.0
 40
0.1987992202
 50
281.3724816097968073
 51
284.6833063269107811
  0
ARC
  5
4854
  8
0
 10
501.2403907653585975
 20
-6.2211179580982927
 30
0.0
 40
0.1941207237
 50
279.5981909141880237
 51
282.9287092606988949
  0
ARC
  5
4855
  8
0
 10
501.2674782542601974
 20
-6.2382706223687618
 30
0.0
 40
0.1929422810031707
 50
279.2673888448164803
 51
282.6076590688383021
  0
ARC
  5
4856
  8
0
 10
501.271317187658326
 20
-6.2440726511982829
 30
0.0
 40
0.18879436
 50
277.4948041522885092
 51
280.8529161759881845
  0
ARC
  5
4857
  8
0
 10
501.2324510734587193
 20
-6.2330193640982863
 30
0.0
 40
0.1747472445
 50
274.7771920189954926
 51
278.325677024608126
  0
ARC
  5
4858
  8
0
 10
501.2358088315584723
 20
-6.2384009490982946
 30
0.0
 40
0.1714013619
 50
272.8866328482878885
 51
276.452823378890514
  0
ARC
  5
4859
  8
0
 10
501.2255805362585761
 20
-6.2449538542983047
 30
0.0
 40
0.157332854
 50
267.7326360357113231
 51
271.4939508605932019
  0
ARC
  5
485A
  8
0
 10
501.2285057385586811
 20
-6.2492081561982822
 30
0.0
 40
0.1552038123
 50
265.744473093406782
 51
269.5182119964993035
  0
ARC
  5
485B
  8
0
 10
501.2386357096586949
 20
-6.1737702560982974
 30
0.0
 40
0.2540573328
 50
291.5899883766051062
 51
292.7118398534926769
  0
ARC
  5
485C
  8
0
 10
501.2647404407755971
 20
-6.1849425189215061
 30
0.0
 40
0.2578268277771301
 50
291.2579461315999083
 51
294.1433375308615155
  0
ARC
  5
485D
  8
0
 10
501.2704560477585005
 20
-6.1928170455982778
 30
0.0
 40
0.2510329477
 50
289.7244437632886047
 51
292.6225216290096114
  0
ARC
  5
485E
  8
0
 10
501.2349540112925865
 20
-6.1870905427726397
 30
0.0
 40
0.2326723175073746
 50
287.5089829695355093
 51
290.545260069461392
  0
ARC
  5
485F
  8
0
 10
501.2680068773154858
 20
-6.2124359161925069
 30
0.0
 40
0.2241159595089131
 50
285.5051711751015091
 51
288.5789102808402049
  0
ARC
  5
4860
  8
0
 10
501.2408320959582966
 20
-6.197236758598283
 30
0.0
 40
0.223975124
 50
285.8407577660913716
 51
288.929458476192508
  0
ARC
  5
4861
  8
0
 10
501.3618881176852256
 20
-6.2933334853833323
 30
0.0
 40
0.1771321550493053
 50
273.5654473737625949
 51
277.0323397135916821
  0
ARC
  5
4862
  8
0
 10
501.354827022458494
 20
-6.2955995817982879
 30
0.0
 40
0.1723704867
 50
228.7393432829067024
 51
232.256266211508688
  0
ARC
  5
4863
  8
0
 10
501.3261512508586861
 20
-6.2952932106982793
 30
0.0
 40
0.1623986567
 50
266.668341274896818
 51
270.2902321745935978
  0
ARC
  5
4864
  8
0
 10
501.3384858601583005
 20
-6.262567387498283
 30
0.0
 40
0.2017047145
 50
280.1571580857889217
 51
283.3784346485070955
  0
ARC
  5
4865
  8
0
 10
501.4142739473284109
 20
-6.191120451894907
 30
0.0
 40
0.3033209430149778
 50
222.4289547472066033
 51
224.5269079754500865
  0
ARC
  5
4866
  8
0
 10
501.3603935286586193
 20
-6.277606170798296
 30
0.0
 40
0.1927649906
 50
222.253040717090812
 51
225.5695757579875078
  0
ARC
  5
4867
  8
0
 10
501.298439952037711
 20
-6.2573912382461891
 30
0.0
 40
0.1892827663127199
 50
277.2958961599558734
 51
280.6391803761464985
  0
ARC
  5
4868
  8
0
 10
501.3255297224584979
 20
-6.2696820062983001
 30
0.0
 40
0.1861303557
 50
223.8276095497053859
 51
227.2129865085923086
  0
ARC
  5
4869
  8
0
 10
501.3300293428080749
 20
-6.2764011898358412
 30
0.0
 40
0.1833371380124591
 50
275.3960565686323889
 51
278.7931023158221251
  0
ARC
  5
486A
  8
0
 10
501.3024045245587104
 20
-6.2643593918982994
 30
0.0
 40
0.1837241377
 50
275.5023371480992864
 51
278.8951198730100032
  0
ARC
  5
486B
  8
0
 10
501.362937277954984
 20
-6.2910311165537713
 30
0.0
 40
0.1798804642328433
 50
226.9855320375934866
 51
230.3975584973159982
  0
ARC
  5
486C
  8
0
 10
501.3337399396585283
 20
-6.2821487365982911
 30
0.0
 40
0.1787840483
 50
273.597171174703476
 51
277.0324321666885226
  0
ARC
  5
486D
  8
0
 10
501.3210612849341032
 20
-6.2164274839237841
 30
0.0
 40
0.239997367005419
 50
269.468590123987326
 51
271.9446602740936214
  0
ARC
  5
486E
  8
0
 10
501.2956404041585756
 20
-6.2787723213982964
 30
0.0
 40
0.1653937583
 50
268.6564000132092929
 51
272.2514737415128252
  0
ARC
  5
486F
  8
0
 10
501.4041340267584133
 20
-6.2934008852982997
 30
0.0
 40
0.1880645957
 50
276.8044277411946723
 51
280.1549762005072921
  0
ARC
  5
4870
  8
0
 10
501.4250124705584994
 20
-6.3059262976982806
 30
0.0
 40
0.1819074453
 50
225.0879334002989935
 51
228.5146095786124079
  0
ARC
  5
4871
  8
0
 10
501.3961233969696991
 20
-6.2988608093527354
 30
0.0
 40
0.1823038362573176
 50
225.1972671851438861
 51
228.6135731628797885
  0
ARC
  5
4872
  8
0
 10
501.3893568750585246
 20
-6.3018177127982851
 30
0.0
 40
0.1771299401
 50
226.9515230585004986
 51
230.4188736000915014
  0
ARC
  5
4873
  8
0
 10
501.3653914662584725
 20
-6.2975600683983011
 30
0.0
 40
0.1738745711
 50
271.7589498983040244
 51
275.2454406073046016
  0
ARC
  5
4874
  8
0
 10
501.4278670983479174
 20
-6.3193095241122741
 30
0.0
 40
0.1673191672824703
 50
229.8687794681156049
 51
233.4631098980474917
  0
ARC
  5
4875
  8
0
 10
501.4225076323585881
 20
-6.3212521932982808
 30
0.0
 40
0.1641328862
 50
231.7347129596928994
 51
235.3574132857013979
  0
ARC
  5
4876
  8
0
 10
501.3935712882351936
 20
-6.3145593003596652
 30
0.0
 40
0.1647762573841578
 50
231.8397975041457073
 51
235.4463153928579118
  0
ARC
  5
4877
  8
0
 10
501.3882323133582872
 20
-6.3165872459982806
 30
0.0
 40
0.1612857504
 50
233.6972677063970139
 51
237.3441588440961141
  0
ARC
  5
4878
  8
0
 10
501.429697174291789
 20
-6.330984720591263
 30
0.0
 40
0.1548417371528548
 50
236.8201359700979935
 51
240.5633122973318052
  0
ARC
  5
4879
  8
0
 10
501.425057392258509
 20
-6.3325304810983063
 30
0.0
 40
0.1524536306
 50
238.7580532307146086
 51
242.5316458148948868
  0
ARC
  5
487A
  8
0
 10
501.4215671751143191
 20
-6.257813228350531
 30
0.0
 40
0.2381905670193233
 50
213.1551941513390034
 51
216.1340377150156939
  0
ARC
  5
487B
  8
0
 10
501.4107991207587247
 20
-6.2621843307982799
 30
0.0
 40
0.2289474855
 50
214.6755440751088031
 51
217.7130700722927941
  0
ARC
  5
487C
  8
0
 10
501.3830182661429831
 20
-6.252456213492823
 30
0.0
 40
0.2289036953347642
 50
214.6356233131072031
 51
217.6752197040561896
  0
ARC
  5
487D
  8
0
 10
501.3730575587586031
 20
-6.2541560929983042
 30
0.0
 40
0.2229229956
 50
284.7452372350924747
 51
287.8069931030914859
  0
ARC
  5
487E
  8
0
 10
501.3729368755583096
 20
-6.2564869156982779
 30
0.0
 40
0.2201962228
 50
216.1740448615908861
 51
219.2737248002910917
  0
ARC
  5
487F
  8
0
 10
501.4024485779767133
 20
-6.2635376544693058
 30
0.0
 40
0.2197317946989638
 50
284.8699875816070062
 51
287.9817762965913062
  0
ARC
  5
4880
  8
0
 10
501.4072357889584737
 20
-6.2694457610983001
 30
0.0
 40
0.214227004
 50
283.2667314611899769
 51
286.4000159442014137
  0
ARC
  5
4881
  8
0
 10
501.4034008139499861
 20
-6.2811644050059421
 30
0.0
 40
0.2043502284885691
 50
218.9345414741609943
 51
222.1687187158009067
  0
ARC
  5
4882
  8
0
 10
501.3964550270583231
 20
-6.2834544934982857
 30
0.0
 40
0.199457617
 50
220.6034149739058137
 51
223.8609922918026882
  0
ARC
  5
4883
  8
0
 10
501.4642105723830809
 20
-6.1833278602157442
 30
0.0
 40
0.3314725353611092
 50
221.7323881148251985
 51
223.7106923084186008
  0
ARC
  5
4884
  8
0
 10
501.3670813819492764
 20
-6.2738774542468754
 30
0.0
 40
0.1993190067860931
 50
280.1448977639568056
 51
283.4049735067587221
  0
ARC
  5
4885
  8
0
 10
501.3711910477584865
 20
-6.2791805658982902
 30
0.0
 40
0.1948489566
 50
278.4481647680055971
 51
281.7292187569058797
  0
ARC
  5
4886
  8
0
 10
501.4001429643715824
 20
-6.2885851016680219
 30
0.0
 40
0.1922670644958161
 50
278.5268850296266123
 51
281.8551906838449099
  0
ARC
  5
4887
  8
0
 10
501.3555222006582994
 20
-6.2251453492982911
 30
0.0
 40
0.2449783335
 50
211.7407243825111891
 51
214.6940915245077122
  0
ARC
  5
4888
  8
0
 10
501.30480329525858
 20
-6.2159662713982904
 30
0.0
 40
0.2411610279
 50
287.960785934803198
 51
290.905994167798724
  0
ARC
  5
4889
  8
0
 10
501.3337616910283145
 20
-6.2294397377827151
 30
0.0
 40
0.2380036916177283
 50
287.8647919875529055
 51
290.8459750162480191
  0
ARC
  5
488A
  8
0
 10
501.3389536264583057
 20
-6.2363629441982802
 30
0.0
 40
0.2318516598
 50
286.3059583295043922
 51
289.3054275231897918
  0
ARC
  5
488B
  8
0
 10
501.3008804579542925
 20
-6.2348982949394873
 30
0.0
 40
0.2161587867644426
 50
283.6260068042021771
 51
286.7436852270084273
  0
ARC
  5
488C
  8
0
 10
501.3459332812828961
 20
-6.245031355209167
 30
0.0
 40
0.2198970346623969
 50
216.0193929674674962
 51
219.1288427943732131
  0
ARC
  5
488D
  8
0
 10
501.3364662026586984
 20
-6.2487194879983043
 30
0.0
 40
0.2116607092
 50
217.5809843724900929
 51
220.7522682221963066
  0
ARC
  5
488E
  8
0
 10
501.3140410168978747
 20
-6.1789485376097311
 30
0.0
 40
0.2868550687997534
 50
282.590310643444127
 51
284.8975567218482752
  0
ARC
  5
488F
  8
0
 10
501.3059330615586191
 20
-6.2434718504982838
 30
0.0
 40
0.2087455826
 50
281.9466187993926951
 51
285.1165366106116039
  0
ARC
  5
4890
  8
0
 10
501.3101879990171028
 20
-6.2355259459491812
 30
0.0
 40
0.2110393105056821
 50
217.3140706387110015
 51
220.5039836311298131
  0
ARC
  5
4891
  8
0
 10
501.301275172358487
 20
-6.2388685117983051
 30
0.0
 40
0.2032189534
 50
218.9043499830937947
 51
222.1583073837909126
  0
ARC
  5
4892
  8
0
 10
501.2934486891584811
 20
-6.178723515598282
 30
0.0
 40
0.2837913417
 50
294.9743810365087029
 51
295.8078374789134841
  0
ARC
  5
4893
  8
0
 10
501.2984218393584115
 20
-6.183642142298285
 30
0.0
 40
0.2797373155
 50
293.5422539022953856
 51
295.8715056948018969
  0
ARC
  5
4894
  8
0
 10
501.328910593658577
 20
-6.1990503839983013
 30
0.0
 40
0.2737210828999999
 50
293.4750065590021109
 51
296.1416258510959096
  0
ARC
  5
4895
  8
0
 10
501.3618871137334736
 20
-6.2113385832632018
 30
0.0
 40
0.2700083881755695
 50
292.1121803967275241
 51
294.9014081350085803
  0
ARC
  5
4896
  8
0
 10
501.3336676762585853
 20
-6.2034165267982964
 30
0.0
 40
0.2700543545
 50
292.0370850583965989
 51
294.8225277088935172
  0
ARC
  5
4897
  8
0
 10
501.2982940118462238
 20
-6.2057631281568346
 30
0.0
 40
0.2506283231273441
 50
289.5221408465823174
 51
292.4165117635968727
  0
ARC
  5
4898
  8
0
 10
501.3299093675935865
 20
-6.2113717187327238
 30
0.0
 40
0.244709679294218
 50
211.4068101958692978
 51
214.37702938144119
  0
ARC
  5
4899
  8
0
 10
501.3187630258584022
 20
-6.2152123796983041
 30
0.0
 40
0.2347395671
 50
212.874387865610089
 51
215.9073203906920924
  0
ARC
  5
489A
  8
0
 10
501.5499360944621117
 20
-6.1401565667630713
 30
0.0
 40
0.4351620638673331
 50
210.07766467573299
 51
211.7860517402997118
  0
ARC
  5
489B
  8
0
 10
501.3700816731046075
 20
-6.2192732698077613
 30
0.0
 40
0.2586942580031587
 50
210.315901245268293
 51
213.1726176131103045
  0
ARC
  5
489C
  8
0
 10
501.3694835324583892
 20
-6.2223230018982782
 30
0.0
 40
0.2589331039
 50
290.6316900611083724
 51
293.4773239989128797
  0
ARC
  5
489D
  8
0
 10
501.3937739583582811
 20
-6.232987768898286
 30
0.0
 40
0.2554895377
 50
210.5034948152037941
 51
213.3874911248969966
  0
ARC
  5
489E
  8
0
 10
501.4006508670584026
 20
-6.234986964798483
 30
0.0
 40
0.2515470138997902
 50
290.8020301234952854
 51
293.7393151510189
  0
ARC
  5
489F
  8
0
 10
501.4051717283584821
 20
-6.2385950557983021
 30
0.0
 40
0.2482499027
 50
289.3253732219093877
 51
292.2398108710989959
  0
ARC
  5
48A0
  8
0
 10
501.3680889456617251
 20
-6.2477547881046611
 30
0.0
 40
0.2287284652919658
 50
286.3236155157944154
 51
289.3655411022159001
  0
ARC
  5
48A1
  8
0
 10
501.4308437167572947
 20
-6.3040833431996388
 30
0.0
 40
0.1853902858980714
 50
223.3113307293149035
 51
226.723947602611787
  0
ARC
  5
48A2
  8
0
 10
501.4437370454583061
 20
-6.2358839603982998
 30
0.0
 40
0.2743364455
 50
207.8616476155827968
 51
210.5222988928981067
  0
ARC
  5
48A3
  8
0
 10
501.4336543439583807
 20
-6.2387711011982994
 30
0.0
 40
0.2664188217
 50
209.1584634909968941
 51
211.9819237416917872
  0
ARC
  5
48A4
  8
0
 10
501.4352222795690182
 20
-6.2457535121857317
 30
0.0
 40
0.2445092877176211
 50
289.6217537571159824
 51
292.5944077739334261
  0
ARC
  5
48A5
  8
0
 10
501.4502053560585182
 20
-6.2658011830982927
 30
0.0
 40
0.23805889
 50
213.0748120644931873
 51
216.0584078328892872
  0
ARC
  5
48A6
  8
0
 10
501.4408652854584716
 20
-6.2522923752982846
 30
0.0
 40
0.2378520051
 50
288.1125280361096088
 51
291.1057637076042965
  0
ARC
  5
48A7
  8
0
 10
501.4450720375210722
 20
-6.2814489708169701
 30
0.0
 40
0.2164995872948874
 50
217.2587693963934043
 51
220.3715389388034112
  0
ARC
  5
48A8
  8
0
 10
501.4182571884301183
 20
-6.2015137385025438
 30
0.0
 40
0.288502184677987
 50
283.6129125158938109
 51
285.9427942723490901
  0
ARC
  5
48A9
  8
0
 10
501.4338325117586237
 20
-6.2872045595982833
 30
0.0
 40
0.2063189172
 50
218.8648167050990025
 51
222.0720278848941973
  0
ARC
  5
48AA
  8
0
 10
501.441589638158689
 20
-6.2822885928982863
 30
0.0
 40
0.2056386023
 50
281.8608415359905734
 51
285.0765010971009019
  0
ARC
  5
48AB
  8
0
 10
501.4726862969586136
 20
-6.2888084034982832
 30
0.0
 40
0.2134836322
 50
217.0206362326030956
 51
220.1850838204969136
  0
ARC
  5
48AC
  8
0
 10
501.5235496638368886
 20
-6.2538362592745251
 30
0.0
 40
0.2664233838612527
 50
221.853055361382502
 51
224.2718968877559007
  0
ARC
  5
48AD
  8
0
 10
501.4619151783584243
 20
-6.3078690211982886
 30
0.0
 40
0.186798952
 50
223.1291427348105003
 51
226.5231369369903121
  0
ARC
  5
48AE
  8
0
 10
501.463627599554286
 20
-6.3213493732035628
 30
0.0
 40
0.1704980910932428
 50
227.820336689262092
 51
231.3975844053094875
  0
ARC
  5
48AF
  8
0
 10
501.4578392560586053
 20
-6.3237393059982914
 30
0.0
 40
0.1669463104
 50
229.6875541744005886
 51
233.2946807020111066
  0
ARC
  5
48B0
  8
0
 10
501.4642517727942277
 20
-6.3336417337609161
 30
0.0
 40
0.1561525897030891
 50
234.7172762595878055
 51
238.4640426100712887
  0
ARC
  5
48B1
  8
0
 10
501.4592178800584179
 20
-6.3357310130983002
 30
0.0
 40
0.1533560136
 50
236.6636726707073137
 51
240.4452806152065136
  0
ARC
  5
48B2
  8
0
 10
501.4688085426549264
 20
-6.3423370551786924
 30
0.0
 40
0.1468002520403017
 50
241.9678164634223094
 51
245.848700533347909
  0
ARC
  5
48B3
  8
0
 10
501.4647697669586819
 20
-6.3432071588982843
 30
0.0
 40
0.1456248968
 50
243.9822025220856005
 51
247.8773048569001105
  0
ARC
  5
48B4
  8
0
 10
501.4740935178585914
 20
-6.2432281378982877
 30
0.0
 40
0.2764935659
 50
208.1148340634013039
 51
210.4714103631928879
  0
ARC
  5
48B5
  8
0
 10
501.5384830470472934
 20
-6.211201197844165
 30
0.0
 40
0.3394204134400433
 50
211.9621223357023894
 51
214.0992249299740138
  0
ARC
  5
48B6
  8
0
 10
501.4726291823583892
 20
-6.2615288772982778
 30
0.0
 40
0.2295948635
 50
288.5246402330927253
 51
289.7986798377170885
  0
ARC
  5
48B7
  8
0
 10
501.4830986448436079
 20
-6.2839460165441237
 30
0.0
 40
0.222231852959164
 50
215.4080571073916985
 51
218.5078620727009877
  0
ARC
  5
48B8
  8
0
 10
501.4838376357586753
 20
-6.2405845188982907
 30
0.0
 40
0.2837914723
 50
208.1921618019908067
 51
209.0256231782005898
  0
ARC
  5
48B9
  8
0
 10
501.5037869145388072
 20
-6.2622595150499514
 30
0.0
 40
0.2582706622397417
 50
209.8591424108834929
 51
212.7395742403174097
  0
ARC
  5
48BA
  8
0
 10
501.5299535951584176
 20
-6.269503749898294
 30
0.0
 40
0.2527153327
 50
211.2851875407054081
 51
212.4129974311946967
  0
ARC
  5
48BB
  8
0
 10
501.4913599533587103
 20
-6.2673043573982774
 30
0.0
 40
0.2477078395
 50
211.3580229532090868
 51
214.2950116545019057
  0
ARC
  5
48BC
  8
0
 10
501.1696300785724247
 20
-6.5311873371825326
 30
0.0
 40
0.202702537614179
 50
33.2302163622888713
 51
36.7155397198693905
  0
ARC
  5
48BD
  8
0
 10
501.5132330200584079
 20
-6.2881913248982961
 30
0.0
 40
0.2211226477
 50
215.0506145255097863
 51
218.1791692321874052
  0
ARC
  5
48BE
  8
0
 10
501.5629064652418947
 20
-6.254329869415816
 30
0.0
 40
0.2715463040929089
 50
220.0947581820122139
 51
222.5026892735342869
  0
ARC
  5
48BF
  8
0
 10
501.5002308408587055
 20
-6.3075590830982859
 30
0.0
 40
0.1919260665
 50
221.0522431951133058
 51
224.4208566300100927
  0
ARC
  5
48C0
  8
0
 10
501.502490102347906
 20
-6.3190367127090239
 30
0.0
 40
0.1765486205876845
 50
225.6924318079626914
 51
229.2046992026681949
  0
ARC
  5
48C1
  8
0
 10
501.5322110225587267
 20
-6.3217726410982813
 30
0.0
 40
0.1728111643
 50
225.2326812355900927
 51
228.832966706587996
  0
ARC
  5
48C2
  8
0
 10
501.4943503109582821
 20
-6.3239564686983023
 30
0.0
 40
0.1698042707
 50
227.5304002552078089
 51
231.1301435176135897
  0
ARC
  5
48C3
  8
0
 10
501.4998544654952752
 20
-6.3340025993121598
 30
0.0
 40
0.1574009264048927
 50
232.5068625895906109
 51
236.2665501462570887
  0
ARC
  5
48C4
  8
0
 10
501.5306302050584009
 20
-6.3351621765982911
 30
0.0
 40
0.1549119463
 50
232.1412504031895025
 51
235.9684713828085876
  0
ARC
  5
48C5
  8
0
 10
501.494367403658373
 20
-6.3366526865982884
 30
0.0
 40
0.1541567188
 50
234.4689669565991892
 51
238.2683479535128015
  0
ARC
  5
48C6
  8
0
 10
501.5277299658657739
 20
-6.2953891420046686
 30
0.0
 40
0.2000377163115401
 50
240.6872719513966956
 51
243.5423170481290072
  0
ARC
  5
48C7
  8
0
 10
501.4990057855583245
 20
-6.3449642504982959
 30
0.0
 40
0.1445400362
 50
241.8078388219977057
 51
245.7507056812929136
  0
ARC
  5
48C8
  8
0
 10
501.5106242615514134
 20
-6.3479447124448463
 30
0.0
 40
0.1408664113786429
 50
247.3593005534856104
 51
251.3676908293072074
  0
ARC
  5
48C9
  8
0
 10
501.5069536709586941
 20
-6.348169665998288
 30
0.0
 40
0.1407868852
 50
249.4405650790953928
 51
253.4471621853992076
  0
ARC
  5
48CA
  8
0
 10
501.489597271258674
 20
-5.898949099198294
 30
0.0
 40
0.5883291530000001
 50
227.4290923041168071
 51
277.3844163789040067
  0
ARC
  5
48CB
  8
0
 10
501.4038150685635742
 20
-6.0108066802454552
 30
0.0
 40
0.4437708609312534
 50
229.8189042539146953
 51
235.2127864221837115
  0
ARC
  5
48CC
  8
0
 10
501.411936172856997
 20
-6.0242886215650087
 30
0.0
 40
0.4372852523039249
 50
235.5607309529223983
 51
240.8740763758910077
  0
ARC
  5
48CD
  8
0
 10
501.4225889799785136
 20
-6.0350199976422259
 30
0.0
 40
0.4330590769143893
 50
241.1496272794985032
 51
246.4143709378363951
  0
ARC
  5
48CE
  8
0
 10
501.4351664769089894
 20
-6.0427609848083854
 30
0.0
 40
0.4309665009432138
 50
246.6480839880831013
 51
251.8900040469864052
  0
ARC
  5
48CF
  8
0
 10
501.4490971505964012
 20
-6.0473074848740991
 30
0.0
 40
0.4309473356229024
 50
252.1098793527777104
 51
257.3520327005983859
  0
ARC
  5
48D0
  8
0
 10
501.4638179312327111
 20
-6.0484756261398926
 30
0.0
 40
0.4330019332571791
 50
257.5852814304315075
 51
262.8507203723946759
  0
ARC
  5
48D1
  8
0
 10
501.4787467885938099
 20
-6.0460926115155793
 30
0.0
 40
0.4371914385142671
 50
263.1253533636888733
 51
268.4398397468359008
  0
ARC
  5
48D2
  8
0
 10
501.4931303482121052
 20
-5.9806095605395369
 30
0.0
 40
0.5030126980040486
 50
268.9435030707861074
 51
273.6375435829671119
  0
ARC
  5
48D3
  8
0
 10
501.489597271258674
 20
-5.898949099198294
 30
0.0
 40
0.5829723525000001
 50
251.032609985586987
 51
252.9673900144057939
  0
ARC
  5
48D4
  8
0
 10
501.489597271258674
 20
-5.898949099198294
 30
0.0
 40
0.5829723525000001
 50
256.5094343538110024
 51
258.4531026922026058
  0
ARC
  5
48D5
  8
0
 10
501.489597271258674
 20
-5.898949099198294
 30
0.0
 40
0.5829723525000001
 50
245.5468973078133104
 51
247.4905656461976093
  0
ARC
  5
48D6
  8
0
 10
501.489597271258674
 20
-5.898949099198294
 30
0.0
 40
0.5829723525000001
 50
262.028023806291003
 51
263.9991108512040796
  0
ARC
  5
48D7
  8
0
 10
501.489597271258674
 20
-5.898949099198294
 30
0.0
 40
0.5829723525000001
 50
240.0008891487958067
 51
241.971976193686686
  0
ARC
  5
48D8
  8
0
 10
501.489597271258674
 20
-5.898949099198294
 30
0.0
 40
0.5829723525000001
 50
267.6426328893081177
 51
269.6621162056084131
  0
ARC
  5
48D9
  8
0
 10
501.489597271258674
 20
-5.898949099198294
 30
0.0
 40
0.5829723525000001
 50
234.337883794395708
 51
236.3573671106942982
  0
ARC
  5
48DA
  8
0
 10
501.489597271258674
 20
-5.898949099198294
 30
0.0
 40
0.5829723525000001
 50
273.416383834295118
 51
275.5100352362115927
  0
ARC
  5
48DB
  8
0
 10
501.489597271258674
 20
-5.898949099198294
 30
0.0
 40
0.5829723525000001
 50
228.0034916592877039
 51
230.5836161657078947
  0
ARC
  5
48DC
  8
0
 10
501.489597271258674
 20
-5.898949099198294
 30
0.0
 40
0.5819257001000001
 50
270.5396336107111779
 51
272.5967150907953851
  0
ARC
  5
48DD
  8
0
 10
501.489597271258674
 20
-5.898949099198294
 30
0.0
 40
0.5819257001000001
 50
264.8431134100904956
 51
266.8393450907914826
  0
ARC
  5
48DE
  8
0
 10
501.489597271258674
 20
-5.898949099198294
 30
0.0
 40
0.5819257001000001
 50
259.2733850623022818
 51
261.2319285075997186
  0
ARC
  5
48DF
  8
0
 10
501.489597271258674
 20
-5.898949099198294
 30
0.0
 40
0.5819257001000001
 50
253.7721818806892031
 51
255.7126647430891069
  0
ARC
  5
48E0
  8
0
 10
501.489597271258674
 20
-5.898949099198294
 30
0.0
 40
0.5819257001000001
 50
248.2873352569010876
 51
250.2278181192961881
  0
ARC
  5
48E1
  8
0
 10
501.489597271258674
 20
-5.898949099198294
 30
0.0
 40
0.5819257001000001
 50
242.7680714924078984
 51
244.7266149376858948
  0
ARC
  5
48E2
  8
0
 10
501.489597271258674
 20
-5.898949099198294
 30
0.0
 40
0.5819257001000001
 50
237.160654909202691
 51
239.156886589893503
  0
ARC
  5
48E3
  8
0
 10
501.489597271258674
 20
-5.898949099198294
 30
0.0
 40
0.5819257001000001
 50
231.4032849092012896
 51
233.4603663892968939
  0
ARC
  5
48E4
  8
0
 10
501.489597271258674
 20
-5.898949099198294
 30
0.0
 40
0.577781039
 50
253.784898569800589
 51
255.7393349561021125
  0
ARC
  5
48E5
  8
0
 10
501.489597271258674
 20
-5.898949099198294
 30
0.0
 40
0.577781039
 50
248.2606650438864051
 51
250.2151014303020133
  0
ARC
  5
48E6
  8
0
 10
501.489597271258674
 20
-5.898949099198294
 30
0.0
 40
0.577781039
 50
259.3258452017914237
 51
261.2987383981040921
  0
ARC
  5
48E7
  8
0
 10
501.489597271258674
 20
-5.898949099198294
 30
0.0
 40
0.577781039
 50
242.7012616019044913
 51
244.6741547981879137
  0
ARC
  5
48E8
  8
0
 10
501.489597271258674
 20
-5.898949099198294
 30
0.0
 40
0.577781039
 50
264.9368345344017825
 51
266.9482671046985729
  0
ARC
  5
48E9
  8
0
 10
501.489597271258674
 20
-5.898949099198294
 30
0.0
 40
0.577781039
 50
237.0517328953137906
 51
239.0631654656125136
  0
ARC
  5
48EA
  8
0
 10
501.489597271258674
 20
-5.898949099198294
 30
0.0
 40
0.577781039
 50
270.6775263528078881
 51
272.7512537822868239
  0
ARC
  5
48EB
  8
0
 10
501.489597271258674
 20
-5.898949099198294
 30
0.0
 40
0.577781039
 50
231.2487462176896997
 51
233.3224736471979099
  0
ARC
  5
48EC
  8
0
 10
501.489597271258674
 20
-5.898949099198294
 30
0.0
 40
0.5764228747
 50
251.0216171672927885
 51
252.978382832686691
  0
ARC
  5
48ED
  8
0
 10
501.489597271258674
 20
-5.898949099198294
 30
0.0
 40
0.5764228747
 50
256.5607796870119159
 51
258.5267416339864894
  0
ARC
  5
48EE
  8
0
 10
501.489597271258674
 20
-5.898949099198294
 30
0.0
 40
0.5764228747
 50
245.4732583661096896
 51
247.4392203129912957
  0
ARC
  5
48EF
  8
0
 10
501.489597271258674
 20
-5.898949099198294
 30
0.0
 40
0.5764228747
 50
262.1431634294003743
 51
264.1375125438107716
  0
ARC
  5
48F0
  8
0
 10
501.489597271258674
 20
-5.898949099198294
 30
0.0
 40
0.5764228747
 50
239.8624874562121931
 51
241.8568365705864096
  0
ARC
  5
48F1
  8
0
 10
501.489597271258674
 20
-5.898949099198294
 30
0.0
 40
0.5764228747
 50
267.8250021870954924
 51
269.8695260122945001
  0
ARC
  5
48F2
  8
0
 10
501.489597271258674
 20
-5.898949099198294
 30
0.0
 40
0.5764228747
 50
234.1304739876918006
 51
236.1749978128937073
  0
ARC
  5
48F3
  8
0
 10
501.489597271258674
 20
-5.898949099198294
 30
0.0
 40
0.5764228747
 50
273.67195130461198
 51
274.7709835671097949
  0
ARC
  5
48F4
  8
0
 10
501.489597271258674
 20
-5.898949099198294
 30
0.0
 40
0.5764228747
 50
229.2292833194917989
 51
230.3280486953981949
  0
ARC
  5
48F5
  8
0
 10
501.489597271258674
 20
-5.898949099198294
 30
0.0
 40
0.5711874396
 50
251.0126485446864137
 51
252.9873514553055998
  0
ARC
  5
48F6
  8
0
 10
501.489597271258674
 20
-5.898949099198294
 30
0.0
 40
0.5711874396
 50
256.6026729850036077
 51
258.5868286848036064
  0
ARC
  5
48F7
  8
0
 10
501.489597271258674
 20
-5.898949099198294
 30
0.0
 40
0.5711874396
 50
245.4131713152112013
 51
247.3973270149934081
  0
ARC
  5
48F8
  8
0
 10
501.489597271258674
 20
-5.898949099198294
 30
0.0
 40
0.5711874396
 50
262.2371318426008884
 51
264.25048213360418
  0
ARC
  5
48F9
  8
0
 10
501.489597271258674
 20
-5.898949099198294
 30
0.0
 40
0.5711874396
 50
239.749517866402698
 51
241.7628681574067002
  0
ARC
  5
48FA
  8
0
 10
501.489597271258674
 20
-5.898949099198294
 30
0.0
 40
0.5711874396
 50
267.9739118031019984
 51
270.0389226436091121
  0
ARC
  5
48FB
  8
0
 10
501.489597271258674
 20
-5.898949099198294
 30
0.0
 40
0.5711874396
 50
233.9610773564106125
 51
236.026088196896211
  0
ARC
  5
48FC
  8
0
 10
501.489597271258674
 20
-5.898949099198294
 30
0.0
 40
0.5695078027
 50
253.8108363552111086
 51
255.7937352041876977
  0
ARC
  5
48FD
  8
0
 10
501.489597271258674
 20
-5.898949099198294
 30
0.0
 40
0.5695078027
 50
248.2062647958991022
 51
250.1891636447915062
  0
ARC
  5
48FE
  8
0
 10
501.489597271258674
 20
-5.898949099198294
 30
0.0
 40
0.5695078027
 50
259.4328643783048847
 51
261.4350464105061178
  0
ARC
  5
48FF
  8
0
 10
501.489597271258674
 20
-5.898949099198294
 30
0.0
 40
0.5695078027
 50
242.5649535895109921
 51
244.5671356217096957
  0
ARC
  5
4900
  8
0
 10
501.489597271258674
 20
-5.898949099198294
 30
0.0
 40
0.5695078027
 50
265.1281017324998857
 51
267.1706011549920845
  0
ARC
  5
4901
  8
0
 10
501.489597271258674
 20
-5.898949099198294
 30
0.0
 40
0.5695078027
 50
236.8293988450062102
 51
238.8718982675117957
  0
ARC
  5
4902
  8
0
 10
501.489597271258674
 20
-5.898949099198294
 30
0.0
 40
0.5695078027
 50
270.9591275897954006
 51
273.0519513118721875
  0
ARC
  5
4903
  8
0
 10
501.489597271258674
 20
-5.898949099198294
 30
0.0
 40
0.5695078027
 50
230.9330505721071063
 51
233.0408724102088911
  0
ARC
  5
4904
  8
0
 10
501.489597271258674
 20
-5.898949099198294
 30
0.0
 40
0.5631423001
 50
253.8313121538056123
 51
255.8366816986084871
  0
ARC
  5
4905
  8
0
 10
501.489597271258674
 20
-5.898949099198294
 30
0.0
 40
0.5631423001
 50
248.163318301410186
 51
250.168687846213686
  0
ARC
  5
4906
  8
0
 10
501.489597271258674
 20
-5.898949099198294
 30
0.0
 40
0.5631423001
 50
259.5173647470044784
 51
261.5426872974884986
  0
ARC
  5
4907
  8
0
 10
501.489597271258674
 20
-5.898949099198294
 30
0.0
 40
0.5631423001
 50
242.4573127024883092
 51
244.4826352529933047
  0
ARC
  5
4908
  8
0
 10
501.489597271258674
 20
-5.898949099198294
 30
0.0
 40
0.5631423001
 50
265.2791950285057965
 51
267.3462789823059893
  0
ARC
  5
4909
  8
0
 10
501.489597271258674
 20
-5.898949099198294
 30
0.0
 40
0.5631423001
 50
236.6537210176977055
 51
238.7208049714863023
  0
ARC
  5
490A
  8
0
 10
501.489597271258674
 20
-5.898949099198294
 30
0.0
 40
0.5611282751
 50
250.9949468158052923
 51
253.0050531841872896
  0
ARC
  5
490B
  8
0
 10
501.489597271258674
 20
-5.898949099198294
 30
0.0
 40
0.5611282751
 50
256.6853663883014178
 51
258.7054458436015807
  0
ARC
  5
490C
  8
0
 10
501.489597271258674
 20
-5.898949099198294
 30
0.0
 40
0.5611282751
 50
245.2945541563950087
 51
247.3146336117135888
  0
ARC
  5
490D
  8
0
 10
501.489597271258674
 20
-5.898949099198294
 30
0.0
 40
0.5611282751
 50
262.422682278412708
 51
264.4735963034112274
  0
ARC
  5
490E
  8
0
 10
501.489597271258674
 20
-5.898949099198294
 30
0.0
 40
0.5611282751
 50
239.526403696603694
 51
241.5773177215864962
  0
ARC
  5
490F
  8
0
 10
501.489597271258674
 20
-5.898949099198294
 30
0.0
 40
0.5611282751
 50
268.2681460353012994
 51
270.373747191999712
  0
ARC
  5
4910
  8
0
 10
501.489597271258674
 20
-5.898949099198294
 30
0.0
 40
0.5611282751
 50
233.6262528080058019
 51
235.7318539647042996
  0
ARC
  5
4911
  8
0
 10
501.489597271258674
 20
-5.898949099198294
 30
0.0
 40
0.5535823391
 50
250.9812454015047081
 51
253.0187545985060922
  0
ARC
  5
4912
  8
0
 10
501.489597271258674
 20
-5.898949099198294
 30
0.0
 40
0.5535823391
 50
256.7493787723865921
 51
258.7972767332076955
  0
ARC
  5
4913
  8
0
 10
501.489597271258674
 20
-5.898949099198294
 30
0.0
 40
0.5535823391
 50
245.202723266806089
 51
247.2506212275912105
  0
ARC
  5
4914
  8
0
 10
501.489597271258674
 20
-5.898949099198294
 30
0.0
 40
0.5535823391
 50
262.5663763408986142
 51
264.6464211869011933
  0
ARC
  5
4915
  8
0
 10
501.489597271258674
 20
-5.898949099198294
 30
0.0
 40
0.5535823391
 50
239.3535788131046047
 51
241.433623659106388
  0
ARC
  5
4916
  8
0
 10
501.489597271258674
 20
-5.898949099198294
 30
0.0
 40
0.5512175086
 50
253.8709438750022116
 51
255.9198110995112927
  0
ARC
  5
4917
  8
0
 10
501.489597271258674
 20
-5.898949099198294
 30
0.0
 40
0.5512175086
 50
248.0801889005072098
 51
250.1290561250021938
  0
ARC
  5
4918
  8
0
 10
501.489597271258674
 20
-5.898949099198294
 30
0.0
 40
0.5512175086
 50
259.6809627116069237
 51
261.7511239739071129
  0
ARC
  5
4919
  8
0
 10
501.489597271258674
 20
-5.898949099198294
 30
0.0
 40
0.5512175086
 50
242.2488760261022094
 51
244.3190372883865962
  0
ARC
  5
491A
  8
0
 10
501.489597271258674
 20
-5.898949099198294
 30
0.0
 40
0.5512175086
 50
265.5719055775898028
 51
267.3726566577423114
  0
ARC
  5
491B
  8
0
 10
501.489597271258674
 20
-5.898949099198294
 30
0.0
 40
0.5512175086
 50
236.6276979698945979
 51
238.4280944223941958
  0
ARC
  5
491C
  8
0
 10
501.489597271258674
 20
-5.898949099198294
 30
0.0
 40
0.5424274688000001
 50
253.9012735739032109
 51
255.9834333776921937
  0
ARC
  5
491D
  8
0
 10
501.489597271258674
 20
-5.898949099198294
 30
0.0
 40
0.5424274688000001
 50
248.0165666223043957
 51
250.098726426090991
  0
ARC
  5
491E
  8
0
 10
501.489597271258674
 20
-5.898949099198294
 30
0.0
 40
0.5424274688000001
 50
259.8062023494978234
 51
261.9107228973024917
  0
ARC
  5
491F
  8
0
 10
501.489597271258674
 20
-5.898949099198294
 30
0.0
 40
0.5424274688000001
 50
242.0892771026869923
 51
244.1937976505016081
  0
ARC
  5
4920
  8
0
 10
501.489597271258674
 20
-5.898949099198294
 30
0.0
 40
0.5396911518
 50
250.9550206607908081
 51
253.0449793392014044
  0
ARC
  5
4921
  8
0
 10
501.489597271258674
 20
-5.898949099198294
 30
0.0
 40
0.5396911518
 50
256.8719154462913252
 51
258.9730906709878013
  0
ARC
  5
4922
  8
0
 10
501.489597271258674
 20
-5.898949099198294
 30
0.0
 40
0.5396911518
 50
245.0269093290129945
 51
247.1280845537089874
  0
ARC
  5
4923
  8
0
 10
501.5507823952582953
 20
-6.2888279572982837
 30
0.0
 40
0.223324655
 50
215.537340658294795
 51
216.0384018885872024
  0
ARC
  5
4924
  8
0
 10
501.5486802205584809
 20
-6.3009296653982894
 30
0.0
 40
0.203576982
 50
218.5482028092986013
 51
220.378667051305797
  0
ARC
  5
4925
  8
0
 10
501.540187106458518
 20
-6.3048748928982858
 30
0.0
 40
0.1974494724
 50
218.8293081350950899
 51
222.1793400227130064
  0
ARC
  5
4926
  8
0
 10
501.5400313230474012
 20
-6.317421659696012
 30
0.0
 40
0.1786519820712791
 50
223.3666963000189014
 51
226.9057301268229878
  0
ARC
  5
4927
  8
0
 10
501.5367295438693986
 20
-6.3318197844197668
 30
0.0
 40
0.1587921264869383
 50
230.1571077316777121
 51
233.9360006685147937
  0
ARC
  5
4928
  8
0
 10
501.567746763158425
 20
-6.3316456419982821
 30
0.0
 40
0.1549853483
 50
230.4251047850798955
 51
233.5084558426983108
  0
ARC
  5
4929
  8
0
 10
501.5389092962249151
 20
-6.34223489926379
 30
0.0
 40
0.1452539496892605
 50
237.4329165658392924
 51
241.4115854197129067
  0
ARC
  5
492A
  8
0
 10
501.5341702005583215
 20
-6.3443056214982816
 30
0.0
 40
0.1432646559
 50
239.5126190265906132
 51
243.5165963451132995
  0
ARC
  5
492B
  8
0
 10
501.5703886593586276
 20
-6.3410468975982921
 30
0.0
 40
0.141826021
 50
237.0543572523907017
 51
241.1345080197922073
  0
ARC
  5
492C
  8
0
 10
501.4713207000252737
 20
-6.6730126382017012
 30
0.0
 40
0.1978377026878492
 50
74.243419566504997
 51
76.95917799270714
  0
ARC
  5
492D
  8
0
 10
501.5415341917586147
 20
-6.3483572485982931
 30
0.0
 40
0.1377239098
 50
247.2544189101857057
 51
251.3545056533070863
  0
ARC
  5
492E
  8
0
 10
501.5453441501712177
 20
-6.3477698989147511
 30
0.0
 40
0.1378875549574321
 50
245.1169914999194077
 51
249.2222637123481945
  0
ARC
  5
492F
  8
0
 10
501.5543933014582194
 20
-6.3483124328000464
 30
0.0
 40
0.1359366868981862
 50
253.0707129349769104
 51
257.2272032571275986
  0
ARC
  5
4930
  8
0
 10
501.5769858594583752
 20
-6.3459931129982889
 30
0.0
 40
0.1343054042
 50
245.1135902337470043
 51
249.1410951761885997
  0
ARC
  5
4931
  8
0
 10
501.6360236583586243
 20
-6.4675290266982897
 30
0.0
 40
0.0393700787
 50
297.000000000001819
 51
341.9999999999953957
  0
ARC
  5
4932
  8
0
 10
501.4630584153586028
 20
-3.4587705036982781
 30
0.0
 40
2.9553575307999989
 50
255.2672488313918109
 51
256.1320687096911115
  0
ARC
  5
4933
  8
0
 10
502.1460619075480736
 20
-3.7845797556971408
 30
0.0
 40
0.0362630340813475
 50
97.1095247665585504
 51
172.8903260254782879
  0
ARC
  5
4934
  8
0
 10
505.1739048208081044
 20
-4.3197140579252142
 30
0.0
 40
0.3937007887730806
 50
270.0000000417924184
 51
294.9999986757588886
  0
ARC
  5
4935
  8
0
 10
506.0696548645408939
 20
-3.7822718939212652
 30
0.0
 40
0.0337468643990902
 50
3.7044497834476129
 51
86.295699593516801
  0
ARC
  5
4936
  8
0
 10
504.4709572050213069
 20
-4.6922455529352787
 30
0.0
 40
0.0212212632508589
 50
184.0106474200094908
 51
265.989352583697098
  0
LINE
  5
4937
  8
0
 10
501.8876350655585838
 20
-6.4546597691982903
 30
0.0
 11
501.8627986902587281
 21
-6.4672880169982854
 31
0.0
  0
LINE
  5
4938
  8
0
 10
504.3297254714582891
 20
-9.9550510667982941
 30
0.0
 11
506.1801195365586068
 21
-9.9550510667982941
 31
0.0
  0
LINE
  5
4939
  8
0
 10
504.3297254714582891
 20
-9.8429870173587553
 30
0.0
 11
504.3297254714582891
 21
-9.9550510667982941
 31
0.0
  0
LINE
  5
493A
  8
0
 10
504.4262783281354814
 20
-9.5164560224982928
 30
0.0
 11
504.4262783281354814
 21
-7.3132512913514089
 31
0.0
  0
LINE
  5
493B
  8
0
 10
504.4262783281354814
 20
-9.5282060869982992
 30
0.0
 11
504.4262783281354814
 21
-9.5164560224982928
 31
0.0
  0
LINE
  5
493C
  8
0
 10
504.3297254714582891
 20
-9.8429870173587553
 30
0.0
 11
504.3315240395584169
 21
-9.8312244174982801
 31
0.0
  0
LINE
  5
493D
  8
0
 10
504.4262783281354814
 20
-9.5282060869982992
 30
0.0
 11
504.3315240395584169
 21
-9.8312244174982801
 31
0.0
  0
LINE
  5
493E
  8
0
 10
506.0835666798815282
 20
-4.7862494923983014
 30
0.0
 11
504.4281478729648143
 21
-4.7862494923983014
 31
0.0
  0
LINE
  5
493F
  8
0
 10
504.4694729505584974
 20
-4.7134148466983019
 30
0.0
 11
505.1739048209586258
 21
-4.7134148466983019
 31
0.0
  0
ARC
  5
4940
  8
0
 10
505.3607984089583738
 20
-4.9058507906982562
 30
0.0
 40
0.8661417322998467
 50
167.1631252227795983
 51
172.0629436037355902
  0
LINE
  5
4941
  8
0
 10
506.1801195365586068
 20
-9.8429870173587553
 30
0.0
 11
506.1801195365586068
 21
-9.9550510667982941
 31
0.0
  0
LINE
  5
4942
  8
0
 10
506.0835666798815282
 20
-9.5164560224982928
 30
0.0
 11
506.0835666798815282
 21
-8.2354682357220703
 31
0.0
  0
LINE
  5
4943
  8
0
 10
506.0835666798815282
 20
-8.068456909687951
 30
0.0
 11
506.0835666798815282
 21
-4.7862494923983014
 31
0.0
  0
LINE
  5
4944
  8
0
 10
506.0835666798815282
 20
-9.5282060869982992
 30
0.0
 11
506.0835666798815282
 21
-9.5164560224982928
 31
0.0
  0
LINE
  5
4945
  8
0
 10
506.1801195365586068
 20
-9.8429870173587553
 30
0.0
 11
506.1783209684584222
 21
-9.8312244174982801
 31
0.0
  0
LINE
  5
4946
  8
0
 10
506.0835666798815282
 20
-9.5282060869982992
 30
0.0
 11
506.1783209684584222
 21
-9.8312244174982801
 31
0.0
  0
ARC
  5
4947
  8
0
 10
505.1490465990585221
 20
-4.9058507906982562
 30
0.0
 40
0.8661417322998467
 50
7.9370563962644169
 51
33.4324548846876297
  0
LINE
  5
4948
  8
0
 10
504.3315240395584169
 20
-9.8312244174982801
 30
0.0
 11
506.1783209684584222
 21
-9.8312244174982801
 31
0.0
  0
LINE
  5
4949
  8
0
 10
504.4262783281354814
 20
-9.5164560224982928
 30
0.0
 11
506.0835666798815282
 21
-9.5164560224982928
 31
0.0
  0
ARC
  5
494A
  8
0
 10
506.0852453125929742
 20
-4.3091941952742188
 30
0.0
 40
0.0181145759402865
 50
291.7759931072018844
 51
3.2240072512590441
  0
ARC
  5
494B
  8
0
 10
502.1440632066745025
 20
-3.9028276254676122
 30
0.0
 40
0.0340140680137442
 50
182.3480778703386989
 51
262.7698417809348257
  0
ARC
  5
494C
  8
0
 10
504.4148788397840804
 20
-4.1003455986727628
 30
0.0
 40
0.0350535307556177
 50
5.2034781009057589
 51
80.8271740754940851
  0
ARC
  5
494D
  8
0
 10
503.661727671676374
 20
-4.2804334310041874
 30
0.0
 40
0.8008931449505201
 50
349.7294323044844759
 51
10.2705677036447298
  0
ARC
  5
494E
  8
0
 10
503.8489875613244067
 20
-4.7760873816682219
 30
0.0
 40
0.5792494584149573
 50
306.0437140665620745
 51
358.9947751897285002
  0
ARC
  5
494F
  8
0
 10
503.3074241509759759
 20
-3.513566767206985
 30
0.0
 40
1.9428274271556241
 50
269.3497178109519723
 51
297.0122452169799203
  0
LINE
  5
4950
  8
0
 10
503.2853743776797728
 20
-5.4562690653488657
 30
0.0
 11
500.7186862642586789
 21
-5.5382574913983014
 31
0.0
  0
ARC
  5
4951
  8
0
 10
500.7237833826928863
 20
-6.283191712463239
 30
0.0
 40
0.0359433303180638
 50
185.2939426907720133
 51
249.9813599872879024
  0
ARC
  5
4952
  8
0
 10
510.4366377477280139
 20
190.5035562797721127
 30
0.0
 40
197.1463218388194036
 50
267.5176798202917894
 51
267.9673042147148863
  0
ARC
  5
4953
  8
0
 10
503.3662334128082989
 20
-7.9717994301385922
 30
0.0
 40
1.455162464031974
 50
53.1480386852568074
 51
86.9405448547212387
  0
ARC
  5
4954
  8
0
 10
503.6629886248218781
 20
-7.308280867784223
 30
0.0
 40
0.7633058864541166
 50
359.6269040885568984
 51
41.0110363483658418
  0
ARC
  5
4955
  8
0
 10
500.9016662872089114
 20
-4.900673342895348
 30
0.0
 40
1.4348543080131859
 50
264.1212955235864115
 51
271.5787336121238127
  0
ARC
  5
4956
  8
0
 10
501.1032119810042218
 20
-11.0568564734569996
 30
0.0
 40
4.7246521434562281
 50
85.8212599426873908
 51
91.9651334059927876
  0
ARC
  5
4957
  8
0
 10
501.3417384442303728
 20
-7.7209236734053688
 30
0.0
 40
1.3802164235501539
 50
66.2320349372778736
 51
85.6057766956620441
  0
ARC
  5
4958
  8
0
 10
506.5155431831690862
 20
-8.2273731549883724
 30
0.0
 40
0.0043168086240248
 50
33.1565880834864402
 51
124.9452851473132995
  0
LINE
  5
4959
  8
0
 10
506.5191571244865258
 20
-8.2250121668792691
 30
0.0
 11
506.5264036732293107
 21
-8.2409862588746865
 31
0.0
  0
ARC
  5
495A
  8
0
 10
506.5226482190000752
 20
-8.2411732613745272
 30
0.0
 40
0.0030406640307193
 50
77.5218700382020955
 51
117.7087810447948044
  0
ARC
  5
495B
  8
0
 10
506.5335418343590277
 20
-8.2619148167449499
 30
0.0
 40
0.0264689156679002
 50
117.7087810447948044
 51
153.7002631540867981
  0
ARC
  5
495C
  8
0
 10
506.7374289362551849
 20
-8.3867157442246754
 30
0.0
 40
0.2654225650497705
 50
149.0438836662953861
 51
169.1781795571071996
  0
ARC
  5
495D
  8
0
 10
506.5257488892939932
 20
-8.3504561992833306
 30
0.0
 40
0.0508670372387893
 50
164.5218000693087106
 51
186.4953805282383996
  0
ARC
  5
495E
  8
0
 10
506.4971905866532893
 20
-8.3537076744855927
 30
0.0
 40
0.0221242339530634
 50
186.4953805282383996
 51
204.8201074357527887
  0
ARC
  5
495F
  8
0
 10
506.4797136356523879
 20
-8.3617906036603973
 30
0.0
 40
0.0028686487808534
 50
204.8201074357490086
 51
287.852222308421176
  0
ARC
  5
4960
  8
0
 10
506.4584776812721998
 20
-8.2958548866055413
 30
0.0
 40
0.0721397433439395
 50
287.852222308421176
 51
289.3776536974564237
  0
ARC
  5
4961
  8
0
 10
506.4108058695564978
 20
-8.2901374581251872
 30
0.0
 40
0.1028090796216053
 50
314.1474639961988942
 51
339.8438164162337785
  0
ARC
  5
4962
  8
0
 10
506.2758772579314268
 20
-8.2206528778771872
 30
0.0
 40
0.254108874641459
 50
335.6155795430436797
 51
351.6014774226525788
  0
ARC
  5
4963
  8
0
 10
506.4739301011218799
 20
-8.250888876481115
 30
0.0
 40
0.05377275124668
 50
352.6506907581531891
 51
7.8019337020855346
  0
ARC
  5
4964
  8
0
 10
506.5148353270452048
 20
-8.2459728061367787
 30
0.0
 40
0.0125973126905793
 50
10.9066372634137405
 51
23.3185067699714885
  0
ARC
  5
4965
  8
0
 10
506.5202365867841081
 20
-8.2436865950930542
 30
0.0
 40
0.006732367407971
 50
23.6468109254201089
 51
38.071653511341907
  0
ARC
  5
4966
  8
0
 10
506.5226982787448833
 20
-8.2417583479495562
 30
0.0
 40
0.0036053777440086
 50
38.0716535113822587
 51
80.308715986380264
  0
ARC
  5
4967
  8
0
 10
506.6413941417250157
 20
-8.3416670195733378
 30
0.0
 40
0.1742165580993484
 50
137.4404885927175997
 51
163.8859384569755093
  0
ARC
  5
4968
  8
0
 10
506.6990345846452897
 20
-8.3779655959006192
 30
0.0
 40
0.240409103654742
 50
159.3830618450490135
 51
174.8354776126037109
  0
ARC
  5
4969
  8
0
 10
506.494378021549494
 20
-8.3583843977527454
 30
0.0
 40
0.0348374845193741
 50
176.6109376831597899
 51
195.33553837207171
  0
ARC
  5
496A
  8
0
 10
506.4676791420998825
 20
-8.3655877581660025
 30
0.0
 40
0.0071850829217658
 50
196.2463370246564125
 51
231.5095494337134028
  0
ARC
  5
496B
  8
0
 10
506.4646082164040877
 20
-8.3694497619234358
 30
0.0
 40
0.0022509510171506
 50
231.5095494337431035
 51
254.859595824386588
  0
ARC
  5
496C
  8
0
 10
506.4655857981985037
 20
-8.3658368146661406
 30
0.0
 40
0.0059938181065489
 50
254.859595824386588
 51
270.7532740564161031
  0
ARC
  5
496D
  8
0
 10
506.3929321547190057
 20
-8.1963956070365072
 30
0.0
 40
0.1899138612987728
 50
292.5181424906321013
 51
298.1100281909435807
  0
LINE
  5
496E
  8
0
 10
506.4636954715019783
 20
-8.3715073520733814
 30
0.0
 11
506.0405183311191877
 21
-8.2200622484485422
 31
0.0
  0
LINE
  5
496F
  8
0
 10
506.5166857102258859
 20
-8.2232102871522716
 30
0.0
 11
506.0935831009293224
 21
-8.0717941340747235
 31
0.0
  0
ARC
  5
4970
  8
0
 10
506.0169620143956877
 20
-8.2848496085624834
 30
0.0
 40
0.068937107832207
 50
70.0698536691183165
 51
163.9309275975101912
  0
LINE
  5
4971
  8
0
 10
505.95071836861149
 20
-8.2657680931747155
 30
0.0
 11
505.7154901510244258
 21
-9.0120339479893392
 31
0.0
  0
LINE
  5
4972
  8
0
 10
505.8005231435291194
 20
-8.2184253248747883
 30
0.0
 11
505.6798352682291124
 21
-8.6013092573746963
 31
0.0
  0
ARC
  5
4973
  8
0
 10
505.7297407206102093
 20
-8.3770033954035217
 30
0.0
 40
0.0249914955420211
 50
19.9735085926932214
 51
54.3014646123470968
  0
ARC
  5
4974
  8
0
 10
505.7404989202328238
 20
-8.3620309687655254
 30
0.0
 40
0.006554781666053
 50
54.3014646123470968
 51
93.4926880890985075
  0
ARC
  5
4975
  8
0
 10
505.740740298430012
 20
-8.3659857499325359
 30
0.0
 40
0.0105169221876425
 50
93.4926880890724163
 51
119.6195586796644932
  0
ARC
  5
4976
  8
0
 10
505.7458980566121909
 20
-8.3750578341237816
 30
0.0
 40
0.0209526867037865
 50
119.6195586796644932
 51
153.910405473727991
  0
ARC
  5
4977
  8
0
 10
506.0390651666921826
 20
-8.5186129053315813
 30
0.0
 40
0.3473803401009768
 50
153.910405473727991
 51
174.0600057675007974
  0
ARC
  5
4978
  8
0
 10
500.4880012050749087
 20
-7.9410497690724506
 30
0.0
 40
5.233649160119751
 50
352.7524459759102911
 51
354.0600057596914212
  0
ARC
  5
4979
  8
0
 10
505.8121886140357901
 20
-8.9659308507790048
 30
0.0
 40
0.1071265061556628
 50
205.4904882236469064
 51
210.0851039680125041
  0
ARC
  5
497A
  8
0
 10
505.7609107721709734
 20
-8.9969834831243407
 30
0.0
 40
0.0472048444529587
 50
208.6716197384903921
 51
223.3155496674897904
  0
ARC
  5
497B
  8
0
 10
506.014142640112027
 20
-8.8834158451143868
 30
0.0
 40
0.325170610016675
 50
190.6322644346955997
 51
203.2996797104372035
  0
ARC
  5
497C
  8
0
 10
506.4961440280089846
 20
-8.7812281986458771
 30
0.0
 40
0.8178318044510026
 50
186.1228166310451968
 51
191.4380762043018933
  0
ARC
  5
497D
  8
0
 10
506.9802662356897827
 20
-8.7294806985541573
 30
0.0
 40
1.3047117634466829
 50
181.0392401385157939
 51
186.1147283730246897
  0
ARC
  5
497E
  8
0
 10
507.3137345952732744
 20
-8.7210375054833822
 30
0.0
 40
1.638280154402812
 50
175.8089924942561026
 51
181.1229529883900966
  0
ARC
  5
497F
  8
0
 10
504.2063460487876227
 20
-8.7493274582768823
 30
0.0
 40
1.5861986464662969
 50
352.988440745275625
 51
359.3282941512463253
  0
ARC
  5
4980
  8
0
 10
505.7406913843016127
 20
-9.0176656671258844
 30
0.0
 40
0.0183430002907387
 50
219.6357588424712901
 51
268.8906724313857808
  0
ARC
  5
4981
  8
0
 10
505.7410209199638871
 20
-9.0152878201477762
 30
0.0
 40
0.0207287193923555
 50
268.1072027309999157
 51
330.4995298492909228
  0
ARC
  5
4982
  8
0
 10
505.5858428500728792
 20
-8.9360214742368544
 30
0.0
 40
0.1949628248756
 50
332.6820766915597005
 51
357.962216192208416
  0
ARC
  5
4983
  8
0
 10
506.0162762926361779
 20
-8.2824604863855171
 30
0.0
 40
0.224045613701328
 50
89.8346771621779112
 51
137.3902322359533912
  0
ARC
  5
4984
  8
0
 10
506.0237049834441905
 20
-8.2893575321131312
 30
0.0
 40
0.2341823087070922
 50
137.3787661277883956
 51
162.3685730050995915
  0
ARC
  5
4985
  8
0
 10
506.0167615904080094
 20
-8.2856675909805109
 30
0.0
 40
0.2272518427805125
 50
70.2421473153487028
 51
89.9593653816369851
  0
ENDSEC
  0
EOF
