  0
SECTION
  2
HEADER
  9
$ACADVER
  1
AC1009
  9
$INSBASE
 10
505.184241684161691
 20
-9.4525210562545219
 30
0.0
  9
$EXTMIN
 10
504.2496450129322056
 20
-14.0210271690208703
 30
-0.0000000349181948
  9
$EXTMAX
 10
506.1417486728691983
 20
-8.1595956729915002
 30
0.0000000814935746
  9
$LIMMIN
 10
0.0
 20
0.0
  9
$LIMMAX
 10
11.6929133858000007
 20
8.2677165353999982
  9
$ORTHOMODE
 70
     0
  9
$REGENMODE
 70
     1
  9
$FILLMODE
 70
     1
  9
$QTEXTMODE
 70
     0
  9
$MIRRTEXT
 70
     0
  9
$DRAGMODE
 70
     2
  9
$LTSCALE
 40
0.6431102362
  9
$OSMODE
 70
  3839
  9
$ATTMODE
 70
     1
  9
$TEXTSIZE
 40
0.2
  9
$TRACEWID
 40
0.05
  9
$TEXTSTYLE
  7
STANDARD
  9
$CLAYER
  8
DEFPOINT
  9
$CELTYPE
  6
BYLAYER
  9
$CECOLOR
 62
   256
  9
$DIMSCALE
 40
1.0
  9
$DIMASZ
 40
0.1875
  9
$DIMEXO
 40
0.0625
  9
$DIMDLI
 40
0.4443307087
  9
$DIMRND
 40
0.0
  9
$DIMDLE
 40
0.0
  9
$DIMEXE
 40
0.125
  9
$DIMTP
 40
0.01
  9
$DIMTM
 40
0.01
  9
$DIMTXT
 40
1.0
  9
$DIMCEN
 40
0.1052362205
  9
$DIMTSZ
 40
0.0
  9
$DIMTOL
 70
     1
  9
$DIMLIM
 70
     0
  9
$DIMTIH
 70
     1
  9
$DIMTOH
 70
     1
  9
$DIMSE1
 70
     0
  9
$DIMSE2
 70
     0
  9
$DIMTAD
 70
     0
  9
$DIMZIN
 70
     0
  9
$DIMBLK
  1

  9
$DIMASO
 70
     1
  9
$DIMSHO
 70
     1
  9
$DIMPOST
  1
\X
  9
$DIMAPOST
  1

  9
$DIMALT
 70
     1
  9
$DIMALTD
 70
     2
  9
$DIMALTF
 40
25.3999999999999986
  9
$DIMLFAC
 40
1.0
  9
$DIMTOFL
 70
     0
  9
$DIMTVP
 40
0.0
  9
$DIMTIX
 70
     0
  9
$DIMSOXD
 70
     0
  9
$DIMSAH
 70
     0
  9
$DIMBLK1
  1

  9
$DIMBLK2
  1

  9
$DIMSTYLE
  2
STANDARD
  9
$DIMCLRD
 70
     0
  9
$DIMCLRE
 70
     0
  9
$DIMCLRT
 70
     0
  9
$DIMTFAC
 40
1.0
  9
$DIMGAP
 40
0.09
  9
$LUNITS
 70
     2
  9
$LUPREC
 70
     4
  9
$SKETCHINC
 40
0.1
  9
$FILLETRAD
 40
0.0
  9
$AUNITS
 70
     0
  9
$AUPREC
 70
     0
  9
$MENU
  1
.
  9
$ELEVATION
 40
0.0
  9
$PELEVATION
 40
0.0
  9
$THICKNESS
 40
0.0
  9
$LIMCHECK
 70
     0
  9
$BLIPMODE
 70
     0
  9
$CHAMFERA
 40
0.0
  9
$CHAMFERB
 40
0.0
  9
$SKPOLY
 70
     0
  9
$TDCREATE
 40
2458306.6094560190103948
  9
$TDUPDATE
 40
2459184.757002315018326
  9
$TDINDWG
 40
0.1196733796
  9
$TDUSRTIMER
 40
0.1196732523
  9
$USRTIMER
 70
     1
  9
$ANGBASE
 50
0.0
  9
$ANGDIR
 70
     0
  9
$PDMODE
 70
     0
  9
$PDSIZE
 40
0.3125
  9
$PLINEWID
 40
0.0
  9
$COORDS
 70
     1
  9
$SPLFRAME
 70
     0
  9
$SPLINETYPE
 70
     6
  9
$SPLINESEGS
 70
     8
  9
$ATTDIA
 70
     1
  9
$ATTREQ
 70
     1
  9
$HANDLING
 70
     1
  9
$HANDSEED
  5
4777
  9
$SURFTAB1
 70
     6
  9
$SURFTAB2
 70
     6
  9
$SURFTYPE
 70
     6
  9
$SURFU
 70
     6
  9
$SURFV
 70
     6
  9
$UCSNAME
  2

  9
$UCSORG
 10
0.0
 20
0.0
 30
0.0
  9
$UCSXDIR
 10
1.0
 20
0.0
 30
0.0
  9
$UCSYDIR
 10
0.0
 20
1.0
 30
0.0
  9
$PUCSNAME
  2

  9
$PUCSORG
 10
0.0
 20
0.0
 30
0.0
  9
$PUCSXDIR
 10
1.0
 20
0.0
 30
0.0
  9
$PUCSYDIR
 10
0.0
 20
1.0
 30
0.0
  9
$USERI1
 70
     0
  9
$USERI2
 70
     0
  9
$USERI3
 70
     0
  9
$USERI4
 70
     0
  9
$USERI5
 70
     0
  9
$USERR1
 40
0.0
  9
$USERR2
 40
0.0
  9
$USERR3
 40
0.0
  9
$USERR4
 40
0.0
  9
$USERR5
 40
0.0
  9
$WORLDVIEW
 70
     1
  9
$SHADEDGE
 70
     3
  9
$SHADEDIF
 70
    70
  9
$TILEMODE
 70
     1
  9
$MAXACTVP
 70
    64
  9
$PLIMCHECK
 70
     0
  9
$PEXTMIN
 10
1.0000000000000000E+20
 20
1.0000000000000000E+20
 30
1.0000000000000000E+20
  9
$PEXTMAX
 10
-1.0000000000000000E+20
 20
-1.0000000000000000E+20
 30
-1.0000000000000000E+20
  9
$PLIMMIN
 10
0.0
 20
0.0
  9
$PLIMMAX
 10
12.0
 20
9.0
  9
$UNITMODE
 70
     0
  9
$VISRETAIN
 70
     1
  9
$PLINEGEN
 70
     0
  9
$PSLTSCALE
 70
     1
  0
ENDSEC
  0
SECTION
  2
TABLES
  0
TABLE
  2
VPORT
 70
     1
  0
VPORT
  2
*ACTIVE
 70
     0
 10
0.0
 20
0.0
 11
1.0
 21
1.0
 12
163.5884106220399019
 22
-2.1203743270156901
 13
0.0
 23
0.0
 14
1.0
 24
1.0
 15
0.0
 25
0.0
 16
0.0
 26
0.0
 36
57.1721640433716018
 17
341.6072862208607717
 27
-8.9699370939904934
 37
0.0
 40
5.9263181915573693
 41
3.0887245841035109
 42
50.0
 43
0.0
 44
0.0
 50
0.0
 51
0.0
 71
     0
 72
   100
 73
     1
 74
     1
 75
     0
 76
     0
 77
     0
 78
     0
  0
ENDTAB
  0
TABLE
  2
LTYPE
 70
     1
  0
LTYPE
  2
CONTINUOUS
 70
     0
  3
Solid line
 72
    65
 73
     0
 40
0.0
  0
ENDTAB
  0
TABLE
  2
LAYER
 70
     2
  0
LAYER
  2
0
 70
     0
 62
   255
  6
CONTINUOUS
  0
LAYER
  2
DEFPOINT
 70
     0
 62
     7
  6
CONTINUOUS
  0
ENDTAB
  0
TABLE
  2
STYLE
 70
     1
  0
STYLE
  2
STANDARD
 70
     0
 40
0.0
 41
0.8
 50
0.0
 71
     0
 42
0.2
  3
txt
  4

  0
ENDTAB
  0
TABLE
  2
VIEW
 70
     0
  0
ENDTAB
  0
TABLE
  2
UCS
 70
     0
  0
ENDTAB
  0
TABLE
  2
APPID
 70
    10
  0
APPID
  2
ACAD
 70
     0
  0
APPID
  2
ACADANNOTATIVE
 70
     0
  0
APPID
  2
ACAD_MLEADERVER
 70
     0
  0
APPID
  2
ACAD_EXEMPT_FROM_CAD_STANDARDS
 70
     0
  0
APPID
  2
ACAD_DSTYLE_DIMJAG
 70
     0
  0
APPID
  2
ACAD_DSTYLE_DIMTALN
 70
     0
  0
APPID
  2
ACAD_NAV_VCDISPLAY
 70
     0
  0
APPID
  2
ACAECLAYERSTANDARD
 70
     0
  0
APPID
  2
ACCMTRANSPARENCY
 70
     0
  0
APPID
  2
ACDBATTR
 70
     0
  0
ENDTAB
  0
TABLE
  2
DIMSTYLE
 70
     1
  0
DIMSTYLE
  2
STANDARD
 70
     0
  3

  4

  5

  6

  7

 40
1.0
 41
0.1875
 42
0.0625
 43
0.38
 44
0.125
 45
0.0
 46
0.0
 47
0.01
 48
0.01
140
0.15625
141
0.09
142
0.0
143
25.3999999999999986
144
1.0
145
0.0
146
1.0
147
0.09
 71
     1
 72
     0
 73
     1
 74
     1
 75
     0
 76
     0
 77
     0
 78
     4
170
     0
171
     2
172
     0
173
     0
174
     0
175
     0
176
     0
177
     0
178
     0
  0
ENDTAB
  0
ENDSEC
  0
SECTION
  2
BLOCKS
  0
BLOCK
  8
0
  2
$MODEL_SPACE
 70
     0
 10
0.0
 20
0.0
 30
0.0
  3
$MODEL_SPACE
  1

  0
ENDBLK
  5
1598
  8
0
  0
BLOCK
 67
     1
  8
0
  2
$PAPER_SPACE
 70
     0
 10
0.0
 20
0.0
 30
0.0
  3
$PAPER_SPACE
  1

  0
ENDBLK
  5
1594
 67
     1
  8
0
  0
BLOCK
  8
0
  2
_FILLED
 70
     0
 10
0.0
 20
0.0
 30
0.0
  3
_FILLED
  1

  0
SOLID
  5
3F0C
  8
0
  6
BYBLOCK
 62
     0
 10
0.0
 20
0.0
 30
0.0
 11
-1.0
 21
0.1666666667
 31
0.0
 12
-1.0
 22
-0.1666666667
 32
0.0
 13
-1.0
 23
-0.1666666667
 33
0.0
  0
ENDBLK
  5
3F0D
  8
0
  6
BYBLOCK
 62
     0
  0
ENDSEC
  0
SECTION
  2
ENTITIES
  0
ATTDEF
  5
659
  8
DEFPOINT
 10
505.184718498601228
 20
-9.4486886754474302
 30
0.0
 40
0.001
  1
K-74013AR-4ND
  3

  2
MODELNUMBER
 70
     0
1001
ACDBATTR
1070
     0
1070
     1
  0
ATTDEF
  5
65A
  8
DEFPOINT
 10
505.184718498601228
 20
-9.4503553421140953
 30
0.0
 40
0.001
  1
TAUT
  3

  2
TRADENAME
 70
     0
1001
ACDBATTR
1070
     0
1070
     1
  0
ATTDEF
  5
65B
  8
DEFPOINT
 10
505.184718498601228
 20
-9.4520220087807587
 30
0.0
 40
0.001
  1
BATHROOM SINK FAUCET
  3

  2
PRODUCT
 70
     0
1001
ACDBATTR
1070
     0
1070
     1
  0
LINE
  5
464E
  8
0
 10
504.6463756143115233
 20
-14.0194501920545207
 30
0.0
 11
505.7221077540114038
 21
-14.0194501920545207
 31
0.0
  0
LINE
  5
464F
  8
0
 10
504.6189920400117899
 20
-12.5973658642545399
 30
0.0
 11
505.7494913281919935
 21
-12.5973658642545399
 31
0.0
  0
LINE
  5
4650
  8
0
 10
504.3569370428944012
 20
-9.4784140579769023
 30
0.0
 11
504.540386371130694
 21
-12.5233616802853795
 31
0.0
  0
ARC
  5
4651
  8
0
 10
504.6302874305133059
 20
-12.5066194148054795
 30
0.0
 40
0.0914467272869076
 50
190.5493393573586047
 51
262.9047733785614014
  0
ARC
  5
4652
  8
0
 10
504.6535056922915032
 20
-13.9391358321804901
 30
0.0
 40
0.0806302326300204
 50
187.8151198042295107
 51
264.9267455922218915
  0
ARC
  5
4653
  8
0
 10
505.1842408359115097
 20
-9.4525210562545219
 30
0.0
 40
0.9251961842999999
 50
89.9999474693669441
 51
209.9740390265125995
  0
ARC
  5
4654
  8
0
 10
59.7379292666649917
 20
-32.96475097648662
 30
0.0
 40
445.2419034494348011
 50
2.4476373320374472
 51
2.9742581464027431
  0
ARC
  5
4655
  8
0
 10
505.1828400364890967
 20
-9.4313561613570691
 30
0.0
 40
0.8272425282003482
 50
89.9029202057632091
 51
183.2610450122905092
  0
LINE
  5
4656
  8
0
 10
506.0115463254289807
 20
-9.4784140579769023
 30
0.0
 11
505.8280969971928016
 21
-12.5233616802853795
 31
0.0
  0
ARC
  5
4657
  8
0
 10
505.7381959378101897
 20
-12.5066194148054795
 30
0.0
 40
0.0914467272869076
 50
277.0952266214385986
 51
349.4506606426411963
  0
ARC
  5
4658
  8
0
 10
505.7149776760318787
 20
-13.9391358321804901
 30
0.0
 40
0.0806302326300204
 50
275.0732544077781085
 51
352.1848801957702904
  0
ARC
  5
4659
  8
0
 10
505.1842425324114743
 20
-9.4525210562545219
 30
0.0
 40
0.9251961842999999
 50
330.0259609734873152
 51
37.4818233886356609
  0
ARC
  5
465A
  8
0
 10
505.1842425324114743
 20
-9.4525210562545219
 30
0.0
 40
0.9251961842999999
 50
47.7679744295752116
 51
90.0000525306330559
  0
ARC
  5
465B
  8
0
 10
950.6305541016585039
 20
-32.96475097648662
 30
0.0
 40
445.2419034494348011
 50
177.0257418535973102
 51
177.5523626679625124
  0
ARC
  5
465C
  8
0
 10
505.1856433318342283
 20
-9.4313561613570691
 30
0.0
 40
0.8272425282003482
 50
356.7389549877094055
 51
90.0970797942367767
  0
LINE
  5
465D
  8
0
 10
505.7647966921826992
 20
-8.8406687773200918
 30
0.0
 11
505.8040576525081065
 21
-8.7726667992651013
 31
0.0
  0
ARC
  5
465E
  8
0
 10
504.7452635908547904
 20
-8.3530786384457141
 30
0.0
 40
1.1389025813000799
 50
338.3821348974179841
 51
347.3712215024402781
  0
LINE
  5
465F
  8
0
 10
505.8566127816749258
 20
-8.6020807785077462
 30
0.0
 11
505.955752681908109
 21
-8.1791333730651044
 31
0.0
  0
ARC
  5
4660
  8
0
 10
505.9671319200015205
 20
-8.1826211215689053
 30
0.0
 40
0.0119017414364926
 50
119.9313648876243974
 51
162.9596425092840946
  0
ARC
  5
4661
  8
0
 10
504.3410993159704958
 20
-5.1746422111207879
 30
0.0
 40
3.4074473980195719
 50
298.3890973257205133
 51
298.6654526327411077
  0
ARC
  5
4662
  8
0
 10
506.0052807127162851
 20
-8.2587081785239942
 30
0.0
 40
0.098803457410051
 50
92.6904778011190444
 51
107.4615608693948019
  0
ARC
  5
4663
  8
0
 10
505.9939031348782237
 20
-8.3746971254594822
 30
0.0
 40
0.2147892581654988
 50
75.851466722955692
 51
88.2018665002599533
  0
ARC
  5
4664
  8
0
 10
505.9998164287313216
 20
-8.3107022356225624
 30
0.0
 40
0.1444590096017386
 50
71.4056884629933961
 51
104.3058188481691957
  0
LINE
  5
4665
  8
0
 10
505.8721167479102974
 20
-8.9697454493018203
 30
0.0
 11
505.9404390990080174
 21
-8.8514066641651024
 31
0.0
  0
ARC
  5
4666
  8
0
 10
504.9396308150530785
 20
-8.4075963033028014
 30
0.0
 40
1.094799003306572
 50
336.0850154981889091
 51
347.82011108478099
  0
LINE
  5
4667
  8
0
 10
506.0097859038078241
 20
-8.6385788646650834
 30
0.0
 11
506.1090753608078217
 21
-8.2150799538650912
 31
0.0
  0
ARC
  5
4668
  8
0
 10
506.0063248166497942
 20
-8.3210975137970475
 30
0.0
 40
0.1597827571349495
 50
61.6882633971131327
 51
75.4725015054382737
  0
ARC
  5
4669
  8
0
 10
506.0551185461050068
 20
-8.2305221770702186
 30
0.0
 40
0.0569006903921007
 50
43.0637064335005917
 51
61.6882633971131327
  0
ARC
  5
466A
  8
0
 10
505.3554779868194942
 20
-8.7313563472932341
 30
0.0
 40
0.916873341664097
 50
35.0293219669797224
 51
36.0588780537478115
  0
ARC
  5
466B
  8
0
 10
506.09210985266742
 20
-8.2155295342133794
 30
0.0
 40
0.0175992019217392
 50
18.8214145988529182
 51
36.4434064299927272
  0
ARC
  5
466C
  8
0
 10
506.0989203978547835
 20
-8.2131304569099424
 30
0.0
 40
0.0103790968623551
 50
357.9287678863145175
 51
18.4152214741867297
  0
ARC
  5
466D
  8
0
 10
506.1240261949561159
 20
-8.216341822405246
 30
0.0
 40
0.0150039912669589
 50
169.103661918867914
 51
175.1756006587818035
  0
ARC
  5
466E
  8
0
 10
506.008352163355994
 20
-8.3275106852285088
 30
0.0
 40
0.158240934207692
 50
54.5812466873433593
 51
76.2814663398330168
  0
ARC
  5
466F
  8
0
 10
506.0863809853531734
 20
-8.2177895395292406
 30
0.0
 40
0.0236035438740918
 50
32.5928915645669477
 51
54.5812466873433593
  0
ENDSEC
  0
EOF
