  0
SECTION
  2
HEADER
  9
$ACADVER
  1
AC1009
  9
$INSBASE
 10
4216.7525108813069892
 20
192.5051227302651
 30
0.0
  9
$EXTMIN
 10
4215.7476790367436479
 20
184.6960027726765929
 30
0.0
  9
$EXTMAX
 10
4219.6214085191077174
 20
194.3230637458150909
 30
0.0
  9
$LIMMIN
 10
0.0
 20
0.0
  9
$LIMMAX
 10
11.6929133858000007
 20
8.2677165353999982
  9
$ORTHOMODE
 70
     0
  9
$REGENMODE
 70
     1
  9
$FILLMODE
 70
     1
  9
$QTEXTMODE
 70
     0
  9
$MIRRTEXT
 70
     0
  9
$DRAGMODE
 70
     2
  9
$LTSCALE
 40
0.6431102362
  9
$OSMODE
 70
  4095
  9
$ATTMODE
 70
     1
  9
$TEXTSIZE
 40
0.2
  9
$TRACEWID
 40
0.05
  9
$TEXTSTYLE
  7
STANDARD
  9
$CLAYER
  8
0
  9
$CELTYPE
  6
BYLAYER
  9
$CECOLOR
 62
   256
  9
$DIMSCALE
 40
1.0
  9
$DIMASZ
 40
0.1875
  9
$DIMEXO
 40
0.0625
  9
$DIMDLI
 40
0.4443307087
  9
$DIMRND
 40
0.0
  9
$DIMDLE
 40
0.0
  9
$DIMEXE
 40
0.125
  9
$DIMTP
 40
0.01
  9
$DIMTM
 40
0.01
  9
$DIMTXT
 40
2.0
  9
$DIMCEN
 40
0.1052362205
  9
$DIMTSZ
 40
0.0
  9
$DIMTOL
 70
     1
  9
$DIMLIM
 70
     0
  9
$DIMTIH
 70
     1
  9
$DIMTOH
 70
     1
  9
$DIMSE1
 70
     0
  9
$DIMSE2
 70
     0
  9
$DIMTAD
 70
     0
  9
$DIMZIN
 70
     0
  9
$DIMBLK
  1

  9
$DIMASO
 70
     1
  9
$DIMSHO
 70
     1
  9
$DIMPOST
  1
\X
  9
$DIMAPOST
  1

  9
$DIMALT
 70
     1
  9
$DIMALTD
 70
     2
  9
$DIMALTF
 40
25.3999999999999986
  9
$DIMLFAC
 40
1.0
  9
$DIMTOFL
 70
     0
  9
$DIMTVP
 40
0.0
  9
$DIMTIX
 70
     0
  9
$DIMSOXD
 70
     0
  9
$DIMSAH
 70
     0
  9
$DIMBLK1
  1

  9
$DIMBLK2
  1

  9
$DIMSTYLE
  2
STANDARD
  9
$DIMCLRD
 70
     0
  9
$DIMCLRE
 70
     0
  9
$DIMCLRT
 70
     0
  9
$DIMTFAC
 40
1.0
  9
$DIMGAP
 40
0.09
  9
$LUNITS
 70
     2
  9
$LUPREC
 70
     4
  9
$SKETCHINC
 40
0.1
  9
$FILLETRAD
 40
0.0
  9
$AUNITS
 70
     0
  9
$AUPREC
 70
     0
  9
$MENU
  1
.
  9
$ELEVATION
 40
0.0
  9
$PELEVATION
 40
0.0
  9
$THICKNESS
 40
0.0
  9
$LIMCHECK
 70
     0
  9
$BLIPMODE
 70
     0
  9
$CHAMFERA
 40
0.0
  9
$CHAMFERB
 40
0.0
  9
$SKPOLY
 70
     0
  9
$TDCREATE
 40
2458060.468368056230247
  9
$TDUPDATE
 40
2459174.7033796301111579
  9
$TDINDWG
 40
0.4410371528
  9
$TDUSRTIMER
 40
0.4410371528
  9
$USRTIMER
 70
     1
  9
$ANGBASE
 50
0.0
  9
$ANGDIR
 70
     0
  9
$PDMODE
 70
     0
  9
$PDSIZE
 40
0.3125
  9
$PLINEWID
 40
0.0
  9
$COORDS
 70
     1
  9
$SPLFRAME
 70
     0
  9
$SPLINETYPE
 70
     6
  9
$SPLINESEGS
 70
     8
  9
$ATTDIA
 70
     1
  9
$ATTREQ
 70
     1
  9
$HANDLING
 70
     1
  9
$HANDSEED
  5
187A4
  9
$SURFTAB1
 70
     6
  9
$SURFTAB2
 70
     6
  9
$SURFTYPE
 70
     6
  9
$SURFU
 70
     6
  9
$SURFV
 70
     6
  9
$UCSNAME
  2

  9
$UCSORG
 10
0.0
 20
0.0
 30
0.0
  9
$UCSXDIR
 10
1.0
 20
0.0
 30
0.0
  9
$UCSYDIR
 10
0.0
 20
1.0
 30
0.0
  9
$PUCSNAME
  2

  9
$PUCSORG
 10
0.0
 20
0.0
 30
0.0
  9
$PUCSXDIR
 10
1.0
 20
0.0
 30
0.0
  9
$PUCSYDIR
 10
0.0
 20
1.0
 30
0.0
  9
$USERI1
 70
     0
  9
$USERI2
 70
     0
  9
$USERI3
 70
     0
  9
$USERI4
 70
     0
  9
$USERI5
 70
     0
  9
$USERR1
 40
0.0
  9
$USERR2
 40
0.0
  9
$USERR3
 40
0.0
  9
$USERR4
 40
0.0
  9
$USERR5
 40
0.0
  9
$WORLDVIEW
 70
     1
  9
$SHADEDGE
 70
     3
  9
$SHADEDIF
 70
    70
  9
$TILEMODE
 70
     1
  9
$MAXACTVP
 70
    64
  9
$PLIMCHECK
 70
     0
  9
$PEXTMIN
 10
1.0000000000000000E+20
 20
1.0000000000000000E+20
 30
1.0000000000000000E+20
  9
$PEXTMAX
 10
-1.0000000000000000E+20
 20
-1.0000000000000000E+20
 30
-1.0000000000000000E+20
  9
$PLIMMIN
 10
0.0
 20
0.0
  9
$PLIMMAX
 10
12.0
 20
9.0
  9
$UNITMODE
 70
     0
  9
$VISRETAIN
 70
     1
  9
$PLINEGEN
 70
     0
  9
$PSLTSCALE
 70
     1
  0
ENDSEC
  0
SECTION
  2
TABLES
  0
TABLE
  2
VPORT
 70
     1
  0
VPORT
  2
*ACTIVE
 70
     0
 10
0.0
 20
0.0
 11
1.0
 21
1.0
 12
306.3890229576791171
 22
56.9997636824046765
 13
0.0
 23
0.0
 14
1.0
 24
1.0
 15
0.0
 25
0.0
 16
0.0
 26
0.0
 36
60.4960186965801583
 17
3911.3653564453120453
 27
132.5796051025390057
 37
0.0
 40
12.5983366476767902
 41
1.8614190687361409
 42
50.0
 43
0.0
 44
0.0
 50
0.0
 51
0.0
 71
     0
 72
   100
 73
     1
 74
     1
 75
     0
 76
     0
 77
     0
 78
     0
  0
ENDTAB
  0
TABLE
  2
LTYPE
 70
     2
  0
LTYPE
  2
CONTINUOUS
 70
     0
  3
Solid line
 72
    65
 73
     0
 40
0.0
  0
LTYPE
  2
PHANTOM2
 70
     0
  3
___ _ _ ___ _ _ ___ _ _ ___ _ _
 72
    65
 73
     6
 40
1.25
 49
0.625
 49
-0.125
 49
0.125
 49
-0.125
 49
0.125
 49
-0.125
  0
ENDTAB
  0
TABLE
  2
LAYER
 70
     2
  0
LAYER
  2
0
 70
     0
 62
   255
  6
CONTINUOUS
  0
LAYER
  2
DEFPOINTS
 70
     0
 62
     7
  6
CONTINUOUS
  0
ENDTAB
  0
TABLE
  2
STYLE
 70
     1
  0
STYLE
  2
STANDARD
 70
     0
 40
0.0
 41
0.8
 50
0.0
 71
     0
 42
0.2
  3
txt
  4

  0
ENDTAB
  0
TABLE
  2
VIEW
 70
     0
  0
ENDTAB
  0
TABLE
  2
UCS
 70
     0
  0
ENDTAB
  0
TABLE
  2
APPID
 70
    11
  0
APPID
  2
ACAD
 70
     0
  0
APPID
  2
ACAD_MLEADERVER
 70
     0
  0
APPID
  2
ACAD_EXEMPT_FROM_CAD_STANDARDS
 70
     0
  0
APPID
  2
ACAD_NAV_VCDISPLAY
 70
     0
  0
APPID
  2
ACAECLAYERSTANDARD
 70
     0
  0
APPID
  2
ACCMTRANSPARENCY
 70
     0
  0
APPID
  2
ACAD_DSTYLE_DIMJAG
 70
     0
  0
APPID
  2
ACAD_DSTYLE_DIMTALN
 70
     0
  0
APPID
  2
ACDBATTR
 70
     0
  0
APPID
  2
ACADANNOTATIVE
 70
     0
  0
APPID
  2
DCO15
 70
     0
  0
ENDTAB
  0
TABLE
  2
DIMSTYLE
 70
     1
  0
DIMSTYLE
  2
STANDARD
 70
     0
  3

  4

  5

  6

  7

 40
1.0
 41
0.1875
 42
0.0625
 43
0.38
 44
0.125
 45
0.0
 46
0.0
 47
0.01
 48
0.01
140
0.15625
141
0.09
142
0.0
143
25.3999999999999986
144
1.0
145
0.0
146
1.0
147
0.09
 71
     1
 72
     0
 73
     1
 74
     1
 75
     0
 76
     0
 77
     0
 78
     4
170
     0
171
     2
172
     0
173
     0
174
     0
175
     0
176
     0
177
     0
178
     0
  0
ENDTAB
  0
ENDSEC
  0
SECTION
  2
BLOCKS
  0
BLOCK
  8
0
  2
$MODEL_SPACE
 70
     0
 10
0.0
 20
0.0
 30
0.0
  3
$MODEL_SPACE
  1

  0
ENDBLK
  5
21
  8
0
  0
BLOCK
 67
     1
  8
0
  2
$PAPER_SPACE
 70
     0
 10
0.0
 20
0.0
 30
0.0
  3
$PAPER_SPACE
  1

  0
ENDBLK
  5
1D
 67
     1
  8
0
  0
ENDSEC
  0
SECTION
  2
ENTITIES
  0
LINE
  5
1846A
  8
0
 10
4217.2918809600068926
 20
184.6960027734151026
 30
0.0
 11
4216.2131408026070858
 21
184.6960027734151026
 31
0.0
  0
LINE
  5
1846B
  8
0
 10
4217.2918809600068926
 20
184.7130595095150909
 30
0.0
 11
4216.2131408026070858
 21
184.7130595095150909
 31
0.0
  0
LINE
  5
1846C
  8
0
 10
4216.0635345033069825
 20
184.8455371231150934
 30
0.0
 11
4216.0635345033069825
 21
192.5047106030150985
 31
0.0
  0
LINE
  5
1846D
  8
0
 10
4216.6442431648074489
 20
193.1847066766638932
 30
0.0
 11
4216.6442431648074489
 21
194.3033787064150886
 31
0.0
  0
LINE
  5
1846E
  8
0
 10
4216.8607785978083484
 20
193.1916706176548075
 30
0.0
 11
4216.8607785978083484
 21
194.3033787064150886
 31
0.0
  0
LINE
  5
1846F
  8
0
 10
4217.4414872592069514
 20
192.5047106030150985
 30
0.0
 11
4217.4414872592069514
 21
184.8455371231150934
 31
0.0
  0
LINE
  5
18470
  8
0
 10
4218.0517234797071069
 20
193.1645715492151965
 30
0.0
 11
4218.0517234797071069
 21
191.8456739114151048
 31
0.0
  0
LINE
  5
18471
  8
0
 10
4218.0640261421067407
 20
191.8456739114151048
 30
0.0
 11
4218.0640261421067407
 21
193.1645715492151965
 31
0.0
  0
LINE
  5
18472
  8
0
 10
4218.2040856844068912
 20
191.8437054075151025
 30
0.0
 11
4218.2040856844068912
 21
193.1665289478150953
 31
0.0
  0
LINE
  5
18473
  8
0
 10
4219.6214085191058984
 20
191.8673274547151948
 30
0.0
 11
4219.6214085191058984
 21
193.1429180059151065
 31
0.0
  0
LINE
  5
18474
  8
0
 10
4217.4414872592069514
 20
191.8358313917150895
 30
0.0
 11
4218.0320384403057687
 21
191.8358313917150895
 31
0.0
  0
LINE
  5
18475
  8
0
 10
4218.2119597002083538
 20
191.8358313917150895
 30
0.0
 11
4219.5899124561074132
 21
191.8358313917150895
 31
0.0
  0
LINE
  5
18476
  8
0
 10
4218.0517234797071069
 20
191.8456739114151048
 30
0.0
 11
4218.0640261421067407
 21
191.8456739114151048
 31
0.0
  0
LINE
  5
18477
  8
0
 10
4218.0517234797071069
 20
193.1645715492151965
 30
0.0
 11
4218.0640261421067407
 21
193.1645715492151965
 31
0.0
  0
LINE
  5
18478
  8
0
 10
4218.0320384403057687
 20
193.1744140689150981
 30
0.0
 11
4216.7726288718704382
 21
193.1929693559764019
 31
0.0
  0
LINE
  5
18479
  8
0
 10
4218.2119597002083538
 20
193.1744140689150981
 30
0.0
 11
4219.5899124561074132
 21
193.1744140689150981
 31
0.0
  0
LINE
  5
1847A
  8
0
  6
CONTINUOUS
 62
     7
 10
4216.8410935585070547
 20
194.3230637458150909
 30
0.0
 11
4216.6639278032071161
 21
194.3230637458150909
 31
0.0
  0
ARC
  5
1847B
  8
0
 10
4216.2131259376556045
 20
184.8455942179220131
 30
0.0
 40
0.1495914452453894
 50
180.0218681725889098
 51
270.0056935001471743
  0
ARC
  5
1847C
  8
0
 10
4217.2919220676403711
 20
184.8626310298730004
 30
0.0
 40
0.1495715260067878
 50
269.9842530593786023
 51
359.9784106176362002
  0
ARC
  5
1847D
  8
0
 10
4216.2130997136509905
 20
184.8626310126610974
 30
0.0
 40
0.1495715087897736
 50
180.0215827853299118
 51
270.0157397877654262
  0
ARC
  5
1847E
  8
0
 10
4217.2918940990048213
 20
184.8455959446042982
 30
0.0
 40
0.1495931717661728
 50
269.9949676235224274
 51
359.9774707420070854
  0
ARC
  5
1847F
  8
0
 10
4217.8155030073057787
 20
192.5051227303150938
 30
0.0
 40
0.7047244094
 50
56.5371182880233221
 51
69.3503331195809238
  0
ARC
  5
18480
  8
0
 10
4217.8155030073057787
 20
192.5051227303150938
 30
0.0
 40
0.7047244094
 50
290.6496668804190904
 51
303.4628817119767064
  0
ARC
  5
18481
  8
0
 10
4216.7525108812560575
 20
192.504286631074109
 30
0.0
 40
0.6889765083987271
 50
0.0352578122663132
 51
179.964742187733691
  0
ARC
  5
18482
  8
0
 10
4216.8410935585070547
 20
194.3033787064150886
 30
0.0
 40
0.0196850394
 50
0.0
 51
90.0
  0
ARC
  5
18483
  8
0
 10
4216.6639282041141996
 20
194.3033787064121896
 30
0.0
 40
0.0196850394069696
 50
90.001166890076405
 51
179.9999999915922899
  0
ARC
  5
18484
  8
0
 10
4219.5899124561074132
 20
193.1429180059151065
 30
0.0
 40
0.031496063
 50
0.0
 51
90.0
  0
ARC
  5
18485
  8
0
 10
4219.5899124561074132
 20
191.8673274547151948
 30
0.0
 40
0.031496063
 50
270.0
 51
0.0
  0
ARC
  5
18486
  8
0
 10
4218.0320384403057687
 20
193.1547290295150958
 30
0.0
 40
0.0196850394
 50
0.0
 51
90.0
  0
ARC
  5
18487
  8
0
 10
4218.0320384403057687
 20
191.8555164311150918
 30
0.0
 40
0.0196850394
 50
270.0
 51
0.0
  0
ARC
  5
18488
  8
0
 10
4218.2119597002083538
 20
191.8437054075151025
 30
0.0
 40
0.0078740157
 50
180.0
 51
270.0
  0
ARC
  5
18489
  8
0
 10
4218.2119597058017462
 20
193.166540039608094
 30
0.0
 40
0.0078740292070682
 50
90.000040710943594
 51
180.08071002990539
  0
ARC
  5
1848A
  8
0
 10
4216.7525108813069892
 20
193.487402891544491
 30
0.0
 40
0.1084761896294332
 50
183.5527532075059867
 51
356.4472467924663874
  0
ARC
  5
1848B
  8
0
 10
4216.7525108813069892
 20
192.5042226255150979
 30
0.0
 40
1.00483184456245
 50
96.1854619359030636
 51
226.7122010530964928
  0
ARC
  5
1848C
  8
0
 10
4216.7525108813069892
 20
192.5042226255150979
 30
0.0
 40
1.00483184456245
 50
313.2877989390863718
 51
318.3040787973982901
  0
ARC
  5
1848D
  8
0
 10
4216.7525108813069892
 20
192.5042226255150979
 30
0.0
 40
1.00483184456245
 50
42.4430749106966587
 51
83.8145380640969364
  0
ATTDEF
  5
1848F
  8
DEFPOINTS
 10
4216.7526067935041283
 20
192.5041415686997084
 30
0.0
 40
0.001
  1
K-73159W
  3

  2
MODELNUMBER
 70
     0
1001
ACDBATTR
1070
     0
1070
     1
  0
ATTDEF
  5
18490
  8
DEFPOINTS
 10
4216.7524809838469082
 20
192.5024747283204931
 30
0.0
 40
0.001
  1
TALL
  3

  2
TRADENAME
 70
     0
1001
ACDBATTR
1070
     0
1070
     1
  0
ATTDEF
  5
18491
  8
DEFPOINTS
 10
4216.7526067935041283
 20
192.5008082353662928
 30
0.0
 40
0.001
  1
BATHROOM SINK FAUCET
  3

  2
PRODUCT
 70
     0
1001
ACDBATTR
1070
     0
1070
     1
  0
ENDSEC
  0
EOF
