  0
SECTION
  2
HEADER
  9
$ACADVER
  1
AC1009
  9
$INSBASE
 10
4222.1258750971510381
 20
186.2340215804443062
 30
0.0
  9
$EXTMIN
 10
4214.1349836630251957
 20
186.227080796580907
 30
-0.0000000349181948
  9
$EXTMAX
 10
4223.1584083272791759
 20
194.9890627658261053
 30
0.0000000814935746
  9
$LIMMIN
 10
0.0
 20
0.0
  9
$LIMMAX
 10
11.6929133858000007
 20
8.2677165353999982
  9
$ORTHOMODE
 70
     0
  9
$REGENMODE
 70
     1
  9
$FILLMODE
 70
     1
  9
$QTEXTMODE
 70
     0
  9
$MIRRTEXT
 70
     0
  9
$DRAGMODE
 70
     2
  9
$LTSCALE
 40
0.6431102362
  9
$OSMODE
 70
  4095
  9
$ATTMODE
 70
     1
  9
$TEXTSIZE
 40
0.2
  9
$TRACEWID
 40
0.05
  9
$TEXTSTYLE
  7
STANDARD
  9
$CLAYER
  8
0
  9
$CELTYPE
  6
BYLAYER
  9
$CECOLOR
 62
   256
  9
$DIMSCALE
 40
1.0
  9
$DIMASZ
 40
0.1875
  9
$DIMEXO
 40
0.0625
  9
$DIMDLI
 40
0.4443307087
  9
$DIMRND
 40
0.0
  9
$DIMDLE
 40
0.0
  9
$DIMEXE
 40
0.125
  9
$DIMTP
 40
0.01
  9
$DIMTM
 40
0.01
  9
$DIMTXT
 40
2.0
  9
$DIMCEN
 40
0.1052362205
  9
$DIMTSZ
 40
0.0
  9
$DIMTOL
 70
     1
  9
$DIMLIM
 70
     0
  9
$DIMTIH
 70
     1
  9
$DIMTOH
 70
     1
  9
$DIMSE1
 70
     0
  9
$DIMSE2
 70
     0
  9
$DIMTAD
 70
     0
  9
$DIMZIN
 70
     0
  9
$DIMBLK
  1

  9
$DIMASO
 70
     1
  9
$DIMSHO
 70
     1
  9
$DIMPOST
  1
\X
  9
$DIMAPOST
  1

  9
$DIMALT
 70
     1
  9
$DIMALTD
 70
     2
  9
$DIMALTF
 40
25.3999999999999986
  9
$DIMLFAC
 40
1.0
  9
$DIMTOFL
 70
     0
  9
$DIMTVP
 40
0.0
  9
$DIMTIX
 70
     0
  9
$DIMSOXD
 70
     0
  9
$DIMSAH
 70
     0
  9
$DIMBLK1
  1

  9
$DIMBLK2
  1

  9
$DIMSTYLE
  2
STANDARD
  9
$DIMCLRD
 70
     0
  9
$DIMCLRE
 70
     0
  9
$DIMCLRT
 70
     0
  9
$DIMTFAC
 40
1.0
  9
$DIMGAP
 40
0.09
  9
$LUNITS
 70
     2
  9
$LUPREC
 70
     4
  9
$SKETCHINC
 40
0.1
  9
$FILLETRAD
 40
0.0
  9
$AUNITS
 70
     0
  9
$AUPREC
 70
     0
  9
$MENU
  1
.
  9
$ELEVATION
 40
0.0
  9
$PELEVATION
 40
0.0
  9
$THICKNESS
 40
0.0
  9
$LIMCHECK
 70
     0
  9
$BLIPMODE
 70
     0
  9
$CHAMFERA
 40
0.0
  9
$CHAMFERB
 40
0.0
  9
$SKPOLY
 70
     0
  9
$TDCREATE
 40
2458060.468368056230247
  9
$TDUPDATE
 40
2459857.4975347220897675
  9
$TDINDWG
 40
0.4418820602
  9
$TDUSRTIMER
 40
0.4418820602
  9
$USRTIMER
 70
     1
  9
$ANGBASE
 50
0.0
  9
$ANGDIR
 70
     0
  9
$PDMODE
 70
     0
  9
$PDSIZE
 40
0.3125
  9
$PLINEWID
 40
0.0
  9
$COORDS
 70
     1
  9
$SPLFRAME
 70
     0
  9
$SPLINETYPE
 70
     6
  9
$SPLINESEGS
 70
     8
  9
$ATTDIA
 70
     1
  9
$ATTREQ
 70
     1
  9
$HANDLING
 70
     1
  9
$HANDSEED
  5
1867F
  9
$SURFTAB1
 70
     6
  9
$SURFTAB2
 70
     6
  9
$SURFTYPE
 70
     6
  9
$SURFU
 70
     6
  9
$SURFV
 70
     6
  9
$UCSNAME
  2

  9
$UCSORG
 10
0.0
 20
0.0
 30
0.0
  9
$UCSXDIR
 10
1.0
 20
0.0
 30
0.0
  9
$UCSYDIR
 10
0.0
 20
1.0
 30
0.0
  9
$PUCSNAME
  2

  9
$PUCSORG
 10
0.0
 20
0.0
 30
0.0
  9
$PUCSXDIR
 10
1.0
 20
0.0
 30
0.0
  9
$PUCSYDIR
 10
0.0
 20
1.0
 30
0.0
  9
$USERI1
 70
     0
  9
$USERI2
 70
     0
  9
$USERI3
 70
     0
  9
$USERI4
 70
     0
  9
$USERI5
 70
     0
  9
$USERR1
 40
0.0
  9
$USERR2
 40
0.0
  9
$USERR3
 40
0.0
  9
$USERR4
 40
0.0
  9
$USERR5
 40
0.0
  9
$WORLDVIEW
 70
     1
  9
$SHADEDGE
 70
     3
  9
$SHADEDIF
 70
    70
  9
$TILEMODE
 70
     1
  9
$MAXACTVP
 70
    64
  9
$PLIMCHECK
 70
     0
  9
$PEXTMIN
 10
1.0000000000000000E+20
 20
1.0000000000000000E+20
 30
1.0000000000000000E+20
  9
$PEXTMAX
 10
-1.0000000000000000E+20
 20
-1.0000000000000000E+20
 30
-1.0000000000000000E+20
  9
$PLIMMIN
 10
0.0
 20
0.0
  9
$PLIMMAX
 10
12.0
 20
9.0
  9
$UNITMODE
 70
     0
  9
$VISRETAIN
 70
     1
  9
$PLINEGEN
 70
     0
  9
$PSLTSCALE
 70
     1
  0
ENDSEC
  0
SECTION
  2
TABLES
  0
TABLE
  2
VPORT
 70
     1
  0
VPORT
  2
*ACTIVE
 70
     0
 10
0.0
 20
0.0
 11
1.0
 21
1.0
 12
307.2813395498396858
 22
58.0284666786644721
 13
0.0
 23
0.0
 14
1.0
 24
1.0
 15
0.0
 25
0.0
 16
0.0
 26
0.0
 36
60.4960186965801583
 17
3911.3653564453120453
 27
132.5796051025390057
 37
0.0
 40
8.8066479775845892
 41
1.583333333333333
 42
50.0
 43
0.0
 44
0.0
 50
0.0
 51
0.0
 71
     0
 72
   100
 73
     1
 74
     1
 75
     0
 76
     0
 77
     0
 78
     0
  0
ENDTAB
  0
TABLE
  2
LTYPE
 70
     3
  0
LTYPE
  2
CONTINUOUS
 70
     0
  3
Solid line
 72
    65
 73
     0
 40
0.0
  0
LTYPE
  2
PHANTOM2
 70
     0
  3
___ _ _ ___ _ _ ___ _ _ ___ _ _
 72
    65
 73
     6
 40
1.25
 49
0.625
 49
-0.125
 49
0.125
 49
-0.125
 49
0.125
 49
-0.125
  0
ENDTAB
  0
TABLE
  2
LAYER
 70
     2
  0
LAYER
  2
0
 70
     0
 62
   255
  6
CONTINUOUS
  0
LAYER
  2
DEFPOINTS
 70
     0
 62
     7
  6
CONTINUOUS
  0
ENDTAB
  0
TABLE
  2
STYLE
 70
     1
  0
STYLE
  2
STANDARD
 70
     0
 40
0.0
 41
0.8
 50
0.0
 71
     0
 42
0.2
  3
txt
  4

  0
ENDTAB
  0
TABLE
  2
VIEW
 70
     0
  0
ENDTAB
  0
TABLE
  2
UCS
 70
     0
  0
ENDTAB
  0
TABLE
  2
APPID
 70
    11
  0
APPID
  2
ACAD
 70
     0
  0
APPID
  2
ACAD_MLEADERVER
 70
     0
  0
APPID
  2
ACAD_EXEMPT_FROM_CAD_STANDARDS
 70
     0
  0
APPID
  2
ACAD_NAV_VCDISPLAY
 70
     0
  0
APPID
  2
ACAECLAYERSTANDARD
 70
     0
  0
APPID
  2
ACCMTRANSPARENCY
 70
     0
  0
APPID
  2
ACAD_DSTYLE_DIMJAG
 70
     0
  0
APPID
  2
ACAD_DSTYLE_DIMTALN
 70
     0
  0
APPID
  2
ACDBATTR
 70
     0
  0
APPID
  2
ACADANNOTATIVE
 70
     0
  0
APPID
  2
DCO15
 70
     0
  0
ENDTAB
  0
TABLE
  2
DIMSTYLE
 70
     2
  0
DIMSTYLE
  2
STANDARD
 70
     0
  3

  4

  5

  6

  7

 40
1.0
 41
0.1875
 42
0.0625
 43
0.38
 44
0.125
 45
0.0
 46
0.0
 47
0.01
 48
0.01
140
0.15625
141
0.09
142
0.0
143
25.3999999999999986
144
1.0
145
0.0
146
1.0
147
0.09
 71
     1
 72
     0
 73
     1
 74
     1
 75
     0
 76
     0
 77
     0
 78
     4
170
     0
171
     2
172
     0
173
     0
174
     0
175
     0
176
     0
177
     0
178
     0
  0
ENDTAB
  0
ENDSEC
  0
SECTION
  2
BLOCKS
  0
BLOCK
  8
0
  2
$MODEL_SPACE
 70
     0
 10
0.0
 20
0.0
 30
0.0
  3
$MODEL_SPACE
  1

  0
ENDBLK
  5
21
  8
0
  0
BLOCK
 67
     1
  8
0
  2
$PAPER_SPACE
 70
     0
 10
0.0
 20
0.0
 30
0.0
  3
$PAPER_SPACE
  1

  0
ENDBLK
  5
1D
 67
     1
  8
0
  0
ENDSEC
  0
SECTION
  2
ENTITIES
  0
LINE
  5
18476
  8
0
 10
4214.3167743268995764
 20
194.4634335000442888
 30
0.0
 11
4214.3338118764004321
 21
194.9513250848443136
 31
0.0
  0
LINE
  5
18477
  8
0
 10
4214.5104851743999461
 20
194.2572827490442933
 30
0.0
 11
4214.5163402181278798
 21
194.4249492651898947
 31
0.0
  0
LINE
  5
18478
  8
0
 10
4215.4347217814010946
 20
194.2136356051443045
 30
0.0
 11
4215.4547914676013534
 21
194.2243068466443106
 31
0.0
  0
LINE
  5
18479
  8
0
 10
4214.8514920499010259
 20
194.3521846658443053
 30
0.0
 11
4214.8477667005008698
 21
194.2455046185442882
 31
0.0
  0
LINE
  5
1847A
  8
0
 10
4221.1219380892998743
 20
186.2340215804443062
 30
0.0
 11
4223.1298121050022019
 21
186.2340215804443062
 31
0.0
  0
LINE
  5
1847B
  8
0
 10
4215.1175099415004297
 20
194.2360849770442996
 30
0.0
 11
4215.1212352907996319
 21
194.3427650242443008
 31
0.0
  0
LINE
  5
1847C
  8
0
 10
4221.1416315415008285
 20
186.3915018954442928
 30
0.0
 11
4223.1101186528012477
 21
186.3915018954442928
 31
0.0
  0
LINE
  5
1847D
  8
0
 10
4215.4547914676013534
 20
194.2243068466443106
 30
0.0
 11
4215.4606465154938633
 21
194.3919734792148972
 31
0.0
  0
LINE
  5
18480
  8
0
 10
4214.5297615836998375
 20
194.2452375116442909
 30
0.0
 11
4214.5104851743999461
 21
194.2572827490442933
 31
0.0
  0
LINE
  5
18481
  8
0
 10
4221.1219380892998743
 20
186.2340215804443062
 30
0.0
 11
4221.1219380892998743
 21
186.3718168560442905
 31
0.0
  0
LINE
  5
18482
  8
0
 10
4221.4368987192010536
 20
194.1506651165443031
 30
0.0
 11
4221.4368987192010536
 21
186.4229979584443129
 31
0.0
  0
LINE
  5
18483
  8
0
 10
4214.5297615836998375
 20
194.2452375116442909
 30
0.0
 11
4215.4347217814010946
 21
194.2136356051443045
 31
0.0
  0
LINE
  5
18484
  8
0
 10
4214.5104851743999461
 20
194.2572827490442933
 30
0.0
 11
4214.8477667005008698
 21
194.2455046185442882
 31
0.0
  0
LINE
  5
18485
  8
0
 10
4215.1175099415004297
 20
194.2360849770442996
 30
0.0
 11
4215.4547914676013534
 21
194.2243068466443106
 31
0.0
  0
LINE
  5
18486
  8
0
 10
4222.8144960013996752
 20
194.1678147110442865
 30
0.0
 11
4222.8140265765996446
 21
194.6563146986443087
 31
0.0
  0
LINE
  5
18487
  8
0
 10
4222.8148514751010225
 20
194.104741222644293
 30
0.0
 11
4222.8148514751010225
 21
186.4229979584443129
 31
0.0
  0
LINE
  5
18489
  8
0
 10
4215.1212352907996319
 20
194.3427650242443008
 30
0.0
 11
4214.8514920499010259
 21
194.3521846658443053
 31
0.0
  0
LINE
  5
1848A
  8
0
 10
4214.347152006500437
 20
194.4308574268443124
 30
0.0
 11
4222.7818106390795947
 21
194.1363136981665036
 31
0.0
  0
LINE
  5
1848B
  8
0
 10
4223.1298121050022019
 20
186.2340215804443062
 30
0.0
 11
4223.1298121050022019
 21
186.3718168560442905
 31
0.0
  0
LINE
  5
1848D
  8
0
 10
4214.3663879496007212
 20
194.981702764544309
 30
0.0
 11
4222.7836198009008513
 21
194.6877665513443105
 31
0.0
  0
ARC
  5
18490
  8
0
 10
4214.3652887528996871
 20
194.9502258881443026
 30
0.0
 40
0.031496063
 50
87.9999999999963336
 51
177.9999999999992895
  0
ARC
  5
18491
  8
0
 10
4214.348251203300606
 20
194.4623343033443064
 30
0.0
 40
0.031496063
 50
177.9999999999992895
 51
267.9999999999964189
  0
ARC
  5
18494
  8
0
 10
4221.4683947822004484
 20
186.4229979584443129
 30
0.0
 40
0.031496063
 50
180.0
 51
270.0
  0
ARC
  5
18495
  8
0
 10
4222.7833554120998087
 20
186.4229979584443129
 30
0.0
 40
0.031496063
 50
270.0
 51
0.0
  0
ARC
  5
18496
  8
0
 10
4223.110127062634092
 20
186.3718168547740106
 30
0.0
 40
0.0196850424666835
 50
0.0000036972534479
 51
90.0244778730472603
  0
ARC
  5
18497
  8
0
 10
4221.1416231317662096
 20
186.3718168547740959
 30
0.0
 40
0.0196850424666095
 50
89.9755224178319537
 51
179.999996302837701
  0
CIRCLE
  5
1849A
  8
0
 10
4222.1258750972010603
 20
193.0844152812443042
 30
0.0
 40
0.6692913386
  0
CIRCLE
  5
1849B
  8
0
 10
4222.1258750972010603
 20
193.0844152812443042
 30
0.0
 40
0.5810888271
  0
CIRCLE
  5
1849C
  8
0
 10
4222.1258750972010603
 20
193.0844152812443042
 30
0.0
 40
0.5525437000000001
  0
CIRCLE
  5
1849D
  8
0
 10
4222.1258750972010603
 20
193.0844152812443042
 30
0.0
 40
0.4332331051
  0
CIRCLE
  5
1849E
  8
0
 10
4222.1258750972010603
 20
193.0844152812443042
 30
0.0
 40
0.3195317864
  0
ARC
  5
1849F
  8
0
 10
4221.4683750092281116
 20
194.1507125554340973
 30
0.0
 40
0.0314763257754888
 50
90.4311472502833453
 51
180.0863521751915073
  0
ARC
  5
184A0
  8
0
 10
4222.7832627440120632
 20
194.1047448001868077
 30
0.0
 40
0.0315887312903187
 50
359.9935110377330716
 51
88.4466091539501065
  0
ARC
  5
184A1
  8
0
 10
4222.7828521877891035
 20
194.1679406165804096
 30
0.0
 40
0.0316440640890633
 50
268.1137970935757835
 51
359.772030708543582
  0
ARC
  5
184A2
  8
0
 10
4222.7825144395637835
 20
194.6562737802485969
 30
0.0
 40
0.0315121636034296
 50
0.0743983200805822
 51
87.9898068879050044
  0
ARC
  5
184A4
  8
0
 10
4214.9705627170251319
 20
193.8949947469264998
 30
0.0
 40
0.4724409441796153
 50
71.4021578284589111
 51
104.5978421476844034
  0
ARC
  5
184A5
  8
0
 10
4215.0104030130241881
 20
195.0358715543287929
 30
0.0
 40
0.8069265538649354
 50
258.3723672835163256
 51
277.6276327338258056
  0
ATTDEF
  5
184A7
  8
DEFPOINTS
 10
4222.1262354497866909
 20
186.2328304751152075
 30
0.0
 40
0.001
  1
K-73159W-ND
  3

  2
MODELNUMBER
 70
     0
1001
ACDBATTR
1070
     0
1070
     1
  0
ATTDEF
  5
184A8
  8
DEFPOINTS
 10
4222.1261096401312898
 20
186.2311636347359922
 30
0.0
 40
0.001
  1
TALL
  3

  2
TRADENAME
 70
     0
1001
ACDBATTR
1070
     0
1070
     1
  0
ATTDEF
  5
184A9
  8
DEFPOINTS
 10
4222.1262354497866909
 20
186.2294971417817919
 30
0.0
 40
0.001
  1
BATHROOM SINK FAUCET
  3

  2
PRODUCT
 70
     0
1001
ACDBATTR
1070
     0
1070
     1
  0
ENDSEC
  0
EOF
