  0
SECTION
  2
HEADER
  9
$ACADVER
  1
AC1009
  9
$INSBASE
 10
4210.3910769707763393
 20
184.6946227422372999
 30
0.0
  9
$EXTMIN
 10
4209.3871399628760628
 20
184.6902201598485931
 30
0.0
  9
$EXTMAX
 10
4213.2599746085770676
 20
193.4423263164242996
 30
0.0
  9
$LIMMIN
 10
0.0
 20
0.0
  9
$LIMMAX
 10
11.6929133858000007
 20
8.2677165353999982
  9
$ORTHOMODE
 70
     0
  9
$REGENMODE
 70
     1
  9
$FILLMODE
 70
     1
  9
$QTEXTMODE
 70
     0
  9
$MIRRTEXT
 70
     0
  9
$DRAGMODE
 70
     2
  9
$LTSCALE
 40
0.6431102362
  9
$OSMODE
 70
  4095
  9
$ATTMODE
 70
     1
  9
$TEXTSIZE
 40
0.2
  9
$TRACEWID
 40
0.05
  9
$TEXTSTYLE
  7
STANDARD
  9
$CLAYER
  8
0
  9
$CELTYPE
  6
BYLAYER
  9
$CECOLOR
 62
   256
  9
$DIMSCALE
 40
1.0
  9
$DIMASZ
 40
0.1875
  9
$DIMEXO
 40
0.0625
  9
$DIMDLI
 40
0.4443307087
  9
$DIMRND
 40
0.0
  9
$DIMDLE
 40
0.0
  9
$DIMEXE
 40
0.125
  9
$DIMTP
 40
0.01
  9
$DIMTM
 40
0.01
  9
$DIMTXT
 40
2.0
  9
$DIMCEN
 40
0.1052362205
  9
$DIMTSZ
 40
0.0
  9
$DIMTOL
 70
     1
  9
$DIMLIM
 70
     0
  9
$DIMTIH
 70
     1
  9
$DIMTOH
 70
     1
  9
$DIMSE1
 70
     0
  9
$DIMSE2
 70
     0
  9
$DIMTAD
 70
     0
  9
$DIMZIN
 70
     0
  9
$DIMBLK
  1

  9
$DIMASO
 70
     1
  9
$DIMSHO
 70
     1
  9
$DIMPOST
  1
\X
  9
$DIMAPOST
  1

  9
$DIMALT
 70
     1
  9
$DIMALTD
 70
     2
  9
$DIMALTF
 40
25.3999999999999986
  9
$DIMLFAC
 40
1.0
  9
$DIMTOFL
 70
     0
  9
$DIMTVP
 40
0.0
  9
$DIMTIX
 70
     0
  9
$DIMSOXD
 70
     0
  9
$DIMSAH
 70
     0
  9
$DIMBLK1
  1

  9
$DIMBLK2
  1

  9
$DIMSTYLE
  2
STANDARD
  9
$DIMCLRD
 70
     0
  9
$DIMCLRE
 70
     0
  9
$DIMCLRT
 70
     0
  9
$DIMTFAC
 40
1.0
  9
$DIMGAP
 40
0.09
  9
$LUNITS
 70
     2
  9
$LUPREC
 70
     4
  9
$SKETCHINC
 40
0.1
  9
$FILLETRAD
 40
0.0
  9
$AUNITS
 70
     0
  9
$AUPREC
 70
     0
  9
$MENU
  1
.
  9
$ELEVATION
 40
0.0
  9
$PELEVATION
 40
0.0
  9
$THICKNESS
 40
0.0
  9
$LIMCHECK
 70
     0
  9
$BLIPMODE
 70
     0
  9
$CHAMFERA
 40
0.0
  9
$CHAMFERB
 40
0.0
  9
$SKPOLY
 70
     0
  9
$TDCREATE
 40
2458060.468368056230247
  9
$TDUPDATE
 40
2459857.4976504631340504
  9
$TDINDWG
 40
0.4413728009
  9
$TDUSRTIMER
 40
0.4413728009
  9
$USRTIMER
 70
     1
  9
$ANGBASE
 50
0.0
  9
$ANGDIR
 70
     0
  9
$PDMODE
 70
     0
  9
$PDSIZE
 40
0.3125
  9
$PLINEWID
 40
0.0
  9
$COORDS
 70
     1
  9
$SPLFRAME
 70
     0
  9
$SPLINETYPE
 70
     6
  9
$SPLINESEGS
 70
     8
  9
$ATTDIA
 70
     1
  9
$ATTREQ
 70
     1
  9
$HANDLING
 70
     1
  9
$HANDSEED
  5
18582
  9
$SURFTAB1
 70
     6
  9
$SURFTAB2
 70
     6
  9
$SURFTYPE
 70
     6
  9
$SURFU
 70
     6
  9
$SURFV
 70
     6
  9
$UCSNAME
  2

  9
$UCSORG
 10
0.0
 20
0.0
 30
0.0
  9
$UCSXDIR
 10
1.0
 20
0.0
 30
0.0
  9
$UCSYDIR
 10
0.0
 20
1.0
 30
0.0
  9
$PUCSNAME
  2

  9
$PUCSORG
 10
0.0
 20
0.0
 30
0.0
  9
$PUCSXDIR
 10
1.0
 20
0.0
 30
0.0
  9
$PUCSYDIR
 10
0.0
 20
1.0
 30
0.0
  9
$USERI1
 70
     0
  9
$USERI2
 70
     0
  9
$USERI3
 70
     0
  9
$USERI4
 70
     0
  9
$USERI5
 70
     0
  9
$USERR1
 40
0.0
  9
$USERR2
 40
0.0
  9
$USERR3
 40
0.0
  9
$USERR4
 40
0.0
  9
$USERR5
 40
0.0
  9
$WORLDVIEW
 70
     1
  9
$SHADEDGE
 70
     3
  9
$SHADEDIF
 70
    70
  9
$TILEMODE
 70
     1
  9
$MAXACTVP
 70
    64
  9
$PLIMCHECK
 70
     0
  9
$PEXTMIN
 10
1.0000000000000000E+20
 20
1.0000000000000000E+20
 30
1.0000000000000000E+20
  9
$PEXTMAX
 10
-1.0000000000000000E+20
 20
-1.0000000000000000E+20
 30
-1.0000000000000000E+20
  9
$PLIMMIN
 10
0.0
 20
0.0
  9
$PLIMMAX
 10
12.0
 20
9.0
  9
$UNITMODE
 70
     0
  9
$VISRETAIN
 70
     1
  9
$PLINEGEN
 70
     0
  9
$PSLTSCALE
 70
     1
  0
ENDSEC
  0
SECTION
  2
TABLES
  0
TABLE
  2
VPORT
 70
     1
  0
VPORT
  2
*ACTIVE
 70
     0
 10
0.0
 20
0.0
 11
1.0
 21
1.0
 12
299.958200840414122
 22
56.4866681355974194
 13
0.0
 23
0.0
 14
1.0
 24
1.0
 15
0.0
 25
0.0
 16
0.0
 26
0.0
 36
60.4960186965801583
 17
3911.3653564453120453
 27
132.5796051025390057
 37
0.0
 40
8.7971106680719497
 41
1.583333333333333
 42
50.0
 43
0.0
 44
0.0
 50
0.0
 51
0.0
 71
     0
 72
   100
 73
     1
 74
     1
 75
     0
 76
     0
 77
     0
 78
     0
  0
ENDTAB
  0
TABLE
  2
LTYPE
 70
     2
  0
LTYPE
  2
CONTINUOUS
 70
     0
  3
Solid line
 72
    65
 73
     0
 40
0.0
  0
LTYPE
  2
PHANTOM2
 70
     0
  3
___ _ _ ___ _ _ ___ _ _ ___ _ _
 72
    65
 73
     6
 40
1.25
 49
0.625
 49
-0.125
 49
0.125
 49
-0.125
 49
0.125
 49
-0.125
  0
ENDTAB
  0
TABLE
  2
LAYER
 70
     2
  0
LAYER
  2
0
 70
     0
 62
   255
  6
CONTINUOUS
  0
LAYER
  2
DEFPOINTS
 70
     0
 62
     7
  6
CONTINUOUS
  0
ENDTAB
  0
TABLE
  2
STYLE
 70
     1
  0
STYLE
  2
STANDARD
 70
     0
 40
0.0
 41
0.8
 50
0.0
 71
     0
 42
0.2
  3
txt
  4

  0
ENDTAB
  0
TABLE
  2
VIEW
 70
     0
  0
ENDTAB
  0
TABLE
  2
UCS
 70
     0
  0
ENDTAB
  0
TABLE
  2
APPID
 70
    11
  0
APPID
  2
ACAD
 70
     0
  0
APPID
  2
ACAD_MLEADERVER
 70
     0
  0
APPID
  2
ACAD_EXEMPT_FROM_CAD_STANDARDS
 70
     0
  0
APPID
  2
ACAD_NAV_VCDISPLAY
 70
     0
  0
APPID
  2
ACAECLAYERSTANDARD
 70
     0
  0
APPID
  2
ACCMTRANSPARENCY
 70
     0
  0
APPID
  2
ACAD_DSTYLE_DIMJAG
 70
     0
  0
APPID
  2
ACAD_DSTYLE_DIMTALN
 70
     0
  0
APPID
  2
ACDBATTR
 70
     0
  0
APPID
  2
ACADANNOTATIVE
 70
     0
  0
APPID
  2
DCO15
 70
     0
  0
ENDTAB
  0
TABLE
  2
DIMSTYLE
 70
     1
  0
DIMSTYLE
  2
STANDARD
 70
     0
  3

  4

  5

  6

  7

 40
1.0
 41
0.1875
 42
0.0625
 43
0.38
 44
0.125
 45
0.0
 46
0.0
 47
0.01
 48
0.01
140
0.15625
141
0.09
142
0.0
143
25.3999999999999986
144
1.0
145
0.0
146
1.0
147
0.09
 71
     1
 72
     0
 73
     1
 74
     1
 75
     0
 76
     0
 77
     0
 78
     4
170
     0
171
     2
172
     0
173
     0
174
     0
175
     0
176
     0
177
     0
178
     0
  0
ENDTAB
  0
ENDSEC
  0
SECTION
  2
BLOCKS
  0
BLOCK
  8
0
  2
$MODEL_SPACE
 70
     0
 10
0.0
 20
0.0
 30
0.0
  3
$MODEL_SPACE
  1

  0
ENDBLK
  5
21
  8
0
  0
BLOCK
 67
     1
  8
0
  2
$PAPER_SPACE
 70
     0
 10
0.0
 20
0.0
 30
0.0
  3
$PAPER_SPACE
  1

  0
ENDBLK
  5
1D
 67
     1
  8
0
  0
ENDSEC
  0
SECTION
  2
ENTITIES
  0
LINE
  5
17F98
  8
0
 10
4209.3871399628769723
 20
184.6946227422372999
 30
0.0
 11
4211.3950139786757063
 21
184.6946227422372999
 31
0.0
  0
LINE
  5
17F99
  8
0
 10
4211.3753289392770967
 20
184.8521030572372865
 30
0.0
 11
4209.4068250022755819
 21
184.8521030572372865
 31
0.0
  0
LINE
  5
17F9A
  8
0
 10
4210.8438328762758829
 20
192.6900377201372976
 30
0.0
 11
4210.8429778135769084
 21
192.689082061937313
 31
0.0
  0
LINE
  5
17F9B
  8
0
 10
4209.3871399628769723
 20
184.6946227422372999
 30
0.0
 11
4209.3871399628769723
 21
184.8324180178373126
 31
0.0
  0
LINE
  5
17F9C
  8
0
 10
4209.7021005927772421
 20
184.8835991202373066
 30
0.0
 11
4209.7021005927772421
 21
192.5883045846373136
 31
0.0
  0
LINE
  5
17F9D
  8
0
 10
4209.7021006044760725
 20
192.6513086513373025
 30
0.0
 11
4209.7021005927772421
 21
193.4067050621372914
 31
0.0
  0
LINE
  5
17F9E
  8
0
 10
4209.7335966557757274
 20
192.8873366008373011
 30
0.0
 11
4209.7335966557757274
 21
192.6223582042372868
 31
0.0
  0
LINE
  5
17F9F
  8
0
 10
4209.9186360258763671
 20
192.8711450945461934
 30
0.0
 11
4209.9186360258763671
 21
192.8277490546373087
 31
0.0
  0
LINE
  5
17FA0
  8
0
 10
4209.9383210652758862
 20
192.6900377201372976
 30
0.0
 11
4209.9383210652758862
 21
192.812785827637299
 31
0.0
  0
LINE
  5
17FA1
  8
0
 10
4210.8438328762758829
 20
192.6900377201372976
 30
0.0
 11
4210.8438328762758829
 21
192.812785827637299
 31
0.0
  0
LINE
  5
17FA2
  8
0
 10
4210.863517915677221
 20
192.871158784964905
 30
0.0
 11
4210.863517915677221
 21
192.8277788151960124
 31
0.0
  0
LINE
  5
17FA3
  8
0
 10
4211.0485572857769512
 20
192.6223316789372859
 30
0.0
 11
4211.0485572857769512
 21
192.8873366008373011
 31
0.0
  0
LINE
  5
17FA4
  8
0
 10
4211.080053348677211
 20
193.4067050621372914
 30
0.0
 11
4211.080053348677211
 21
192.6513357268372886
 31
0.0
  0
LINE
  5
17FA5
  8
0
 10
4211.080053348677211
 20
184.8835991202373066
 30
0.0
 11
4211.080053348677211
 21
190.67703219533729
 31
0.0
  0
LINE
  5
17FA6
  8
0
 10
4211.0800632081763979
 20
192.3977722863373003
 30
0.0
 11
4211.080053348677211
 21
192.5883045846373136
 31
0.0
  0
LINE
  5
17FA7
  8
0
 10
4211.3950139786757063
 20
184.6946227422372999
 30
0.0
 11
4211.3950139786757063
 21
184.8324180178373126
 31
0.0
  0
LINE
  5
17FA8
  8
0
 10
4211.7226097775755989
 20
190.8934632523373125
 30
0.0
 11
4211.7224426578768544
 21
190.8982489328373049
 31
0.0
  0
LINE
  5
17FA9
  8
0
 10
4211.6902895691755475
 20
192.2044546502372953
 30
0.0
 11
4211.6902895691755475
 21
190.8903980641372868
 31
0.0
  0
LINE
  5
17FAA
  8
0
 10
4211.8426517738771508
 20
192.2064337659373052
 30
0.0
 11
4211.8426517738771508
 21
190.8836163825372978
 31
0.0
  0
LINE
  5
17FAB
  8
0
 10
4209.9391760929756856
 20
192.689082061837297
 30
0.0
 11
4209.9383210652758862
 21
192.6900377201372976
 31
0.0
  0
LINE
  5
17FAC
  8
0
 10
4213.2599746085770676
 20
190.9072211674373136
 30
0.0
 11
4213.2599746085770676
 21
192.1828117186373106
 31
0.0
  0
LINE
  5
17FAD
  8
0
 10
4213.2284785455758538
 20
190.8757251044372936
 30
0.0
 11
4212.3694148208287515
 21
190.8757251044372936
 31
0.0
  0
LINE
  5
17FAE
  8
0
 10
4212.1032903027462453
 20
190.8757251044372936
 30
0.0
 11
4211.8505257896767944
 21
190.8757251044372936
 31
0.0
  0
LINE
  5
17FAF
  8
0
 10
4211.6706045297769379
 20
190.8757251044372936
 30
0.0
 11
4211.2125832583569718
 21
190.8757251044372936
 31
0.0
  0
LINE
  5
17FB0
  8
0
 10
4211.7025922315770003
 20
190.8903980641372868
 30
0.0
 11
4211.6902895691755475
 21
190.8903980641372868
 31
0.0
  0
LINE
  5
17FB1
  8
0
 10
4211.6902895691755475
 20
192.2044652619372869
 30
0.0
 11
4211.7025922315770003
 21
192.2044652619372869
 31
0.0
  0
LINE
  5
17FB2
  8
0
 10
4213.2284785455758538
 20
192.2143077816373022
 30
0.0
 11
4211.8505257896767944
 21
192.2143077816373022
 31
0.0
  0
LINE
  5
17FB3
  8
0
 10
4211.6706045297769379
 20
192.2143077816373022
 30
0.0
 11
4211.2965887817772455
 21
192.2143077816373022
 31
0.0
  0
LINE
  5
17FB4
  8
0
 10
4210.9304470494762427
 20
192.8914585886373061
 30
0.0
 11
4209.8517068920764359
 21
192.8914585886373061
 31
0.0
  0
LINE
  5
17FB5
  8
0
 10
4209.8517068920764359
 20
193.442323112937288
 30
0.0
 11
4210.9304470494762427
 21
193.442323112937288
 31
0.0
  0
ARC
  5
17FB6
  8
0
 10
4210.395829554940974
 20
175.2860771758060139
 30
0.0
 40
17.3566852689278193
 50
89.1174471772802548
 51
90.0156885623348586
  0
ARC
  5
17FB7
  8
0
 10
4210.4948884318773707
 20
181.5718089311372978
 30
0.0
 40
11.0701736311999994
 50
88.2737868384845541
 51
89.1289837018842661
  0
ARC
  5
17FB8
  8
0
 10
4211.0485572857769512
 20
184.8835991202373066
 30
0.0
 40
0.031496063
 50
270.0
 51
0.0
  0
ARC
  5
17FB9
  8
0
 10
4209.7335966557757274
 20
184.8835991202373066
 30
0.0
 40
0.031496063
 50
180.0
 51
270.0
  0
ARC
  5
17FBA
  8
0
 10
4209.4068250022755819
 20
184.8324180178373126
 30
0.0
 40
0.0196850394
 50
90.0
 51
180.0
  0
ARC
  5
17FBB
  8
0
 10
4210.3910960769771918
 20
202.2835182085374015
 30
0.0
 40
9.6051714232999998
 50
269.905510562820723
 51
270.0674704491144098
  0
ARC
  5
17FBC
  8
0
 10
4210.3907057553769846
 20
202.1280883073372934
 30
0.0
 40
9.4497410223999996
 50
269.6881524834241191
 51
269.8583678161895136
  0
ARC
  5
17FBD
  8
0
 10
4210.3916696180758663
 20
202.0655195692372956
 30
0.0
 40
9.3871719707000008
 50
270.1410000037217856
 51
270.3339257301826137
  0
ARC
  5
17FBE
  8
0
 10
4210.3879014286767415
 20
201.644071352137388
 30
0.0
 40
8.9657157923999993
 50
269.4899752588771094
 51
269.6167173895976248
  0
ARC
  5
17FBF
  8
0
 10
4210.3948439096766378
 20
201.5691355019372963
 30
0.0
 40
8.8907776578999993
 50
270.3825025032230087
 51
270.5099038815077961
  0
ARC
  5
17FC0
  8
0
 10
4210.3813372542772413
 20
200.9547959616373021
 30
0.0
 40
8.2764089270000003
 50
269.2754969158810923
 51
269.4116733365249274
  0
ARC
  5
17FC1
  8
0
 10
4210.4016337345756256
 20
200.8838021563373957
 30
0.0
 40
8.2054104657999982
 50
270.5882440849221098
 51
270.725017141586477
  0
ARC
  5
17FC2
  8
0
 10
4210.3690794446019936
 20
200.0310333822060045
 30
0.0
 40
7.3525647600207016
 50
268.9740224438712062
 51
269.2177024355042931
  0
ARC
  5
17FC3
  8
0
 10
4210.4156488783773966
 20
199.8672105891373008
 30
0.0
 40
7.1887221300000004
 50
270.7772956583814903
 51
271.0305092382167231
  0
ARC
  5
17FC4
  8
0
 10
4210.3534282409773368
 20
199.1345180393373084
 30
0.0
 40
6.4559129132999997
 50
268.7929496716782864
 51
268.9704363793226776
  0
ARC
  5
17FC5
  8
0
 10
4210.4312116523769873
 20
199.0075574610372939
 30
0.0
 40
6.3289281492999994
 50
271.0296079294806191
 51
271.2078645055236734
  0
ARC
  5
17FC6
  8
0
 10
4210.3305669017763648
 20
198.0742802352372962
 30
0.0
 40
5.3954282263999991
 50
268.50585153407701
 51
268.7159471263055934
  0
ARC
  5
17FC7
  8
0
 10
4210.4546268532758404
 20
197.9491480902372871
 30
0.0
 40
5.2702593805999989
 50
271.2825160189054259
 51
271.4938950515228839
  0
ARC
  5
17FC8
  8
0
 10
4210.3136620750756265
 20
197.4154505581373087
 30
0.0
 40
4.7363817732999989
 50
268.3606703739222894
 51
268.5024666971107195
  0
ARC
  5
17FC9
  8
0
 10
4210.470684358077051
 20
197.3351629623373071
 30
0.0
 40
4.6560643152000001
 50
271.4933389765806169
 51
271.6414100071908138
  0
ARC
  5
17FCA
  8
0
 10
4210.2952357879767078
 20
196.7727366688372967
 30
0.0
 40
4.0934038029000002
 50
268.0843263317814262
 51
268.3611199277970059
  0
ARC
  5
17FCB
  8
0
 10
4210.4876535888761282
 20
196.7513699937373133
 30
0.0
 40
4.0720248310000002
 50
271.6380323736195805
 51
271.8507802711989143
  0
ARC
  5
17FCC
  8
0
 10
4210.2673389540768767
 20
195.9322648853373039
 30
0.0
 40
3.2524692071999999
 50
267.7341403809890039
 51
268.0805469953854754
  0
ARC
  5
17FCD
  8
0
 10
4210.5261191151303137
 20
195.6138164180015906
 30
0.0
 40
2.933820904274218
 50
271.9044625510471178
 51
272.2865977996852962
  0
ARC
  5
17FCE
  8
0
 10
4211.0485676009757299
 20
192.9188245490373106
 30
0.0
 40
0.0314868292
 50
269.9812303587946758
 51
359.9798530656008211
  0
ARC
  5
17FCF
  8
0
 10
4209.7335863405760392
 20
192.9188245490373106
 30
0.0
 40
0.0314868292
 50
180.0201469538004915
 51
270.0187917384880052
  0
ARC
  5
17FD0
  8
0
 10
4209.7335809941660045
 20
192.6513426338437114
 30
0.0
 40
0.0314804080310244
 50
180.0618497246886136
 51
257.9050320636043239
  0
ARC
  5
17FD1
  8
0
 10
4211.0485732168326649
 20
192.6513424394424021
 30
0.0
 40
0.031480132560045
 50
282.0944759870417897
 51
359.9877826453663943
  0
ARC
  5
17FD2
  8
0
 10
4211.3753289392770967
 20
184.8324180178373126
 30
0.0
 40
0.0196850394
 50
0.0
 51
90.0
  0
ARC
  5
17FD3
  8
0
 10
4211.453933489407973
 20
191.5452787154567886
 30
0.0
 40
0.7050179755050657
 50
292.4013029548544864
 51
303.4603232192033033
  0
ARC
  5
17FD4
  8
0
 10
4211.4540905991771069
 20
191.5450660029372898
 30
0.0
 40
0.7046704578
 50
56.5363145645089205
 51
69.3505480778162422
  0
ARC
  5
17FD5
  8
0
 10
4211.4540968124756546
 20
191.5477237631372986
 30
0.0
 40
0.7027282889000001
 50
290.7085983126066822
 51
292.4491213083804837
  0
ARC
  5
17FD6
  8
0
 10
4213.2284785455758538
 20
190.9072211674373136
 30
0.0
 40
0.031496063
 50
270.0
 51
0.0
  0
ARC
  5
17FD7
  8
0
 10
4213.2284785455758538
 20
192.1828117186373106
 30
0.0
 40
0.031496063
 50
0.0
 51
90.0
  0
ARC
  5
17FD8
  8
0
 10
4211.6704957432266383
 20
190.8957531479636032
 30
0.0
 40
0.0200283389726462
 50
270.3112110705041005
 51
351.223460254023621
  0
ARC
  5
17FD9
  8
0
 10
4211.6706045297769379
 20
192.1946227422372999
 30
0.0
 40
0.0196850394
 50
0.0
 51
90.0
  0
ARC
  5
17FDA
  8
0
 10
4211.8505257896767944
 20
192.2064337659373052
 30
0.0
 40
0.0078740157
 50
90.0
 51
180.0
  0
ARC
  5
17FDB
  8
0
 10
4211.8505257896767944
 20
190.8835991202373066
 30
0.0
 40
0.0078740157
 50
180.0
 51
270.0
  0
LINE
  5
17FDC
  8
0
 10
4210.6236188488774133
 20
192.6816160667372912
 30
0.0
 11
4210.6191661143757301
 21
192.6814694200373026
 31
0.0
  0
LINE
  5
17FDD
  8
0
 10
4210.5725871586755602
 20
192.6802089839372911
 30
0.0
 11
4210.5646232495773802
 21
192.6800356029372949
 31
0.0
  0
LINE
  5
17FDE
  8
0
 10
4210.5131707403770633
 20
192.6791499779372998
 30
0.0
 11
4210.5054617046771455
 21
192.6790486156372992
 31
0.0
  0
LINE
  5
17FDF
  8
0
 10
4210.4858755306768217
 20
192.6788241410372962
 30
0.0
 11
4210.4739663551772537
 21
192.6787099216373065
 31
0.0
  0
LINE
  5
17FE0
  8
0
 10
4210.4541976609771154
 20
192.6785559655372992
 30
0.0
 11
4210.4463787176764527
 21
192.6785070240372875
 31
0.0
  0
LINE
  5
17FE1
  8
0
 10
4210.4147706205758368
 20
192.6783760232372913
 30
0.0
 11
4210.406851748975896
 21
192.6783597200372924
 31
0.0
  0
LINE
  5
17FE2
  8
0
 10
4210.406851748975896
 20
192.6783597200372924
 30
0.0
 11
4210.4024069463766864
 21
192.6783534449373008
 31
0.0
  0
LINE
  5
17FE3
  8
0
 10
4210.3752556985764386
 20
192.67835984683731
 30
0.0
 11
4210.3673465113770362
 21
192.6783761562373058
 31
0.0
  0
LINE
  5
17FE4
  8
0
 10
4210.3392732808770234
 20
192.6784872526372965
 30
0.0
 11
4210.33589792717612
 21
192.6785062855373099
 31
0.0
  0
LINE
  5
17FE5
  8
0
 10
4210.33589792717612
 20
192.6785062855373099
 30
0.0
 11
4210.3279253300761411
 21
192.6785561668372964
 31
0.0
  0
LINE
  5
17FE6
  8
0
 10
4210.3080931683771269
 20
192.6787107731373112
 30
0.0
 11
4210.2963546163764477
 21
192.6788233494372946
 31
0.0
  0
LINE
  5
17FE7
  8
0
 10
4210.2766851481756021
 20
192.6790487045373084
 30
0.0
 11
4210.2686930838772241
 21
192.6791539538373002
 31
0.0
  0
LINE
  5
17FE8
  8
0
 10
4210.2174315677757477
 20
192.6800377002373068
 30
0.0
 11
4210.2096603487771063
 21
192.6802068809373054
 31
0.0
  0
LINE
  5
17FE9
  8
0
 10
4209.9230795702769683
 20
192.8721671838372913
 30
0.0
 11
4209.9177549931773683
 21
192.8709424423373946
 31
0.0
  0
LINE
  5
17FEA
  8
0
 10
4209.9153765143755663
 20
192.8681762208373129
 30
0.0
 11
4209.9169325726770694
 21
192.8674545325372947
 31
0.0
  0
LINE
  5
17FEB
  8
0
 10
4209.9169325726770694
 20
192.8674545325372947
 30
0.0
 11
4209.9186360258763671
 21
192.8668905481667935
 31
0.0
  0
LINE
  5
17FEC
  8
0
 10
4210.863517915677221
 20
192.8668888647740118
 30
0.0
 11
4210.8652527653757716
 21
192.8674658539372899
 31
0.0
  0
ARC
  5
17FED
  8
0
 10
4212.2363525617865889
 20
190.2263814197694103
 30
0.0
 40
0.6628369223265111
 50
78.4193783979080621
 51
101.5806216020918953
  0
ARC
  5
17FEE
  8
0
 10
4211.241318512572434
 20
190.4562365595695042
 30
0.0
 40
0.4204715853777463
 50
93.9186787421351141
 51
102.2890477310119053
  0
ARC
  5
17FEF
  8
0
 10
4211.1670197234452644
 20
190.7890448360404889
 30
0.0
 40
0.0794946523190163
 50
101.0202724974706001
 51
157.1344063120473891
  0
ARC
  5
17FF0
  8
0
 10
4211.5219583173484352
 20
190.7067190372750076
 30
0.0
 40
0.4429010159402409
 50
165.1895756011469132
 51
183.8433124344601026
  0
ARC
  5
17FF1
  8
0
 10
4211.2759115992039369
 20
193.6941875680213911
 30
0.0
 40
1.4800242322432631
 50
266.9175079520484246
 51
270.8004962424790278
  0
ARC
  5
17FF2
  8
0
 10
4211.2051574984634499
 20
192.4210945725475028
 30
0.0
 40
0.2049802337716046
 50
250.6448402080108053
 51
267.5304554366388743
  0
ARC
  5
17FF3
  8
0
 10
4211.1818469933095912
 20
192.3139766016963961
 30
0.0
 40
0.097134558371621
 50
189.6823774568659928
 51
242.6509298273116997
  0
ARC
  5
17FF4
  8
0
 10
4211.6610045507677569
 20
192.3825255483619969
 30
0.0
 40
0.5811413825832868
 50
178.4966240386337972
 51
188.3990776873577033
  0
ARC
  5
17FF5
  8
0
 10
4210.7190230467549554
 20
188.6311954766190979
 30
0.0
 40
4.0072551822219804
 50
85.9959397799552931
 51
88.4364862208378355
  0
ARC
  5
17FF6
  8
0
 10
4210.9706388120166594
 20
192.2092544235156026
 30
0.0
 40
0.4203618768392358
 50
79.3178508766529973
 51
86.1534882827642008
  0
ARC
  5
17FF7
  8
0
 10
4211.0398710422996373
 20
192.5766658186599045
 30
0.0
 40
0.0464846385445942
 50
54.512100401465041
 51
79.2302507146458197
  0
ARC
  5
17FF8
  8
0
 10
4211.0474218674717122
 20
192.5883028619032018
 30
0.0
 40
0.032631481250573
 50
0.0030248517315041
 51
53.4453732279627687
  0
ARC
  5
17FF9
  8
0
 10
4210.3865609470531126
 20
175.2197982119976132
 30
0.0
 40
17.4229641673532782
 50
89.9851488714037941
 51
90.8799734639439549
  0
ARC
  5
17FFA
  8
0
 10
4210.2891754716911237
 20
181.4998609895197887
 30
0.0
 40
11.1421464594405997
 50
90.8752125039569449
 51
91.7248852669745389
  0
ARC
  5
17FFB
  8
0
 10
4210.0631308947977232
 20
188.6311954766190979
 30
0.0
 40
4.0072551822220026
 50
91.5635137791621929
 51
94.0040614274672635
  0
ARC
  5
17FFC
  8
0
 10
4209.8115151208012321
 20
192.2092544766472884
 30
0.0
 40
0.420361823009021
 50
93.8465225251125759
 51
100.6821492956382968
  0
ARC
  5
17FFD
  8
0
 10
4209.7422828992539507
 20
192.5766658186599045
 30
0.0
 40
0.0464846385445942
 50
100.7697492853541945
 51
125.4878995985348951
  0
ARC
  5
17FFE
  8
0
 10
4209.7347320740809664
 20
192.5883028619032018
 30
0.0
 40
0.032631481250573
 50
126.5546267720371958
 51
179.9969751482684899
  0
ARC
  5
17FFF
  8
0
 10
4210.9397859127629999
 20
190.6768302608327019
 30
0.0
 40
2.2146480182372819
 50
87.9301803889924827
 51
90.2416090652827592
  0
ARC
  5
18000
  8
0
 10
4211.0006138275330159
 20
192.3707684733979022
 30
0.0
 40
0.519618211008247
 50
85.8752390259482468
 51
87.8869273417896721
  0
ARC
  5
18001
  8
0
 10
4211.0297628834232455
 20
192.7716254483235048
 30
0.0
 40
0.1177031373580328
 50
82.4379748696901231
 51
85.9923179760339167
  0
ARC
  5
18002
  8
0
 10
4211.0428729377381387
 20
192.8692639329493943
 30
0.0
 40
0.0191891033846801
 50
76.0679531592513314
 51
82.8765115434058544
  0
ARC
  5
18003
  8
0
 10
4211.0463992683608012
 20
192.8833531097575076
 30
0.0
 40
0.0046654630850328
 50
67.6318741801983663
 51
76.4404142963649917
  0
ARC
  5
18004
  8
0
 10
4211.0478058086137025
 20
192.8866970334813971
 30
0.0
 40
0.0010382578643006
 50
50.8893788450538409
 51
69.185983734812865
  0
ARC
  5
18005
  8
0
 10
4211.048274590391884
 20
192.8872687750973114
 30
0.0
 40
0.0002989257517527
 50
25.9946362135172002
 51
51.4789222283854073
  0
ARC
  5
18006
  8
0
 10
4211.0484029968620234
 20
192.8873355397473972
 30
0.0
 40
0.0001542925631314
 50
0.3940335930017237
 51
24.6088185738781995
  0
ARC
  5
18007
  8
0
 10
4209.8423680287896786
 20
190.6768302608327019
 30
0.0
 40
2.2146480182372819
 50
89.758390934717255
 51
92.0698196110075031
  0
ARC
  5
18008
  8
0
 10
4209.7815401140205722
 20
192.3707684733979022
 30
0.0
 40
0.519618211008247
 50
92.1130726582103421
 51
94.1247609740517674
  0
ARC
  5
18009
  8
0
 10
4209.7523910581294331
 20
192.7716254483235048
 30
0.0
 40
0.1177031373580328
 50
94.0076820239660833
 51
97.5620251303098769
  0
ARC
  5
1800A
  8
0
 10
4209.7392810037581512
 20
192.8692639332633121
 30
0.0
 40
0.0191891030659512
 50
97.1234883999826053
 51
103.9320468973396032
  0
ARC
  5
1800B
  8
0
 10
4209.7357546731918774
 20
192.8833531097575076
 30
0.0
 40
0.0046654630850328
 50
103.559585703634994
 51
112.3681258198016053
  0
ARC
  5
1800C
  8
0
 10
4209.7343481329389761
 20
192.8866970334813971
 30
0.0
 40
0.0010382578643006
 50
110.8140162651871066
 51
129.1106211549461023
  0
ARC
  5
1800D
  8
0
 10
4209.7338793511607946
 20
192.8872687750973114
 30
0.0
 40
0.0002989257517527
 50
128.521077771614614
 51
154.0053637864828033
  0
ARC
  5
1800E
  8
0
 10
4209.7337509446915647
 20
192.8873355397473972
 30
0.0
 40
0.0001542925631314
 50
155.3911814261217899
 51
179.6059664069983057
  0
ARC
  5
1800F
  8
0
 10
4209.8475926779301517
 20
190.8003976172462899
 30
0.0
 40
2.6419286991780289
 50
89.9107745784342143
 51
91.7312827489356692
  0
ARC
  5
18010
  8
0
 10
4209.7834223317122451
 20
192.8753487127501103
 30
0.0
 40
0.5659879408870131
 50
91.5842277909551541
 51
94.4537716818618236
  0
ARC
  5
18011
  8
0
 10
4209.7441677924080068
 20
193.3641954561703074
 30
0.0
 40
0.0755781917202464
 50
93.5631621120115682
 51
103.5299147884077939
  0
ARC
  5
18012
  8
0
 10
4209.7347659113447662
 20
193.405475086485211
 30
0.0
 40
0.0332485718197294
 50
104.4200721759269044
 51
132.6102325004405884
  0
ARC
  5
18013
  8
0
 10
4209.7337988689587291
 20
193.4066919189808971
 30
0.0
 40
0.0316985153675164
 50
132.8128280965260899
 51
153.8398387091455106
  0
ARC
  5
18014
  8
0
 10
4209.7337473706302262
 20
193.4067044313651138
 30
0.0
 40
0.0316467778591169
 50
153.8190652904582123
 51
179.9988580011394959
  0
ARC
  5
18015
  8
0
 10
4210.933589757792106
 20
190.6571652590423014
 30
0.0
 40
2.7851596269744521
 50
88.5185831043290676
 51
90.0646512175100611
  0
ARC
  5
18016
  8
0
 10
4210.9813370273150213
 20
192.4916161899660096
 30
0.0
 40
0.9500874906130427
 50
86.8292786848327864
 51
88.5370222741850057
  0
ARC
  5
18017
  8
0
 10
4211.0261679905079291
 20
193.2629440588945045
 30
0.0
 40
0.1774731590873531
 50
82.2758680446344499
 51
87.5070038076814143
  0
ARC
  5
18018
  8
0
 10
4211.0454217706192139
 20
193.4006283221841045
 30
0.0
 40
0.0384546543817809
 50
62.5875338650299966
 51
83.1308810848925503
  0
ARC
  5
18019
  8
0
 10
4211.0480461814104274
 20
193.4064093492494862
 30
0.0
 40
0.0321162025226964
 50
40.1446065816613924
 51
61.9955611804976385
  0
ARC
  5
1801A
  8
0
 10
4211.0483681633450033
 20
193.406694905775197
 30
0.0
 40
0.0316859712917694
 50
10.7129417070964301
 51
40.1252635354895375
  0
ARC
  5
1801B
  8
0
 10
4211.0483124603133547
 20
193.4066939080084921
 30
0.0
 40
0.0317408903235824
 50
0.0201344233026589
 51
10.6960202592083196
  0
ARC
  5
1801C
  8
0
 10
4209.9163101019239548
 20
192.8697365946273123
 30
0.0
 40
0.001818337722361
 50
213.1303356033706962
 51
239.1074867426551975
  0
ARC
  5
1801D
  8
0
 10
4209.9153262706031455
 20
192.8690628582918976
 30
0.0
 40
0.0006267812562234
 50
148.4235725466749898
 51
210.7073450581814029
  0
ARC
  5
1801E
  8
0
 10
4209.9165261493571961
 20
192.8681816897995986
 30
0.0
 40
0.0021139667992878
 50
116.9828164760856026
 51
145.1040855447047022
  0
ARC
  5
1801F
  8
0
 10
4209.9208149296691772
 20
192.8601393598206926
 30
0.0
 40
0.0112280810117558
 50
105.8145941770577991
 51
117.8652594181475024
  0
ARC
  5
18020
  8
0
 10
4209.9757736647115962
 20
192.5436003704924985
 30
0.0
 40
0.3327654104921363
 50
94.0390369361094542
 51
99.1112579001083844
  0
ARC
  5
18021
  8
0
 10
4210.1109695238619679
 20
190.7581974453661076
 30
0.0
 40
2.123276102430685
 50
91.9965534227024904
 51
94.2846844260764243
  0
ARC
  5
18022
  8
0
 10
4210.3185723172846338
 20
184.9913638303453922
 30
0.0
 40
7.893844295808095
 50
90.6289216662473649
 51
92.0441958012269339
  0
ARC
  5
18023
  8
0
 10
4210.3915344580582314
 20
179.5783399575925898
 30
0.0
 40
13.3073498278511408
 50
89.5922535483373252
 51
90.687225641152736
  0
ARC
  5
18024
  8
0
 10
4210.4213770293026755
 20
182.6677373983604014
 30
0.0
 40
10.2178212645963402
 50
88.5687721636149945
 51
89.6363069630529594
  0
ARC
  5
18025
  8
0
 10
4210.5945127922568645
 20
189.213008164540696
 30
0.0
 40
3.6702805955018829
 50
86.5841425725177629
 51
88.7186394042972069
  0
ARC
  5
18026
  8
0
 10
4210.7694183697940389
 20
192.1715366127338029
 30
0.0
 40
0.7065890052507388
 50
83.4064138223695153
 51
86.447742596791926
  0
ARC
  5
18027
  8
0
 10
4210.8381944871671294
 20
192.7657855553794093
 30
0.0
 40
0.1083733986953316
 50
76.0140268189081212
 51
83.4518849673089562
  0
ARC
  5
18028
  8
0
 10
4210.8614336535456459
 20
192.8604189011261099
 30
0.0
 40
0.0109336408165049
 50
61.4589210194972466
 51
74.3308097916432473
  0
ARC
  5
18029
  8
0
 10
4210.8654289472706296
 20
192.8678719640844861
 30
0.0
 40
0.0024779362208214
 50
43.8104429109487867
 51
60.2744018198164611
  0
ARC
  5
1802A
  8
0
 10
4210.8665832693814082
 20
192.8689699441679863
 30
0.0
 40
0.0008848601028364
 50
14.70172941441718
 51
44.2486950246993587
  0
ARC
  5
1802B
  8
0
 10
4210.8668326052747943
 20
192.8690598742948055
 30
0.0
 40
0.0006213168025797
 50
328.3093709474770776
 51
12.5149613789068699
  0
ARC
  5
1802C
  8
0
 10
4210.8661043403171789
 20
192.8695117689821927
 30
0.0
 40
0.001478391528454
 50
306.5389138215610956
 51
328.234394269776999
  0
ARC
  5
1802D
  8
0
 10
4210.8644728049766854
 20
192.8716601714430112
 30
0.0
 40
0.0041760170335599
 50
295.4780284479904253
 51
306.9748096469849088
  0
ARC
  5
1802E
  8
0
 10
4210.8619982984910166
 20
192.8766891134978891
 30
0.0
 40
0.0097805966911265
 50
289.4356089216112196
 51
295.8915376888735977
  0
ARC
  5
1802F
  8
0
 10
4210.3376540058889077
 20
193.1637165209448881
 30
0.0
 40
0.537883966363776
 50
219.8088052908325096
 51
222.0624844182758864
  0
ARC
  5
18030
  8
0
 10
4209.9991730820947851
 20
192.8815770706127921
 30
0.0
 40
0.0972344456806827
 50
215.5444439572490012
 51
219.7908630768164073
  0
ARC
  5
18031
  8
0
 10
4209.5906380553906274
 20
192.419489636827393
 30
0.0
 40
0.5249432055654156
 50
48.5225673361277572
 51
49.672998276152633
  0
ARC
  5
18032
  8
0
 10
4209.8024072836633422
 20
192.6693482991690018
 30
0.0
 40
0.1974139853962005
 50
49.6002371976984833
 51
51.73838175429632
  0
ARC
  5
18033
  8
0
 10
4209.8879045371204484
 20
192.7780968956076038
 30
0.0
 40
0.0590814566106747
 50
51.5335568053122088
 51
55.6322172043894625
  0
ARC
  5
18034
  8
0
 10
4209.9147331322019454
 20
192.8176201705747133
 30
0.0
 40
0.0113141128010903
 50
54.7923052749631196
 51
65.235364297579963
  0
ARC
  5
18035
  8
0
 10
4209.918656144803208
 20
192.8260202010268927
 30
0.0
 40
0.00204372736321
 50
66.4559414548367329
 51
78.6812752440593357
  0
ARC
  5
18036
  8
0
 10
4209.918938070927652
 20
192.8274786453413867
 30
0.0
 40
0.000558402297411
 50
77.6755665360727221
 51
104.0633309064520944
  0
ARC
  5
18037
  8
0
 10
4209.9188628064875957
 20
192.8278101868621945
 30
0.0
 40
0.0002186395249547
 50
106.0432030610367065
 51
145.8406691057718092
  0
ARC
  5
18038
  8
0
 10
4209.9189679907076425
 20
192.8277639355343922
 30
0.0
 40
0.0003322981402887
 50
149.4274328280895929
 51
182.5666668951531051
  0
ARC
  5
18039
  8
0
 10
4209.9344672745555727
 20
192.8352448925157887
 30
0.0
 40
0.0176513183130856
 50
208.6470195276002073
 51
215.2745098451071897
  0
ARC
  5
1803A
  8
0
 10
4209.9220753341751333
 20
192.8285032155988858
 30
0.0
 40
0.0035443191977992
 50
195.7656331626116071
 51
209.0417909720239038
  0
ARC
  5
1803B
  8
0
 10
4209.9195486351227373
 20
192.8277664781844862
 30
0.0
 40
0.0009127755002475
 50
181.0937598077028099
 51
194.3524931677372933
  0
ARC
  5
1803C
  8
0
 10
4210.4444999356592234
 20
193.1637165209488955
 30
0.0
 40
0.5378839663699326
 50
317.9375155817336918
 51
320.1911947091625166
  0
ARC
  5
1803D
  8
0
 10
4210.7829808594578935
 20
192.8815770706127921
 30
0.0
 40
0.0972344456806827
 50
320.2091369231836779
 51
324.4555560427510272
  0
ARC
  5
1803E
  8
0
 10
4211.1915158861620512
 20
192.419489636827393
 30
0.0
 40
0.5249432055654156
 50
130.3270017238473883
 51
131.4774326638722073
  0
ARC
  5
1803F
  8
0
 10
4210.9797466578902458
 20
192.6693482991690018
 30
0.0
 40
0.1974139853962005
 50
128.2616182457036871
 51
130.3997628023014954
  0
ARC
  5
18040
  8
0
 10
4210.8942494044340492
 20
192.7780968956062964
 30
0.0
 40
0.0590814566122098
 50
124.3677827956645956
 51
128.4664431946195862
  0
ARC
  5
18041
  8
0
 10
4210.8674208093516427
 20
192.8176201705747133
 30
0.0
 40
0.0113141128010903
 50
114.7646357024199943
 51
125.2076947250369017
  0
ARC
  5
18042
  8
0
 10
4210.8634977967503801
 20
192.8260202010268927
 30
0.0
 40
0.00204372736321
 50
101.3187247559405932
 51
113.5440585451631961
  0
ARC
  5
18043
  8
0
 10
4210.8632158706250266
 20
192.8274786453413867
 30
0.0
 40
0.000558402297411
 50
75.9366690935478346
 51
102.3244334639273063
  0
ARC
  5
18044
  8
0
 10
4210.8632911350650829
 20
192.8278101868621945
 30
0.0
 40
0.0002186395249547
 50
34.1593308942281197
 51
73.9567969389632935
  0
ARC
  5
18045
  8
0
 10
4210.8631859508441266
 20
192.8277639355343922
 30
0.0
 40
0.0003322981402887
 50
357.4333331048467812
 51
30.5725671719103609
  0
ARC
  5
18046
  8
0
 10
4210.8476866669980154
 20
192.8352448925157887
 30
0.0
 40
0.0176513183130856
 50
324.7254901548927819
 51
331.3529804723983148
  0
ARC
  5
18047
  8
0
 10
4210.8600786073775453
 20
192.8285032155988858
 30
0.0
 40
0.0035443191977439
 50
330.9582090279761246
 51
344.2343668376062737
  0
ARC
  5
18048
  8
0
 10
4210.8626053064299413
 20
192.8277664781844862
 30
0.0
 40
0.0009127755002475
 50
345.647506832262593
 51
358.9062401922972185
  0
ARC
  5
18049
  8
0
 10
4209.9430748150716681
 20
192.6959929871688928
 30
0.0
 40
0.007934791926538
 50
240.5709625223958881
 51
252.4247850641110915
  0
ARC
  5
1804A
  8
0
 10
4209.9489030637478209
 20
192.7131580324175104
 30
0.0
 40
0.0260611506468943
 50
251.604537145365498
 51
256.3974015603789098
  0
ARC
  5
1804B
  8
0
 10
4209.9567602683291625
 20
192.7454724940238009
 30
0.0
 40
0.0593171199540436
 50
256.3617614693039855
 51
259.7230935955618065
  0
ARC
  5
1804C
  8
0
 10
4209.9666344733714141
 20
192.7984913653787089
 30
0.0
 40
0.1132473162167473
 50
259.5931046545633194
 51
261.2717224048283811
  0
ARC
  5
1804D
  8
0
 10
4209.9776239188677209
 20
192.8704200338308965
 30
0.0
 40
0.1860106280836343
 50
261.2880172234894758
 51
262.6578364709075117
  0
ARC
  5
1804E
  8
0
 10
4209.9899787633339656
 20
192.9654493917801972
 30
0.0
 40
0.2818397111824067
 50
262.6356138924023753
 51
263.5662756139963108
  0
ARC
  5
1804F
  8
0
 10
4210.0033552456034158
 20
193.0835759977746875
 30
0.0
 40
0.4007212620627576
 50
263.5583117569091769
 51
264.3629064582975161
  0
ARC
  5
18050
  8
0
 10
4210.0356574334573452
 20
193.4223186355555129
 30
0.0
 40
0.7409995572753497
 50
264.4501077650124898
 51
265.9830118789257085
  0
ARC
  5
18051
  8
0
 10
4210.1870665721726255
 20
195.8953448801497927
 30
0.0
 40
3.2186335153734178
 50
266.3782722044711022
 51
268.7009691347470266
  0
ARC
  5
18052
  8
0
 10
4210.3907291638079187
 20
204.2616603465023104
 30
0.0
 40
11.5874242845631095
 50
268.6320291220550871
 51
271.3968830648504991
  0
ARC
  5
18053
  8
0
 10
4210.6262589882016982
 20
195.0974319680699978
 30
0.0
 40
2.4202076864321072
 50
271.1114654030794782
 51
274.6043450686985921
  0
ARC
  5
18054
  8
0
 10
4210.8043657671387336
 20
192.8630901608179045
 30
0.0
 40
0.178788478490535
 50
275.1903976857890939
 51
280.566844398182127
  0
ARC
  5
18055
  8
0
 10
4210.8336811872841281
 20
192.7094778134612909
 30
0.0
 40
0.022414592136725
 50
278.9090336197618853
 51
294.5040631548608872
  0
ARC
  5
18056
  8
0
 10
4210.8431337751462706
 20
192.6900105087511008
 30
0.0
 40
0.0006996305094622
 50
2.229020767792071
 51
39.2083843282329099
  0
ARC
  5
18057
  8
0
 10
4210.8418095338784042
 20
192.6888315548322907
 30
0.0
 40
0.0024721695687914
 50
40.9794479721992033
 51
63.978383092005302
  0
ARC
  5
18058
  8
0
 10
4210.8381173876668981
 20
192.6817145822795112
 30
0.0
 40
0.010489290367592
 50
62.9100045154898098
 51
73.7342617908569053
  0
ARC
  5
18059
  8
0
 10
4210.8284017811620288
 20
192.649189793556701
 30
0.0
 40
0.0444340071785509
 50
73.4547537379841344
 51
80.6484727276739193
  0
ARC
  5
1805A
  8
0
 10
4210.7932459313451545
 20
192.4386053120987015
 30
0.0
 40
0.2579327647224622
 50
80.5439604488854286
 51
85.7930012289555606
  0
ARC
  5
1805B
  8
0
 10
4210.7101491745734165
 20
191.4931505822615918
 30
0.0
 40
1.207011627379259
 50
85.1514770147990134
 51
87.031481589330653
  0
ARC
  5
1805C
  8
0
 10
4210.6133104512700811
 20
189.7213131402112083
 30
0.0
 40
2.981490632355146
 50
86.9363527382424479
 51
87.9204308213736425
  0
ARC
  5
1805D
  8
0
 10
4210.5235380017893476
 20
187.3147752962863137
 30
0.0
 40
5.3897016564467339
 50
87.8950617564982224
 51
88.5431353774017964
  0
ARC
  5
1805E
  8
0
 10
4210.451843338623803
 20
184.5288332505359108
 30
0.0
 40
8.1765659769838575
 50
88.5372440661303841
 51
89.0374896462829355
  0
ARC
  5
1805F
  8
0
 10
4210.4081275539710987
 20
181.9203953115219008
 30
0.0
 40
10.7853702131752396
 50
89.0380602243491239
 51
89.4965337945405253
  0
ARC
  5
18060
  8
0
 10
4210.3911475270178926
 20
179.9682814699878861
 30
0.0
 40
12.7375578952422899
 50
89.4973160779146752
 51
90.1104364323033309
  0
ARC
  5
18061
  8
0
 10
4210.3896130201055712
 20
180.2161848610379877
 30
0.0
 40
12.4896520516654199
 50
90.1055889748285637
 51
90.4868403324636148
  0
ARC
  5
18062
  8
0
 10
4210.3722410557957119
 20
182.1019661431664076
 30
0.0
 40
10.6037913228333291
 50
90.4795560541597155
 51
91.0676390555888844
  0
ARC
  5
18063
  8
0
 10
4210.2978539209079827
 20
185.9621885630238012
 30
0.0
 40
6.7428534633543347
 50
91.0468402578725318
 51
91.7974404491402254
  0
ARC
  5
18064
  8
0
 10
4210.1997723334043258
 20
189.0012671609493964
 30
0.0
 40
3.7021947594562161
 50
91.7555115097050731
 51
92.7269602414053793
  0
ARC
  5
18065
  8
0
 10
4210.0847222391312243
 20
191.3215489619325922
 30
0.0
 40
1.37907420834837
 50
92.538795634880529
 51
94.7817885335394834
  0
ARC
  5
18066
  8
0
 10
4209.9927348179098772
 20
192.4063991997107053
 30
0.0
 40
0.2903343388318916
 50
94.538474901286591
 51
99.1525210138905351
  0
ARC
  5
18067
  8
0
 10
4209.9536568502408045
 20
192.6495256591329053
 30
0.0
 40
0.0440874970759938
 50
99.2720991615685051
 51
106.2872044361706969
  0
ARC
  5
18068
  8
0
 10
4209.944164172762612
 20
192.6814430907600979
 30
0.0
 40
0.010789926004828
 50
105.435440620870807
 51
116.8431885319717054
  0
ARC
  5
18069
  8
0
 10
4209.9403096709429519
 20
192.6888800203435039
 30
0.0
 40
0.0024152155415015
 50
114.9209115351203963
 51
138.9359848118938032
  0
ARC
  5
1806A
  8
0
 10
4209.939024667251033
 20
192.690009940497788
 30
0.0
 40
0.0007041501588341
 50
139.5716106357859019
 51
177.7390202083444137
  0
ARC
  5
1806B
  8
0
 10
4210.3927631262640716
 20
181.0030872655983103
 30
0.0
 40
11.7019963282330099
 50
88.9085892643602023
 51
91.2360665920747351
  0
ARC
  5
1806C
  8
0
 10
4210.4966601896494467
 20
186.8947037186684952
 30
0.0
 40
5.8094757441629961
 50
87.8820088840127056
 51
88.8263096386142621
  0
ARC
  5
1806D
  8
0
 10
4210.6257524984566771
 20
190.350047336368192
 30
0.0
 40
2.3517221171939662
 50
86.3061662182671654
 51
87.9137605250151069
  0
ARC
  5
1806E
  8
0
 10
4210.7451621065292784
 20
192.1704679079014113
 30
0.0
 40
0.5273937660585484
 50
82.8499079591063463
 51
86.5105291703114432
  0
ARC
  5
1806F
  8
0
 10
4210.8012772718948327
 20
192.614594673750787
 30
0.0
 40
0.0797371519665913
 50
75.646440274816797
 51
83.1364505864901702
  0
ARC
  5
18070
  8
0
 10
4210.818330844223965
 20
192.6813840599816103
 30
0.0
 40
0.0108050347228491
 50
62.2456490496164179
 51
75.454641740941895
  0
ARC
  5
18071
  8
0
 10
4210.8223570599093364
 20
192.6890480557856051
 30
0.0
 40
0.0021478374337399
 50
40.0636588100082776
 51
62.0862851561158919
  0
ARC
  5
18072
  8
0
 10
4210.8234789003308833
 20
192.6900095824427979
 30
0.0
 40
0.0006705266676209
 50
4.8435486926577118
 51
38.8822004141648705
  0
ARC
  5
18073
  8
0
 10
4210.8235394904941131
 20
192.6900451719590137
 30
0.0
 40
0.0006079057807568
 50
323.8029343914976153
 51
1.9821706543297131
  0
ARC
  5
18074
  8
0
 10
4210.8227199044085864
 20
192.690637047883996
 30
0.0
 40
0.0016188574005525
 50
302.1978755193769075
 51
324.0287416869111894
  0
ARC
  5
18075
  8
0
 10
4210.8187237644287961
 20
192.6975473064833864
 30
0.0
 40
0.0096004347569963
 50
283.8281408630429041
 51
300.4041222612979141
  0
ARC
  5
18076
  8
0
 10
4210.7965924489863028
 20
192.7879884157264883
 30
0.0
 40
0.1027099824362024
 50
275.2987226175425235
 51
283.7575839590908231
  0
ARC
  5
18077
  8
0
 10
4210.7298272050593368
 20
193.3863389390066914
 30
0.0
 40
0.7047586416543501
 50
273.3591825963275141
 51
276.2111925790219971
  0
ARC
  5
18078
  8
0
 10
4210.5852280305261957
 20
195.8475943637515968
 30
0.0
 40
3.1702580197080601
 50
271.4928403728408739
 51
273.3615851786037751
  0
ARC
  5
18079
  8
0
 10
4210.4582436079408581
 20
200.0567853908769109
 30
0.0
 40
7.381348834431698
 50
271.021141352710913
 51
271.6269979076117238
  0
ARC
  5
1807A
  8
0
 10
4210.4191720650969728
 20
202.183814899994303
 30
0.0
 40
9.5087369221275253
 50
270.7454594752945241
 51
271.0281240017258142
  0
ARC
  5
1807B
  8
0
 10
4210.402651517162667
 20
203.4416573766656882
 30
0.0
 40
10.7666878765096197
 50
270.5015233803788988
 51
270.7462799150329147
  0
ARC
  5
1807C
  8
0
 10
4210.3938104800099609
 20
204.4245429332339086
 30
0.0
 40
11.7496131684889598
 50
270.2714503160768231
 51
270.5026809433510948
  0
ARC
  5
1807D
  8
0
 10
4210.3913062661658842
 20
204.9508852468169096
 30
0.0
 40
12.2759614391697092
 50
270.0030425062872723
 51
270.2714995196084828
  0
ARC
  5
1807E
  8
0
 10
4210.3906859713997619
 20
204.8577082317048905
 30
0.0
 40
12.1827844731720507
 50
269.6268360343448194
 51
270.0059830297790882
  0
ARC
  5
1807F
  8
0
 10
4210.3857025936913487
 20
204.0820822499910889
 30
0.0
 40
11.4071424857956902
 50
269.4174986394324947
 51
269.6264929890551798
  0
ARC
  5
18080
  8
0
 10
4210.3579232502588638
 20
201.7726020553101876
 30
0.0
 40
9.0975002429359648
 50
268.7542899396145231
 51
269.4445725281869954
  0
ARC
  5
18081
  8
0
 10
4210.2750136763215778
 20
198.0763578886713105
 30
0.0
 40
5.4003277931131519
 50
267.6287441454733198
 51
268.7811698197725718
  0
ARC
  5
18082
  8
0
 10
4210.103867427977093
 20
194.0532212812908881
 30
0.0
 40
1.3735625912067131
 50
264.9140389677298231
 51
267.8183229465905129
  0
ARC
  5
18083
  8
0
 10
4210.0016331616352545
 20
192.8976817719351118
 30
0.0
 40
0.2135104235080426
 50
260.0503122347461158
 51
264.7511223985810034
  0
ARC
  5
18084
  8
0
 10
4209.9689972979467711
 20
192.7135081730685897
 30
0.0
 40
0.0264698580090264
 50
248.2608732902355939
 51
260.7492391618380907
  0
ARC
  5
18085
  8
0
 10
4209.960816233917285
 20
192.6925416399463984
 30
0.0
 40
0.0039678456573066
 50
232.5594919543183892
 51
245.8575887573057059
  0
ARC
  5
18086
  8
0
 10
4209.9589711043590796
 20
192.6902081120948935
 30
0.0
 40
0.0009944179215221
 50
196.9295505349003008
 51
235.2319765226465051
  0
ARC
  5
18087
  8
0
 10
4209.9585319490261099
 20
192.6900374327072996
 30
0.0
 40
0.0005257861718055
 50
173.5370089633580903
 51
193.0687471387172991
  0
ARC
  5
18088
  8
0
 10
4209.9586559014678642
 20
192.690012003111292
 30
0.0
 40
0.0006519114739991
 50
145.7971186452944039
 51
172.5424326257833911
  0
ARC
  5
18089
  8
0
 10
4209.9593755601281373
 20
192.6894958318924864
 30
0.0
 40
0.0015374222135968
 50
123.0557450203214955
 51
144.9636741181138859
  0
ARC
  5
1808A
  8
0
 10
4209.9625742080261261
 20
192.6843223603287072
 30
0.0
 40
0.0076195390973459
 50
106.1879091816830964
 51
121.995580760328707
  0
ARC
  5
1808B
  8
0
 10
4209.9754605911512044
 20
192.6401378673124896
 30
0.0
 40
0.0536448345994488
 50
98.2744827815108835
 51
106.2491561436586949
  0
ARC
  5
1808C
  8
0
 10
4210.0081865705824384
 20
192.427958420156898
 30
0.0
 40
0.2683316384342432
 50
95.077673316330646
 51
98.6693791374648157
  0
ARC
  5
1808D
  8
0
 10
4210.0668062818131148
 20
191.8007070848867102
 30
0.0
 40
0.898314210226384
 50
93.4419085964269414
 51
95.2609853042056045
  0
ARC
  5
1808E
  8
0
 10
4210.1743121373656322
 20
189.9992992834058896
 30
0.0
 40
2.7029270059949919
 50
91.7169411520418691
 51
93.4241383976075497
  0
ARC
  5
1808F
  8
0
 10
4210.2814820828789379
 20
186.9594969349186897
 30
0.0
 40
5.7445980271100243
 50
91.4079670326115661
 51
91.8769609366825932
  0
ARC
  5
18090
  8
0
 10
4210.5736561737057855
 20
194.5043687405689923
 30
0.0
 40
1.8233628508012121
 50
272.1849630911240752
 51
273.5869221041132846
  0
ARC
  5
18091
  8
0
 10
4210.6604550610300066
 20
193.152522063003687
 30
0.0
 40
0.468738518870039
 50
273.3358952724703954
 51
277.1334786087313091
  0
ARC
  5
18092
  8
0
 10
4210.70990740261459
 20
192.7586235142080966
 30
0.0
 40
0.0717480348268301
 50
277.0099164415631208
 51
285.2995340928862902
  0
ARC
  5
18093
  8
0
 10
4210.7221423578848771
 20
192.71413729013031
 30
0.0
 40
0.0256101203517201
 50
285.1586410974359183
 51
303.6433422696273965
  0
ARC
  5
18094
  8
0
 10
4210.7248948561928046
 20
192.7098132864443016
 30
0.0
 40
0.0204856984865755
 50
303.9345798311061913
 51
320.3883495435068767
  0
ARC
  5
18095
  8
0
 10
4210.7241848432358893
 20
192.7104767162500991
 30
0.0
 40
0.0214557503341854
 50
320.2323838955853148
 51
327.2915224103504102
  0
ARC
  5
18096
  8
0
 10
4210.2224584629857418
 20
194.8158634982532078
 30
0.0
 40
2.1351664038386011
 50
266.9238794740147114
 51
267.7531097064945129
  0
ARC
  5
18097
  8
0
 10
4210.1571663530512524
 20
193.6232403166704046
 30
0.0
 40
0.9407586629147962
 50
265.1976941017346121
 51
266.9968861166287866
  0
ARC
  5
18098
  8
0
 10
4210.0936343291677986
 20
192.8886481231315884
 30
0.0
 40
0.2034345474722295
 50
259.3789118535743796
 51
265.7075983037823903
  0
ARC
  5
18099
  8
0
 10
4210.0618633676685931
 20
192.7182107071529913
 30
0.0
 40
0.0300619152552465
 50
241.3952530338490021
 51
259.0221143913728952
  0
ARC
  5
1809A
  8
0
 10
4210.0573627274488899
 20
192.7099669266945057
 30
0.0
 40
0.0206695966123499
 50
212.4283026436609134
 51
241.407662516814014
  0
ARC
  5
1809B
  8
0
 10
4210.1154864195768823
 20
192.4670400641902006
 30
0.0
 40
0.2259270059744445
 50
86.0030099259340517
 51
93.9969900740659341
  0
ARC
  5
1809C
  8
0
 10
4210.1154864195768823
 20
192.9177918707896993
 30
0.0
 40
0.2259238467826191
 50
266.0029539434132175
 51
273.9970460565867825
  0
ARC
  5
1809D
  8
0
 10
4210.1154864298141547
 20
192.4646602411100105
 30
0.0
 40
0.2259270059744445
 50
86.0030099259340517
 51
93.9969900740659341
  0
ARC
  5
1809E
  8
0
 10
4210.1154864298141547
 20
192.9154120477095091
 30
0.0
 40
0.2259238467826191
 50
266.0029539434132175
 51
273.9970460565867825
  0
ARC
  5
1809F
  8
0
 10
4210.1154864298323446
 20
192.4622804103269118
 30
0.0
 40
0.2259270059744445
 50
86.0030099259340517
 51
93.9969900740659341
  0
ARC
  5
180A0
  8
0
 10
4210.1154864298323446
 20
192.9130322169264105
 30
0.0
 40
0.2259238467826191
 50
266.0029539434132175
 51
273.9970460565867825
  0
ARC
  5
180A1
  8
0
 10
4210.135171461111895
 20
192.4682299795240112
 30
0.0
 40
0.2259270059744445
 50
86.0030099259340517
 51
93.9969900740659341
  0
ARC
  5
180A2
  8
0
 10
4210.135171461111895
 20
192.9189817861235099
 30
0.0
 40
0.2259238467826191
 50
266.0029539434132175
 51
273.9970460565867825
  0
ARC
  5
180A3
  8
0
 10
4210.135171469191846
 20
192.4658501565099868
 30
0.0
 40
0.2259270059744445
 50
86.0030099259340517
 51
93.9969900740659341
  0
ARC
  5
180A4
  8
0
 10
4210.135171469191846
 20
192.9166019631095992
 30
0.0
 40
0.2259238467826191
 50
266.0029539434132175
 51
273.9970460565867825
  0
ARC
  5
180A5
  8
0
 10
4210.135171461117352
 20
192.4634703180240081
 30
0.0
 40
0.2259270059744445
 50
86.0030099259340517
 51
93.9969900740659341
  0
ARC
  5
180A6
  8
0
 10
4210.135171461117352
 20
192.9142221246235067
 30
0.0
 40
0.2259238467826191
 50
266.0029539434132175
 51
273.9970460565867825
  0
ARC
  5
180A7
  8
0
 10
4210.135171461124628
 20
192.4610904872901926
 30
0.0
 40
0.2259270059744445
 50
86.0030099259340517
 51
93.9969900740659341
  0
ARC
  5
180A8
  8
0
 10
4210.135171461124628
 20
192.9118422938896913
 30
0.0
 40
0.2259238467826191
 50
266.0029539434132175
 51
273.9970460565867825
  0
ARC
  5
180A9
  8
0
 10
4210.1548565004832199
 20
192.4694198949239876
 30
0.0
 40
0.2259270059744445
 50
86.0030099259340517
 51
93.9969900740659341
  0
ARC
  5
180AA
  8
0
 10
4210.1548565004832199
 20
192.9201717015234863
 30
0.0
 40
0.2259238467826191
 50
266.0029539434132175
 51
273.9970460565867825
  0
ARC
  5
180AB
  8
0
 10
4210.1548565004677585
 20
192.4670400641902006
 30
0.0
 40
0.2259270059744445
 50
86.0030099259340517
 51
93.9969900740659341
  0
ARC
  5
180AC
  8
0
 10
4210.1548565004677585
 20
192.9177918707896993
 30
0.0
 40
0.2259238467826191
 50
266.0029539434132175
 51
273.9970460565867825
  0
ARC
  5
180AD
  8
0
 10
4210.1548565085640803
 20
192.4646602411100105
 30
0.0
 40
0.2259270059744445
 50
86.0030099259340517
 51
93.9969900740659341
  0
ARC
  5
180AE
  8
0
 10
4210.1548565085640803
 20
192.9154120477095091
 30
0.0
 40
0.2259238467826191
 50
266.0029539434132175
 51
273.9970460565867825
  0
ARC
  5
180AF
  8
0
 10
4210.1548565085831797
 20
192.4622804103269118
 30
0.0
 40
0.2259270059744445
 50
86.0030099259340517
 51
93.9969900740659341
  0
ARC
  5
180B0
  8
0
 10
4210.1548565085831797
 20
192.9130322169264105
 30
0.0
 40
0.2259238467826191
 50
266.0029539434132175
 51
273.9970460565867825
  0
ARC
  5
180B1
  8
0
 10
4210.154856500461392
 20
192.4599005718901878
 30
0.0
 40
0.2259270059744445
 50
86.0030099259340517
 51
93.9969900740659341
  0
ARC
  5
180B2
  8
0
 10
4210.154856500461392
 20
192.9106523784896865
 30
0.0
 40
0.2259238467826191
 50
266.0029539434132175
 51
273.9970460565867825
  0
ARC
  5
180B3
  8
0
 10
4210.1745415398163459
 20
192.4706098103239924
 30
0.0
 40
0.2259270059744445
 50
86.0030099259340517
 51
93.9969900740659341
  0
ARC
  5
180B4
  8
0
 10
4210.1745415398163459
 20
192.9213616169234911
 30
0.0
 40
0.2259238467826191
 50
266.0029539434132175
 51
273.9970460565867825
  0
ARC
  5
180B5
  8
0
 10
4210.1745415398227124
 20
192.4682299795240112
 30
0.0
 40
0.2259270059744445
 50
86.0030099259340517
 51
93.9969900740659341
  0
ARC
  5
180B6
  8
0
 10
4210.1745415398227124
 20
192.9189817861235099
 30
0.0
 40
0.2259238467826191
 50
266.0029539434132175
 51
273.9970460565867825
  0
ARC
  5
180B7
  8
0
 10
4210.1745415479017538
 20
192.4658501565099868
 30
0.0
 40
0.2259270059744445
 50
86.0030099259340517
 51
93.9969900740659341
  0
ARC
  5
180B8
  8
0
 10
4210.1745415479017538
 20
192.9166019631095992
 30
0.0
 40
0.2259238467826191
 50
266.0029539434132175
 51
273.9970460565867825
  0
ARC
  5
180B9
  8
0
 10
4210.1745415398290788
 20
192.4634703180240081
 30
0.0
 40
0.2259270059744445
 50
86.0030099259340517
 51
93.9969900740659341
  0
ARC
  5
180BA
  8
0
 10
4210.1745415398290788
 20
192.9142221246235067
 30
0.0
 40
0.2259238467826191
 50
266.0029539434132175
 51
273.9970460565867825
  0
ARC
  5
180BB
  8
0
 10
4210.1745415398381738
 20
192.4610904872901926
 30
0.0
 40
0.2259270059744445
 50
86.0030099259340517
 51
93.9969900740659341
  0
ARC
  5
180BC
  8
0
 10
4210.1745415398381738
 20
192.9118422938896913
 30
0.0
 40
0.2259238467826191
 50
266.0029539434132175
 51
273.9970460565867825
  0
ARC
  5
180BD
  8
0
 10
4210.1745415398208934
 20
192.458710656507094
 30
0.0
 40
0.2259270059744445
 50
86.0030099259340517
 51
93.9969900740659341
  0
ARC
  5
180BE
  8
0
 10
4210.1745415398208934
 20
192.9094624631065926
 30
0.0
 40
0.2259238467826191
 50
266.0029539434132175
 51
273.9970460565867825
  0
ARC
  5
180BF
  8
0
 10
4210.1942265792122271
 20
192.4717997257239972
 30
0.0
 40
0.2259270059744445
 50
86.0030099259340517
 51
93.9969900740659341
  0
ARC
  5
180C0
  8
0
 10
4210.1942265792122271
 20
192.9225515323234958
 30
0.0
 40
0.2259238467826191
 50
266.0029539434132175
 51
273.9970460565867825
  0
ARC
  5
180C1
  8
0
 10
4210.1942265792331455
 20
192.4694198949239876
 30
0.0
 40
0.2259270059744445
 50
86.0030099259340517
 51
93.9969900740659341
  0
ARC
  5
180C2
  8
0
 10
4210.1942265792331455
 20
192.9201717015234863
 30
0.0
 40
0.2259238467826191
 50
266.0029539434132175
 51
273.9970460565867825
  0
ARC
  5
180C3
  8
0
 10
4210.194226323535986
 20
192.4670400641902859
 30
0.0
 40
0.2259270059744445
 50
86.0030099259340517
 51
93.9969900740659341
  0
ARC
  5
180C4
  8
0
 10
4210.194226323535986
 20
192.9177918707898129
 30
0.0
 40
0.2259238467826191
 50
266.0029539434132175
 51
273.9970460565867825
  0
ARC
  5
180C5
  8
0
 10
4210.1942265873021825
 20
192.4646602411100105
 30
0.0
 40
0.2259270059744445
 50
86.0030099259340517
 51
93.9969900740659341
  0
ARC
  5
180C6
  8
0
 10
4210.1942265873021825
 20
192.9154120477095091
 30
0.0
 40
0.2259238467826191
 50
266.0029539434132175
 51
273.9970460565867825
  0
ARC
  5
180C7
  8
0
 10
4210.194226579232236
 20
192.4622804026240033
 30
0.0
 40
0.2259270059744445
 50
86.0030099259340517
 51
93.9969900740659341
  0
ARC
  5
180C8
  8
0
 10
4210.194226579232236
 20
192.9130322092235019
 30
0.0
 40
0.2259238467826191
 50
266.0029539434132175
 51
273.9970460565867825
  0
ARC
  5
180C9
  8
0
 10
4210.1942265792104081
 20
192.4599005718901878
 30
0.0
 40
0.2259270059744445
 50
86.0030099259340517
 51
93.9969900740659341
  0
ARC
  5
180CA
  8
0
 10
4210.1942265792104081
 20
192.9106523784896865
 30
0.0
 40
0.2259238467826191
 50
266.0029539434132175
 51
273.9970460565867825
  0
ARC
  5
180CB
  8
0
 10
4210.1942265792104081
 20
192.4575207411238864
 30
0.0
 40
0.2259270059744445
 50
86.0030099259340517
 51
93.9969900740659341
  0
ARC
  5
180CC
  8
0
 10
4210.1942265792104081
 20
192.9082725477234987
 30
0.0
 40
0.2259238467826191
 50
266.0029539434132175
 51
273.9970460565867825
  0
ARC
  5
180CD
  8
0
 10
4210.2139116185971943
 20
192.458710656507094
 30
0.0
 40
0.2259270059744445
 50
86.0030099259340517
 51
93.9969900740659341
  0
ARC
  5
180CE
  8
0
 10
4210.2139116185971943
 20
192.9094624631065926
 30
0.0
 40
0.2259238467826191
 50
266.0029539434132175
 51
273.9970460565867825
  0
ARC
  5
180CF
  8
0
 10
4210.2139116186153842
 20
192.4610904872901926
 30
0.0
 40
0.2259270059744445
 50
86.0030099259340517
 51
93.9969900740659341
  0
ARC
  5
180D0
  8
0
 10
4210.2139116186153842
 20
192.9118422938896913
 30
0.0
 40
0.2259238467826191
 50
266.0029539434132175
 51
273.9970460565867825
  0
ARC
  5
180D1
  8
0
 10
4210.2139116186071988
 20
192.4634703180240081
 30
0.0
 40
0.2259270059744445
 50
86.0030099259340517
 51
93.9969900740659341
  0
ARC
  5
180D2
  8
0
 10
4210.2139116186071988
 20
192.9142221246235067
 30
0.0
 40
0.2259238467826191
 50
266.0029539434132175
 51
273.9970460565867825
  0
ARC
  5
180D3
  8
0
 10
4210.2139116266898782
 20
192.4658501565099868
 30
0.0
 40
0.2259270059744445
 50
86.0030099259340517
 51
93.9969900740659341
  0
ARC
  5
180D4
  8
0
 10
4210.2139116266898782
 20
192.9166019631095992
 30
0.0
 40
0.2259238467826191
 50
266.0029539434132175
 51
273.9970460565867825
  0
ARC
  5
180D5
  8
0
 10
4210.2139116186008323
 20
192.4682299795240112
 30
0.0
 40
0.2259270059744445
 50
86.0030099259340517
 51
93.9969900740659341
  0
ARC
  5
180D6
  8
0
 10
4210.2139116186008323
 20
192.9189817861235099
 30
0.0
 40
0.2259238467826191
 50
266.0029539434132175
 51
273.9970460565867825
  0
ARC
  5
180D7
  8
0
 10
4210.2139116185935563
 20
192.4706098103239924
 30
0.0
 40
0.2259270059744445
 50
86.0030099259340517
 51
93.9969900740659341
  0
ARC
  5
180D8
  8
0
 10
4210.2139116185935563
 20
192.9213616169234911
 30
0.0
 40
0.2259238467826191
 50
266.0029539434132175
 51
273.9970460565867825
  0
ARC
  5
180D9
  8
0
 10
4210.2335966579221349
 20
192.4717997257239972
 30
0.0
 40
0.2259270059744445
 50
86.0030099259340517
 51
93.9969900740659341
  0
ARC
  5
180DA
  8
0
 10
4210.2335966579221349
 20
192.9225515323234958
 30
0.0
 40
0.2259238467826191
 50
266.0029539434132175
 51
273.9970460565867825
  0
ARC
  5
180DB
  8
0
 10
4210.2335966579421438
 20
192.4694198949239876
 30
0.0
 40
0.2259270059744445
 50
86.0030099259340517
 51
93.9969900740659341
  0
ARC
  5
180DC
  8
0
 10
4210.2335966579421438
 20
192.9201717015234863
 30
0.0
 40
0.2259238467826191
 50
266.0029539434132175
 51
273.9970460565867825
  0
ARC
  5
180DD
  8
0
 10
4210.2335966579266824
 20
192.4670400641902006
 30
0.0
 40
0.2259270059744445
 50
86.0030099259340517
 51
93.9969900740659341
  0
ARC
  5
180DE
  8
0
 10
4210.2335966579266824
 20
192.9177918707896993
 30
0.0
 40
0.2259238467826191
 50
266.0029539434132175
 51
273.9970460565867825
  0
ARC
  5
180DF
  8
0
 10
4210.2335966579203159
 20
192.4646602334240129
 30
0.0
 40
0.2259270059744445
 50
86.0030099259340517
 51
93.9969900740659341
  0
ARC
  5
180E0
  8
0
 10
4210.2335966579203159
 20
192.9154120400235115
 30
0.0
 40
0.2259238467826191
 50
266.0029539434132175
 51
273.9970460565867825
  0
ARC
  5
180E1
  8
0
 10
4210.2335966579421438
 20
192.4622804026240033
 30
0.0
 40
0.2259270059744445
 50
86.0030099259340517
 51
93.9969900740659341
  0
ARC
  5
180E2
  8
0
 10
4210.2335966579421438
 20
192.9130322092235019
 30
0.0
 40
0.2259238467826191
 50
266.0029539434132175
 51
273.9970460565867825
  0
ARC
  5
180E3
  8
0
 10
4210.2335966579203159
 20
192.4599005718901878
 30
0.0
 40
0.2259270059744445
 50
86.0030099259340517
 51
93.9969900740659341
  0
ARC
  5
180E4
  8
0
 10
4210.2335966579203159
 20
192.9106523784896865
 30
0.0
 40
0.2259238467826191
 50
266.0029539434132175
 51
273.9970460565867825
  0
ARC
  5
180E5
  8
0
 10
4210.2335966579203159
 20
192.4575207411238864
 30
0.0
 40
0.2259270059744445
 50
86.0030099259340517
 51
93.9969900740659341
  0
ARC
  5
180E6
  8
0
 10
4210.2335966579203159
 20
192.9082725477234987
 30
0.0
 40
0.2259238467826191
 50
266.0029539434132175
 51
273.9970460565867825
  0
ARC
  5
180E7
  8
0
 10
4210.2532816973198351
 20
192.4563308257239953
 30
0.0
 40
0.2259270059744445
 50
86.0030099259340517
 51
93.9969900740659341
  0
ARC
  5
180E8
  8
0
 10
4210.2532816973198351
 20
192.907082632323494
 30
0.0
 40
0.2259238467826191
 50
266.0029539434132175
 51
273.9970460565867825
  0
ARC
  5
180E9
  8
0
 10
4210.2532816973107401
 20
192.458710656507094
 30
0.0
 40
0.2259270059744445
 50
86.0030099259340517
 51
93.9969900740659341
  0
ARC
  5
180EA
  8
0
 10
4210.2532816973107401
 20
192.9094624631065926
 30
0.0
 40
0.2259238467826191
 50
266.0029539434132175
 51
273.9970460565867825
  0
ARC
  5
180EB
  8
0
 10
4210.2532816973280205
 20
192.4610904872901926
 30
0.0
 40
0.2259270059744445
 50
86.0030099259340517
 51
93.9969900740659341
  0
ARC
  5
180EC
  8
0
 10
4210.2532816973280205
 20
192.9118422938896913
 30
0.0
 40
0.2259238467826191
 50
266.0029539434132175
 51
273.9970460565867825
  0
ARC
  5
180ED
  8
0
 10
4210.253281705405243
 20
192.4634703257100057
 30
0.0
 40
0.2259270059744445
 50
86.0030099259340517
 51
93.9969900740659341
  0
ARC
  5
180EE
  8
0
 10
4210.253281705405243
 20
192.9142221323095043
 30
0.0
 40
0.2259238467826191
 50
266.0029539434132175
 51
273.9970460565867825
  0
ARC
  5
180EF
  8
0
 10
4210.2532816973107401
 20
192.4658501488071067
 30
0.0
 40
0.2259270059744445
 50
86.0030099259340517
 51
93.9969900740659341
  0
ARC
  5
180F0
  8
0
 10
4210.2532816973107401
 20
192.9166019554066054
 30
0.0
 40
0.2259238467826191
 50
266.0029539434132175
 51
273.9970460565867825
  0
ARC
  5
180F1
  8
0
 10
4210.2532816973152876
 20
192.4682299795240112
 30
0.0
 40
0.2259270059744445
 50
86.0030099259340517
 51
93.9969900740659341
  0
ARC
  5
180F2
  8
0
 10
4210.2532816973152876
 20
192.9189817861235099
 30
0.0
 40
0.2259238467826191
 50
266.0029539434132175
 51
273.9970460565867825
  0
ARC
  5
180F3
  8
0
 10
4210.2532816973071021
 20
192.4706098103239924
 30
0.0
 40
0.2259270059744445
 50
86.0030099259340517
 51
93.9969900740659341
  0
ARC
  5
180F4
  8
0
 10
4210.2532816973071021
 20
192.9213616169234911
 30
0.0
 40
0.2259238467826191
 50
266.0029539434132175
 51
273.9970460565867825
  0
ARC
  5
180F5
  8
0
 10
4210.2532816973107401
 20
192.4729896411070911
 30
0.0
 40
0.2259270059744445
 50
86.0030099259340517
 51
93.9969900740659341
  0
ARC
  5
180F6
  8
0
 10
4210.2532816973107401
 20
192.9237414477065897
 30
0.0
 40
0.2259238467826191
 50
266.0029539434132175
 51
273.9970460565867825
  0
ARC
  5
180F7
  8
0
 10
4210.2729667367093498
 20
192.4717997257239972
 30
0.0
 40
0.2259270059744445
 50
86.0030099259340517
 51
93.9969900740659341
  0
ARC
  5
180F8
  8
0
 10
4210.2729667367093498
 20
192.9225515323234958
 30
0.0
 40
0.2259238467826191
 50
266.0029539434132175
 51
273.9970460565867825
  0
ARC
  5
180F9
  8
0
 10
4210.2729667367302682
 20
192.4694198949239876
 30
0.0
 40
0.2259270059744445
 50
86.0030099259340517
 51
93.9969900740659341
  0
ARC
  5
180FA
  8
0
 10
4210.2729667367302682
 20
192.9201717015234863
 30
0.0
 40
0.2259238467826191
 50
266.0029539434132175
 51
273.9970460565867825
  0
ARC
  5
180FB
  8
0
 10
4210.2729667367148068
 20
192.4670400641902006
 30
0.0
 40
0.2259270059744445
 50
86.0030099259340517
 51
93.9969900740659341
  0
ARC
  5
180FC
  8
0
 10
4210.2729667367148068
 20
192.9177918707896993
 30
0.0
 40
0.2259238467826191
 50
266.0029539434132175
 51
273.9970460565867825
  0
ARC
  5
180FD
  8
0
 10
4210.2729667367093498
 20
192.4646602334240129
 30
0.0
 40
0.2259270059744445
 50
86.0030099259340517
 51
93.9969900740659341
  0
ARC
  5
180FE
  8
0
 10
4210.2729667367093498
 20
192.9154120400235115
 30
0.0
 40
0.2259238467826191
 50
266.0029539434132175
 51
273.9970460565867825
  0
ARC
  5
180FF
  8
0
 10
4210.2729667367293587
 20
192.4622804026240033
 30
0.0
 40
0.2259270059744445
 50
86.0030099259340517
 51
93.9969900740659341
  0
ARC
  5
18100
  8
0
 10
4210.2729667367293587
 20
192.9130322092235019
 30
0.0
 40
0.2259238467826191
 50
266.0029539434132175
 51
273.9970460565867825
  0
ARC
  5
18101
  8
0
 10
4210.2729667367093498
 20
192.4599005718901878
 30
0.0
 40
0.2259270059744445
 50
86.0030099259340517
 51
93.9969900740659341
  0
ARC
  5
18102
  8
0
 10
4210.2729667367093498
 20
192.9106523784896865
 30
0.0
 40
0.2259238467826191
 50
266.0029539434132175
 51
273.9970460565867825
  0
ARC
  5
18103
  8
0
 10
4210.2729667367093498
 20
192.4575207411238864
 30
0.0
 40
0.2259270059744445
 50
86.0030099259340517
 51
93.9969900740659341
  0
ARC
  5
18104
  8
0
 10
4210.2729667367093498
 20
192.9082725477234987
 30
0.0
 40
0.2259238467826191
 50
266.0029539434132175
 51
273.9970460565867825
  0
ARC
  5
18105
  8
0
 10
4210.2926517760306524
 20
192.4563308257239953
 30
0.0
 40
0.2259270059744445
 50
86.0030099259340517
 51
93.9969900740659341
  0
ARC
  5
18106
  8
0
 10
4210.2926517760306524
 20
192.907082632323494
 30
0.0
 40
0.2259238467826191
 50
266.0029539434132175
 51
273.9970460565867825
  0
ARC
  5
18107
  8
0
 10
4210.292651776020648
 20
192.458710656507094
 30
0.0
 40
0.2259270059744445
 50
86.0030099259340517
 51
93.9969900740659341
  0
ARC
  5
18108
  8
0
 10
4210.292651776020648
 20
192.9094624631065926
 30
0.0
 40
0.2259238467826191
 50
266.0029539434132175
 51
273.9970460565867825
  0
ARC
  5
18109
  8
0
 10
4210.2926517760379284
 20
192.4610904872901926
 30
0.0
 40
0.2259270059744445
 50
86.0030099259340517
 51
93.9969900740659341
  0
ARC
  5
1810A
  8
0
 10
4210.2926517760379284
 20
192.9118422938896913
 30
0.0
 40
0.2259238467826191
 50
266.0029539434132175
 51
273.9970460565867825
  0
ARC
  5
1810B
  8
0
 10
4210.2926517760306524
 20
192.4634703180240081
 30
0.0
 40
0.2259270059744445
 50
86.0030099259340517
 51
93.9969900740659341
  0
ARC
  5
1810C
  8
0
 10
4210.2926517760306524
 20
192.9142221246235067
 30
0.0
 40
0.2259238467826191
 50
266.0029539434132175
 51
273.9970460565867825
  0
ARC
  5
1810D
  8
0
 10
4210.292651776020648
 20
192.4658501488071067
 30
0.0
 40
0.2259270059744445
 50
86.0030099259340517
 51
93.9969900740659341
  0
ARC
  5
1810E
  8
0
 10
4210.292651776020648
 20
192.9166019554066054
 30
0.0
 40
0.2259238467826191
 50
266.0029539434132175
 51
273.9970460565867825
  0
ARC
  5
1810F
  8
0
 10
4210.2926517760251954
 20
192.4682299795240112
 30
0.0
 40
0.2259270059744445
 50
86.0030099259340517
 51
93.9969900740659341
  0
ARC
  5
18110
  8
0
 10
4210.2926517760251954
 20
192.9189817861235099
 30
0.0
 40
0.2259238467826191
 50
266.0029539434132175
 51
273.9970460565867825
  0
ARC
  5
18111
  8
0
 10
4210.29265177601701
 20
192.4706098103239924
 30
0.0
 40
0.2259270059744445
 50
86.0030099259340517
 51
93.9969900740659341
  0
ARC
  5
18112
  8
0
 10
4210.29265177601701
 20
192.9213616169234911
 30
0.0
 40
0.2259238467826191
 50
266.0029539434132175
 51
273.9970460565867825
  0
ARC
  5
18113
  8
0
 10
4210.292651776020648
 20
192.4729896411070911
 30
0.0
 40
0.2259270059744445
 50
86.0030099259340517
 51
93.9969900740659341
  0
ARC
  5
18114
  8
0
 10
4210.292651776020648
 20
192.9237414477065897
 30
0.0
 40
0.2259238467826191
 50
266.0029539434132175
 51
273.9970460565867825
  0
ARC
  5
18115
  8
0
 10
4210.3123368154192576
 20
192.4741795564902134
 30
0.0
 40
0.2259270059744445
 50
86.0030099259340517
 51
93.9969900740659341
  0
ARC
  5
18116
  8
0
 10
4210.3123368154192576
 20
192.924931363089712
 30
0.0
 40
0.2259238467826191
 50
266.0029539434132175
 51
273.9970460565867825
  0
ARC
  5
18117
  8
0
 10
4210.3123368154119817
 20
192.4717997257239972
 30
0.0
 40
0.2259270059744445
 50
86.0030099259340517
 51
93.9969900740659341
  0
ARC
  5
18118
  8
0
 10
4210.3123368154119817
 20
192.9225515323234958
 30
0.0
 40
0.2259238467826191
 50
266.0029539434132175
 51
273.9970460565867825
  0
ARC
  5
18119
  8
0
 10
4210.3123368154329
 20
192.4694198949239876
 30
0.0
 40
0.2259270059744445
 50
86.0030099259340517
 51
93.9969900740659341
  0
ARC
  5
1811A
  8
0
 10
4210.3123368154329
 20
192.9201717015234863
 30
0.0
 40
0.2259238467826191
 50
266.0029539434132175
 51
273.9970460565867825
  0
ARC
  5
1811B
  8
0
 10
4210.3123368154192576
 20
192.4670400641902006
 30
0.0
 40
0.2259270059744445
 50
86.0030099259340517
 51
93.9969900740659341
  0
ARC
  5
1811C
  8
0
 10
4210.3123368154192576
 20
192.9177918707896993
 30
0.0
 40
0.2259238467826191
 50
266.0029539434132175
 51
273.9970460565867825
  0
ARC
  5
1811D
  8
0
 10
4210.3123368154119817
 20
192.4646602334240129
 30
0.0
 40
0.2259270059744445
 50
86.0030099259340517
 51
93.9969900740659341
  0
ARC
  5
1811E
  8
0
 10
4210.3123368154119817
 20
192.9154120400235115
 30
0.0
 40
0.2259238467826191
 50
266.0029539434132175
 51
273.9970460565867825
  0
ARC
  5
1811F
  8
0
 10
4210.312344588299311
 20
192.4622804026240033
 30
0.0
 40
0.2259270059744445
 50
86.0030099259340517
 51
93.9969900740659341
  0
ARC
  5
18120
  8
0
 10
4210.312344588299311
 20
192.9130322092235019
 30
0.0
 40
0.2259238467826191
 50
266.0029539434132175
 51
273.9970460565867825
  0
ARC
  5
18121
  8
0
 10
4210.3123368154119817
 20
192.4599005718901878
 30
0.0
 40
0.2259270059744445
 50
86.0030099259340517
 51
93.9969900740659341
  0
ARC
  5
18122
  8
0
 10
4210.3123368154119817
 20
192.9106523784896865
 30
0.0
 40
0.2259238467826191
 50
266.0029539434132175
 51
273.9970460565867825
  0
ARC
  5
18123
  8
0
 10
4210.3123368154119817
 20
192.4575207411238864
 30
0.0
 40
0.2259270059744445
 50
86.0030099259340517
 51
93.9969900740659341
  0
ARC
  5
18124
  8
0
 10
4210.3123368154119817
 20
192.9082725477234987
 30
0.0
 40
0.2259238467826191
 50
266.0029539434132175
 51
273.9970460565867825
  0
ARC
  5
18125
  8
0
 10
4210.3123368154292621
 20
192.4551409103239905
 30
0.0
 40
0.2259270059744445
 50
86.0030099259340517
 51
93.9969900740659341
  0
ARC
  5
18126
  8
0
 10
4210.3123368154292621
 20
192.9058927169234892
 30
0.0
 40
0.2259238467826191
 50
266.0029539434132175
 51
273.9970460565867825
  0
ARC
  5
18127
  8
0
 10
4210.3320218518801994
 20
192.4563308261213024
 30
0.0
 40
0.2259270059744445
 50
86.0030099259340517
 51
93.9969900740659341
  0
ARC
  5
18128
  8
0
 10
4210.3320218518801994
 20
192.907082632720801
 30
0.0
 40
0.2259238467826191
 50
266.0029539434132175
 51
273.9970460565867825
  0
ARC
  5
18129
  8
0
 10
4210.3320218548087723
 20
192.458710656507094
 30
0.0
 40
0.2259270059744445
 50
86.0030099259340517
 51
93.9969900740659341
  0
ARC
  5
1812A
  8
0
 10
4210.3320218548087723
 20
192.9094624631065926
 30
0.0
 40
0.2259238467826191
 50
266.0029539434132175
 51
273.9970460565867825
  0
ARC
  5
1812B
  8
0
 10
4210.3320218518820184
 20
192.4610904876381881
 30
0.0
 40
0.2259270059744445
 50
86.0030099259340517
 51
93.9969900740659341
  0
ARC
  5
1812C
  8
0
 10
4210.3320218518820184
 20
192.9118422942376867
 30
0.0
 40
0.2259238467826191
 50
266.0029539434132175
 51
273.9970460565867825
  0
ARC
  5
1812D
  8
0
 10
4210.3320218548169578
 20
192.4634703180240081
 30
0.0
 40
0.2259270059744445
 50
86.0030099259340517
 51
93.9969900740659341
  0
ARC
  5
1812E
  8
0
 10
4210.3320218548169578
 20
192.9142221246235067
 30
0.0
 40
0.2259238467826191
 50
266.0029539434132175
 51
273.9970460565867825
  0
ARC
  5
1812F
  8
0
 10
4210.3320218518847469
 20
192.4658501492044138
 30
0.0
 40
0.2259270059744445
 50
86.0030099259340517
 51
93.9969900740659341
  0
ARC
  5
18130
  8
0
 10
4210.3320218518847469
 20
192.9166019558039977
 30
0.0
 40
0.2259238467826191
 50
266.0029539434132175
 51
273.9970460565867825
  0
ARC
  5
18131
  8
0
 10
4210.3320218437011135
 20
192.4682299836914012
 30
0.0
 40
0.2259270059744445
 50
86.0030099259340517
 51
93.9969900740659341
  0
ARC
  5
18132
  8
0
 10
4210.3320218437011135
 20
192.9189817902908999
 30
0.0
 40
0.2259238467826191
 50
266.0029539434132175
 51
273.9970460565867825
  0
ARC
  5
18133
  8
0
 10
4210.3320218518801994
 20
192.4706098107212995
 30
0.0
 40
0.2259270059744445
 50
86.0030099259340517
 51
93.9969900740659341
  0
ARC
  5
18134
  8
0
 10
4210.3320218518801994
 20
192.9213616173207981
 30
0.0
 40
0.2259238467826191
 50
266.0029539434132175
 51
273.9970460565867825
  0
ARC
  5
18135
  8
0
 10
4210.3320218518792899
 20
192.4729896415043982
 30
0.0
 40
0.2259270059744445
 50
86.0030099259340517
 51
93.9969900740659341
  0
ARC
  5
18136
  8
0
 10
4210.3320218518792899
 20
192.9237414481040105
 30
0.0
 40
0.2259238467826191
 50
266.0029539434132175
 51
273.9970460565867825
  0
ARC
  5
18137
  8
0
 10
4210.3517068830469725
 20
192.4741795605914092
 30
0.0
 40
0.2259270059744445
 50
86.0030099259340517
 51
93.9969900740659341
  0
ARC
  5
18138
  8
0
 10
4210.3517068830469725
 20
192.9249313671909078
 30
0.0
 40
0.2259238467826191
 50
266.0029539434132175
 51
273.9970460565867825
  0
ARC
  5
18139
  8
0
 10
4210.351706883042425
 20
192.4717997298745047
 30
0.0
 40
0.2259270059744445
 50
86.0030099259340517
 51
93.9969900740659341
  0
ARC
  5
1813A
  8
0
 10
4210.351706883042425
 20
192.9225515364740033
 30
0.0
 40
0.2259238467826191
 50
266.0029539434132175
 51
273.9970460565867825
  0
ARC
  5
1813B
  8
0
 10
4210.3517068830342396
 20
192.4694198990744951
 30
0.0
 40
0.2259270059744445
 50
86.0030099259340517
 51
93.9969900740659341
  0
ARC
  5
1813C
  8
0
 10
4210.3517068830342396
 20
192.9201717056739938
 30
0.0
 40
0.2259238467826191
 50
266.0029539434132175
 51
273.9970460565867825
  0
ARC
  5
1813D
  8
0
 10
4210.3517068830469725
 20
192.4670400682913964
 30
0.0
 40
0.2259270059744445
 50
86.0030099259340517
 51
93.9969900740659341
  0
ARC
  5
1813E
  8
0
 10
4210.3517068830469725
 20
192.9177918748908951
 30
0.0
 40
0.2259238467826191
 50
266.0029539434132175
 51
273.9970460565867825
  0
ARC
  5
1813F
  8
0
 10
4210.3517068920309612
 20
192.4646602437127001
 30
0.0
 40
0.2259270059744445
 50
86.0030099259340517
 51
93.9969900740659341
  0
ARC
  5
18140
  8
0
 10
4210.3517068920309612
 20
192.9154120503121987
 30
0.0
 40
0.2259238467826191
 50
266.0029539434132175
 51
273.9970460565867825
  0
ARC
  5
18141
  8
0
 10
4210.3517146085760032
 20
192.4622804067745108
 30
0.0
 40
0.2259270059744445
 50
86.0030099259340517
 51
93.9969900740659341
  0
ARC
  5
18142
  8
0
 10
4210.3517146085760032
 20
192.9130322133740094
 30
0.0
 40
0.2259238467826191
 50
266.0029539434132175
 51
273.9970460565867825
  0
ARC
  5
18143
  8
0
 10
4210.351706883046063
 20
192.4599005759914121
 30
0.0
 40
0.2259270059744445
 50
86.0030099259340517
 51
93.9969900740659341
  0
ARC
  5
18144
  8
0
 10
4210.351706883046063
 20
192.9106523825909107
 30
0.0
 40
0.2259238467826191
 50
266.0029539434132175
 51
273.9970460565867825
  0
ARC
  5
18145
  8
0
 10
4210.351706883042425
 20
192.4575207452745076
 30
0.0
 40
0.2259270059744445
 50
86.0030099259340517
 51
93.9969900740659341
  0
ARC
  5
18146
  8
0
 10
4210.351706883042425
 20
192.9082725518740062
 30
0.0
 40
0.2259238467826191
 50
266.0029539434132175
 51
273.9970460565867825
  0
ARC
  5
18147
  8
0
 10
4210.351706883046063
 20
192.455140914474498
 30
0.0
 40
0.2259270059744445
 50
86.0030099259340517
 51
93.9969900740659341
  0
ARC
  5
18148
  8
0
 10
4210.351706883046063
 20
192.9058927210739967
 30
0.0
 40
0.2259238467826191
 50
266.0029539434132175
 51
273.9970460565867825
  0
ARC
  5
18149
  8
0
 10
4210.3713919224046549
 20
192.4563308298745028
 30
0.0
 40
0.2259270059744445
 50
86.0030099259340517
 51
93.9969900740659341
  0
ARC
  5
1814A
  8
0
 10
4210.3713919224046549
 20
192.9070826364740014
 30
0.0
 40
0.2259238467826191
 50
266.0029539434132175
 51
273.9970460565867825
  0
ARC
  5
1814B
  8
0
 10
4210.3713919335195897
 20
192.458710656507094
 30
0.0
 40
0.2259270059744445
 50
86.0030099259340517
 51
93.9969900740659341
  0
ARC
  5
1814C
  8
0
 10
4210.3713919335195897
 20
192.9094624631065926
 30
0.0
 40
0.2259238467826191
 50
266.0029539434132175
 51
273.9970460565867825
  0
ARC
  5
1814D
  8
0
 10
4210.3713919224119309
 20
192.4610904913913885
 30
0.0
 40
0.2259270059744445
 50
86.0030099259340517
 51
93.9969900740659341
  0
ARC
  5
1814E
  8
0
 10
4210.3713919224119309
 20
192.9118422979908871
 30
0.0
 40
0.2259238467826191
 50
266.0029539434132175
 51
273.9970460565867825
  0
ARC
  5
1814F
  8
0
 10
4210.3713919416140925
 20
192.4634703257100057
 30
0.0
 40
0.2259270059744445
 50
86.0030099259340517
 51
93.9969900740659341
  0
ARC
  5
18150
  8
0
 10
4210.3713919416140925
 20
192.9142221323095043
 30
0.0
 40
0.2259238467826191
 50
266.0029539434132175
 51
273.9970460565867825
  0
ARC
  5
18151
  8
0
 10
4210.3713919335195897
 20
192.4658501488071067
 30
0.0
 40
0.2259270059744445
 50
86.0030099259340517
 51
93.9969900740659341
  0
ARC
  5
18152
  8
0
 10
4210.3713919335195897
 20
192.9166019554066054
 30
0.0
 40
0.2259238467826191
 50
266.0029539434132175
 51
273.9970460565867825
  0
ARC
  5
18153
  8
0
 10
4210.3713919305946547
 20
192.4682299799382008
 30
0.0
 40
0.2259270059744445
 50
86.0030099259340517
 51
93.9969900740659341
  0
ARC
  5
18154
  8
0
 10
4210.3713919305946547
 20
192.9189817865376995
 30
0.0
 40
0.2259238467826191
 50
266.0029539434132175
 51
273.9970460565867825
  0
ARC
  5
18155
  8
0
 10
4210.3713919224046549
 20
192.4706098144744999
 30
0.0
 40
0.2259270059744445
 50
86.0030099259340517
 51
93.9969900740659341
  0
ARC
  5
18156
  8
0
 10
4210.3713919224046549
 20
192.9213616210739985
 30
0.0
 40
0.2259238467826191
 50
266.0029539434132175
 51
273.9970460565867825
  0
ARC
  5
18157
  8
0
 10
4210.3713919224210258
 20
192.4729896452082869
 30
0.0
 40
0.2259270059744445
 50
86.0030099259340517
 51
93.9969900740659341
  0
ARC
  5
18158
  8
0
 10
4210.3713919224210258
 20
192.923741451807814
 30
0.0
 40
0.2259238467826191
 50
266.0029539434132175
 51
273.9970460565867825
  0
ARC
  5
18159
  8
0
 10
4210.3910769617987171
 20
192.455140914474498
 30
0.0
 40
0.2259270059744445
 50
86.0030099259340517
 51
93.9969900740659341
  0
ARC
  5
1815A
  8
0
 10
4210.3910769617987171
 20
192.9058927210739967
 30
0.0
 40
0.2259238467826191
 50
266.0029539434132175
 51
273.9970460565867825
  0
ARC
  5
1815B
  8
0
 10
4210.3910769617932601
 20
192.4575207452745076
 30
0.0
 40
0.2259270059744445
 50
86.0030099259340517
 51
93.9969900740659341
  0
ARC
  5
1815C
  8
0
 10
4210.3910769617932601
 20
192.9082725518740062
 30
0.0
 40
0.2259238467826191
 50
266.0029539434132175
 51
273.9970460565867825
  0
ARC
  5
1815D
  8
0
 10
4210.3910769699868979
 20
192.4599005723044058
 30
0.0
 40
0.2259270059744445
 50
86.0030099259340517
 51
93.9969900740659341
  0
ARC
  5
1815E
  8
0
 10
4210.3910769699868979
 20
192.9106523789039898
 30
0.0
 40
0.2259238467826191
 50
266.0029539434132175
 51
273.9970460565867825
  0
ARC
  5
1815F
  8
0
 10
4210.3910769729327512
 20
192.4622804026240033
 30
0.0
 40
0.2259270059744445
 50
86.0030099259340517
 51
93.9969900740659341
  0
ARC
  5
18160
  8
0
 10
4210.3910769729327512
 20
192.9130322092235019
 30
0.0
 40
0.2259238467826191
 50
266.0029539434132175
 51
273.9970460565867825
  0
ARC
  5
18161
  8
0
 10
4210.3910769729109234
 20
192.4646602334240129
 30
0.0
 40
0.2259270059744445
 50
86.0030099259340517
 51
93.9969900740659341
  0
ARC
  5
18162
  8
0
 10
4210.3910769729109234
 20
192.9154120400235115
 30
0.0
 40
0.2259238467826191
 50
266.0029539434132175
 51
273.9970460565867825
  0
ARC
  5
18163
  8
0
 10
4210.3910769729172898
 20
192.4670400641902006
 30
0.0
 40
0.2259270059744445
 50
86.0030099259340517
 51
93.9969900740659341
  0
ARC
  5
18164
  8
0
 10
4210.3910769729172898
 20
192.9177918707896993
 30
0.0
 40
0.2259238467826191
 50
266.0029539434132175
 51
273.9970460565867825
  0
ARC
  5
18165
  8
0
 10
4210.3910769699896264
 20
192.4694198953212947
 30
0.0
 40
0.2259270059744445
 50
86.0030099259340517
 51
93.9969900740659341
  0
ARC
  5
18166
  8
0
 10
4210.3910769699896264
 20
192.9201717019207933
 30
0.0
 40
0.2259238467826191
 50
266.0029539434132175
 51
273.9970460565867825
  0
ARC
  5
18167
  8
0
 10
4210.3910769617932601
 20
192.4717997298745047
 30
0.0
 40
0.2259270059744445
 50
86.0030099259340517
 51
93.9969900740659341
  0
ARC
  5
18168
  8
0
 10
4210.3910769617932601
 20
192.9225515364740033
 30
0.0
 40
0.2259238467826191
 50
266.0029539434132175
 51
273.9970460565867825
  0
ARC
  5
18169
  8
0
 10
4210.3910769699823504
 20
192.4741795569044029
 30
0.0
 40
0.2259270059744445
 50
86.0030099259340517
 51
93.9969900740659341
  0
ARC
  5
1816A
  8
0
 10
4210.3910769699823504
 20
192.9249313635039016
 30
0.0
 40
0.2259238467826191
 50
266.0029539434132175
 51
273.9970460565867825
  0
ARC
  5
1816B
  8
0
 10
4210.4107620093700461
 20
192.4563308261213024
 30
0.0
 40
0.2259270059744445
 50
86.0030099259340517
 51
93.9969900740659341
  0
ARC
  5
1816C
  8
0
 10
4210.4107620093700461
 20
192.907082632720801
 30
0.0
 40
0.2259238467826191
 50
266.0029539434132175
 51
273.9970460565867825
  0
ARC
  5
1816D
  8
0
 10
4210.4107620122986191
 20
192.458710656507094
 30
0.0
 40
0.2259270059744445
 50
86.0030099259340517
 51
93.9969900740659341
  0
ARC
  5
1816E
  8
0
 10
4210.4107620122986191
 20
192.9094624631065926
 30
0.0
 40
0.2259238467826191
 50
266.0029539434132175
 51
273.9970460565867825
  0
ARC
  5
1816F
  8
0
 10
4210.4107620011873223
 20
192.4610904913913885
 30
0.0
 40
0.2259270059744445
 50
86.0030099259340517
 51
93.9969900740659341
  0
ARC
  5
18170
  8
0
 10
4210.4107620011873223
 20
192.9118422979908871
 30
0.0
 40
0.2259238467826191
 50
266.0029539434132175
 51
273.9970460565867825
  0
ARC
  5
18171
  8
0
 10
4210.4107620204003979
 20
192.4634703257100057
 30
0.0
 40
0.2259270059744445
 50
86.0030099259340517
 51
93.9969900740659341
  0
ARC
  5
18172
  8
0
 10
4210.4107620204003979
 20
192.9142221323095043
 30
0.0
 40
0.2259238467826191
 50
266.0029539434132175
 51
273.9970460565867825
  0
ARC
  5
18173
  8
0
 10
4210.4107620122986191
 20
192.4658501488071067
 30
0.0
 40
0.2259270059744445
 50
86.0030099259340517
 51
93.9969900740659341
  0
ARC
  5
18174
  8
0
 10
4210.4107620122986191
 20
192.9166019554066054
 30
0.0
 40
0.2259238467826191
 50
266.0029539434132175
 51
273.9970460565867825
  0
ARC
  5
18175
  8
0
 10
4210.4107620093727746
 20
192.4682299799382008
 30
0.0
 40
0.2259270059744445
 50
86.0030099259340517
 51
93.9969900740659341
  0
ARC
  5
18176
  8
0
 10
4210.4107620093727746
 20
192.9189817865376995
 30
0.0
 40
0.2259238467826191
 50
266.0029539434132175
 51
273.9970460565867825
  0
ARC
  5
18177
  8
0
 10
4210.4107620011800464
 20
192.4706098144744999
 30
0.0
 40
0.2259270059744445
 50
86.0030099259340517
 51
93.9969900740659341
  0
ARC
  5
18178
  8
0
 10
4210.4107620011800464
 20
192.9213616210739985
 30
0.0
 40
0.2259238467826191
 50
266.0029539434132175
 51
273.9970460565867825
  0
ARC
  5
18179
  8
0
 10
4210.4107620011945983
 20
192.4729896452082869
 30
0.0
 40
0.2259270059744445
 50
86.0030099259340517
 51
93.9969900740659341
  0
ARC
  5
1817A
  8
0
 10
4210.4107620011945983
 20
192.923741451807814
 30
0.0
 40
0.2259238467826191
 50
266.0029539434132175
 51
273.9970460565867825
  0
ARC
  5
1817B
  8
0
 10
4210.4304470516381116
 20
192.4551409103239905
 30
0.0
 40
0.2259270059744445
 50
86.0030099259340517
 51
93.9969900740659341
  0
ARC
  5
1817C
  8
0
 10
4210.4304470516381116
 20
192.9058927169234892
 30
0.0
 40
0.2259238467826191
 50
266.0029539434132175
 51
273.9970460565867825
  0
ARC
  5
1817D
  8
0
 10
4210.4304470486986247
 20
192.4575207415043963
 30
0.0
 40
0.2259270059744445
 50
86.0030099259340517
 51
93.9969900740659341
  0
ARC
  5
1817E
  8
0
 10
4210.4304470486986247
 20
192.9082725481040086
 30
0.0
 40
0.2259238467826191
 50
266.0029539434132175
 51
273.9970460565867825
  0
ARC
  5
1817F
  8
0
 10
4210.4304470516208312
 20
192.4599005718901878
 30
0.0
 40
0.2259270059744445
 50
86.0030099259340517
 51
93.9969900740659341
  0
ARC
  5
18180
  8
0
 10
4210.4304470516208312
 20
192.9106523784896865
 30
0.0
 40
0.2259238467826191
 50
266.0029539434132175
 51
273.9970460565867825
  0
ARC
  5
18181
  8
0
 10
4210.4304470516408401
 20
192.4622804026240033
 30
0.0
 40
0.2259270059744445
 50
86.0030099259340517
 51
93.9969900740659341
  0
ARC
  5
18182
  8
0
 10
4210.4304470516408401
 20
192.9130322092235019
 30
0.0
 40
0.2259238467826191
 50
266.0029539434132175
 51
273.9970460565867825
  0
ARC
  5
18183
  8
0
 10
4210.4304470516208312
 20
192.4646602334240129
 30
0.0
 40
0.2259270059744445
 50
86.0030099259340517
 51
93.9969900740659341
  0
ARC
  5
18184
  8
0
 10
4210.4304470516208312
 20
192.9154120400235115
 30
0.0
 40
0.2259238467826191
 50
266.0029539434132175
 51
273.9970460565867825
  0
ARC
  5
18185
  8
0
 10
4210.4304470516271977
 20
192.4670400641902006
 30
0.0
 40
0.2259270059744445
 50
86.0030099259340517
 51
93.9969900740659341
  0
ARC
  5
18186
  8
0
 10
4210.4304470516271977
 20
192.9177918707896993
 30
0.0
 40
0.2259238467826191
 50
266.0029539434132175
 51
273.9970460565867825
  0
ARC
  5
18187
  8
0
 10
4210.4304470486986247
 20
192.4694198953212947
 30
0.0
 40
0.2259270059744445
 50
86.0030099259340517
 51
93.9969900740659341
  0
ARC
  5
18188
  8
0
 10
4210.4304470486986247
 20
192.9201717019207933
 30
0.0
 40
0.2259238467826191
 50
266.0029539434132175
 51
273.9970460565867825
  0
ARC
  5
18189
  8
0
 10
4210.4304470487022627
 20
192.4717997261043934
 30
0.0
 40
0.2259270059744445
 50
86.0030099259340517
 51
93.9969900740659341
  0
ARC
  5
1818A
  8
0
 10
4210.4304470487022627
 20
192.9225515327040057
 30
0.0
 40
0.2259238467826191
 50
266.0029539434132175
 51
273.9970460565867825
  0
ARC
  5
1818B
  8
0
 10
4210.4304470516271977
 20
192.4741795564902134
 30
0.0
 40
0.2259270059744445
 50
86.0030099259340517
 51
93.9969900740659341
  0
ARC
  5
1818C
  8
0
 10
4210.4304470516271977
 20
192.924931363089712
 30
0.0
 40
0.2259238467826191
 50
266.0029539434132175
 51
273.9970460565867825
  0
ARC
  5
1818D
  8
0
 10
4210.4501320880890489
 20
192.4563308261213024
 30
0.0
 40
0.2259270059744445
 50
86.0030099259340517
 51
93.9969900740659341
  0
ARC
  5
1818E
  8
0
 10
4210.4501320880890489
 20
192.907082632720801
 30
0.0
 40
0.2259238467826191
 50
266.0029539434132175
 51
273.9970460565867825
  0
ARC
  5
1818F
  8
0
 10
4210.4501320910103459
 20
192.458710656507094
 30
0.0
 40
0.2259270059744445
 50
86.0030099259340517
 51
93.9969900740659341
  0
ARC
  5
18190
  8
0
 10
4210.4501320910103459
 20
192.9094624631065926
 30
0.0
 40
0.2259238467826191
 50
266.0029539434132175
 51
273.9970460565867825
  0
ARC
  5
18191
  8
0
 10
4210.4501320799026871
 20
192.4610904913913885
 30
0.0
 40
0.2259270059744445
 50
86.0030099259340517
 51
93.9969900740659341
  0
ARC
  5
18192
  8
0
 10
4210.4501320799026871
 20
192.9118422979908871
 30
0.0
 40
0.2259238467826191
 50
266.0029539434132175
 51
273.9970460565867825
  0
ARC
  5
18193
  8
0
 10
4210.4501320910203503
 20
192.4634703180240081
 30
0.0
 40
0.2259270059744445
 50
86.0030099259340517
 51
93.9969900740659341
  0
ARC
  5
18194
  8
0
 10
4210.4501320910203503
 20
192.9142221246235067
 30
0.0
 40
0.2259238467826191
 50
266.0029539434132175
 51
273.9970460565867825
  0
ARC
  5
18195
  8
0
 10
4210.4501320880935964
 20
192.4658501492044138
 30
0.0
 40
0.2259270059744445
 50
86.0030099259340517
 51
93.9969900740659341
  0
ARC
  5
18196
  8
0
 10
4210.4501320880935964
 20
192.9166019558039977
 30
0.0
 40
0.2259238467826191
 50
266.0029539434132175
 51
273.9970460565867825
  0
ARC
  5
18197
  8
0
 10
4210.4501320799008681
 20
192.4682299836914012
 30
0.0
 40
0.2259270059744445
 50
86.0030099259340517
 51
93.9969900740659341
  0
ARC
  5
18198
  8
0
 10
4210.4501320799008681
 20
192.9189817902908999
 30
0.0
 40
0.2259238467826191
 50
266.0029539434132175
 51
273.9970460565867825
  0
ARC
  5
18199
  8
0
 10
4210.4501320880890489
 20
192.4706098107212995
 30
0.0
 40
0.2259270059744445
 50
86.0030099259340517
 51
93.9969900740659341
  0
ARC
  5
1819A
  8
0
 10
4210.4501320880890489
 20
192.9213616173207981
 30
0.0
 40
0.2259238467826191
 50
266.0029539434132175
 51
273.9970460565867825
  0
ARC
  5
1819B
  8
0
 10
4210.4501320880863204
 20
192.4729896415043982
 30
0.0
 40
0.2259270059744445
 50
86.0030099259340517
 51
93.9969900740659341
  0
ARC
  5
1819C
  8
0
 10
4210.4501320880863204
 20
192.9237414481040105
 30
0.0
 40
0.2259238467826191
 50
266.0029539434132175
 51
273.9970460565867825
  0
ARC
  5
1819D
  8
0
 10
4210.469817130426236
 20
192.4551409103239905
 30
0.0
 40
0.2259270059744445
 50
86.0030099259340517
 51
93.9969900740659341
  0
ARC
  5
1819E
  8
0
 10
4210.469817130426236
 20
192.9058927169234892
 30
0.0
 40
0.2259238467826191
 50
266.0029539434132175
 51
273.9970460565867825
  0
ARC
  5
1819F
  8
0
 10
4210.4698171304080461
 20
192.4575207411238864
 30
0.0
 40
0.2259270059744445
 50
86.0030099259340517
 51
93.9969900740659341
  0
ARC
  5
181A0
  8
0
 10
4210.4698171304080461
 20
192.9082725477234987
 30
0.0
 40
0.2259238467826191
 50
266.0029539434132175
 51
273.9970460565867825
  0
ARC
  5
181A1
  8
0
 10
4210.4698171304080461
 20
192.4599005718901878
 30
0.0
 40
0.2259270059744445
 50
86.0030099259340517
 51
93.9969900740659341
  0
ARC
  5
181A2
  8
0
 10
4210.4698171304080461
 20
192.9106523784896865
 30
0.0
 40
0.2259238467826191
 50
266.0029539434132175
 51
273.9970460565867825
  0
ARC
  5
181A3
  8
0
 10
4210.4698171304289644
 20
192.4622804026240033
 30
0.0
 40
0.2259270059744445
 50
86.0030099259340517
 51
93.9969900740659341
  0
ARC
  5
181A4
  8
0
 10
4210.4698171304289644
 20
192.9130322092235019
 30
0.0
 40
0.2259238467826191
 50
266.0029539434132175
 51
273.9970460565867825
  0
ARC
  5
181A5
  8
0
 10
4210.4698171304080461
 20
192.4646602334240129
 30
0.0
 40
0.2259270059744445
 50
86.0030099259340517
 51
93.9969900740659341
  0
ARC
  5
181A6
  8
0
 10
4210.4698171304080461
 20
192.9154120400235115
 30
0.0
 40
0.2259238467826191
 50
266.0029539434132175
 51
273.9970460565867825
  0
ARC
  5
181A7
  8
0
 10
4210.4698171274740162
 20
192.4670400646043902
 30
0.0
 40
0.2259270059744445
 50
86.0030099259340517
 51
93.9969900740659341
  0
ARC
  5
181A8
  8
0
 10
4210.4698171274740162
 20
192.9177918712038888
 30
0.0
 40
0.2259238467826191
 50
266.0029539434132175
 51
273.9970460565867825
  0
ARC
  5
181A9
  8
0
 10
4210.4698171304289644
 20
192.4694198949239876
 30
0.0
 40
0.2259270059744445
 50
86.0030099259340517
 51
93.9969900740659341
  0
ARC
  5
181AA
  8
0
 10
4210.4698171304289644
 20
192.9201717015234863
 30
0.0
 40
0.2259238467826191
 50
266.0029539434132175
 51
273.9970460565867825
  0
ARC
  5
181AB
  8
0
 10
4210.4698171304089556
 20
192.4717997257239972
 30
0.0
 40
0.2259270059744445
 50
86.0030099259340517
 51
93.9969900740659341
  0
ARC
  5
181AC
  8
0
 10
4210.4698171304089556
 20
192.9225515323234958
 30
0.0
 40
0.2259238467826191
 50
266.0029539434132175
 51
273.9970460565867825
  0
ARC
  5
181AD
  8
0
 10
4210.4698171304144125
 20
192.4741795564902134
 30
0.0
 40
0.2259270059744445
 50
86.0030099259340517
 51
93.9969900740659341
  0
ARC
  5
181AE
  8
0
 10
4210.4698171304144125
 20
192.924931363089712
 30
0.0
 40
0.2259238467826191
 50
266.0029539434132175
 51
273.9970460565867825
  0
ARC
  5
181AF
  8
0
 10
4210.4895021697302582
 20
192.4563308257239953
 30
0.0
 40
0.2259270059744445
 50
86.0030099259340517
 51
93.9969900740659341
  0
ARC
  5
181B0
  8
0
 10
4210.4895021697302582
 20
192.907082632323494
 30
0.0
 40
0.2259238467826191
 50
266.0029539434132175
 51
273.9970460565867825
  0
ARC
  5
181B1
  8
0
 10
4210.4895021697202537
 20
192.458710656507094
 30
0.0
 40
0.2259270059744445
 50
86.0030099259340517
 51
93.9969900740659341
  0
ARC
  5
181B2
  8
0
 10
4210.4895021697202537
 20
192.9094624631065926
 30
0.0
 40
0.2259238467826191
 50
266.0029539434132175
 51
273.9970460565867825
  0
ARC
  5
181B3
  8
0
 10
4210.4895021697384436
 20
192.4610904872901926
 30
0.0
 40
0.2259270059744445
 50
86.0030099259340517
 51
93.9969900740659341
  0
ARC
  5
181B4
  8
0
 10
4210.4895021697384436
 20
192.9118422938896913
 30
0.0
 40
0.2259238467826191
 50
266.0029539434132175
 51
273.9970460565867825
  0
ARC
  5
181B5
  8
0
 10
4210.4895021697302582
 20
192.4634703180240081
 30
0.0
 40
0.2259270059744445
 50
86.0030099259340517
 51
93.9969900740659341
  0
ARC
  5
181B6
  8
0
 10
4210.4895021697302582
 20
192.9142221246235067
 30
0.0
 40
0.2259238467826191
 50
266.0029539434132175
 51
273.9970460565867825
  0
ARC
  5
181B7
  8
0
 10
4210.4895021697202537
 20
192.4658501488071067
 30
0.0
 40
0.2259270059744445
 50
86.0030099259340517
 51
93.9969900740659341
  0
ARC
  5
181B8
  8
0
 10
4210.4895021697202537
 20
192.9166019554066054
 30
0.0
 40
0.2259238467826191
 50
266.0029539434132175
 51
273.9970460565867825
  0
ARC
  5
181B9
  8
0
 10
4210.4895021697238917
 20
192.4682299795240112
 30
0.0
 40
0.2259270059744445
 50
86.0030099259340517
 51
93.9969900740659341
  0
ARC
  5
181BA
  8
0
 10
4210.4895021697238917
 20
192.9189817861235099
 30
0.0
 40
0.2259238467826191
 50
266.0029539434132175
 51
273.9970460565867825
  0
ARC
  5
181BB
  8
0
 10
4210.4895021697184347
 20
192.4706098103239924
 30
0.0
 40
0.2259270059744445
 50
86.0030099259340517
 51
93.9969900740659341
  0
ARC
  5
181BC
  8
0
 10
4210.4895021697184347
 20
192.9213616169234911
 30
0.0
 40
0.2259238467826191
 50
266.0029539434132175
 51
273.9970460565867825
  0
ARC
  5
181BD
  8
0
 10
4210.4895021697202537
 20
192.4729896411070911
 30
0.0
 40
0.2259270059744445
 50
86.0030099259340517
 51
93.9969900740659341
  0
ARC
  5
181BE
  8
0
 10
4210.4895021697202537
 20
192.9237414477065897
 30
0.0
 40
0.2259238467826191
 50
266.0029539434132175
 51
273.9970460565867825
  0
ARC
  5
181BF
  8
0
 10
4210.5091872091106779
 20
192.4575207411238864
 30
0.0
 40
0.2259270059744445
 50
86.0030099259340517
 51
93.9969900740659341
  0
ARC
  5
181C0
  8
0
 10
4210.5091872091106779
 20
192.9082725477234987
 30
0.0
 40
0.2259238467826191
 50
266.0029539434132175
 51
273.9970460565867825
  0
ARC
  5
181C1
  8
0
 10
4210.5091872091115874
 20
192.4599005718901878
 30
0.0
 40
0.2259270059744445
 50
86.0030099259340517
 51
93.9969900740659341
  0
ARC
  5
181C2
  8
0
 10
4210.5091872091115874
 20
192.9106523784896865
 30
0.0
 40
0.2259238467826191
 50
266.0029539434132175
 51
273.9970460565867825
  0
ARC
  5
181C3
  8
0
 10
4210.5091872091334153
 20
192.4622804026240033
 30
0.0
 40
0.2259270059744445
 50
86.0030099259340517
 51
93.9969900740659341
  0
ARC
  5
181C4
  8
0
 10
4210.5091872091334153
 20
192.9130322092235019
 30
0.0
 40
0.2259238467826191
 50
266.0029539434132175
 51
273.9970460565867825
  0
ARC
  5
181C5
  8
0
 10
4210.5091872091106779
 20
192.4646602334240129
 30
0.0
 40
0.2259270059744445
 50
86.0030099259340517
 51
93.9969900740659341
  0
ARC
  5
181C6
  8
0
 10
4210.5091872091106779
 20
192.9154120400235115
 30
0.0
 40
0.2259238467826191
 50
266.0029539434132175
 51
273.9970460565867825
  0
ARC
  5
181C7
  8
0
 10
4210.5091872091179539
 20
192.4670400641902006
 30
0.0
 40
0.2259270059744445
 50
86.0030099259340517
 51
93.9969900740659341
  0
ARC
  5
181C8
  8
0
 10
4210.5091872091179539
 20
192.9177918707896993
 30
0.0
 40
0.2259238467826191
 50
266.0029539434132175
 51
273.9970460565867825
  0
ARC
  5
181C9
  8
0
 10
4210.5091872091334153
 20
192.4694198949239876
 30
0.0
 40
0.2259270059744445
 50
86.0030099259340517
 51
93.9969900740659341
  0
ARC
  5
181CA
  8
0
 10
4210.5091872091334153
 20
192.9201717015234863
 30
0.0
 40
0.2259238467826191
 50
266.0029539434132175
 51
273.9970460565867825
  0
ARC
  5
181CB
  8
0
 10
4210.5091874528097833
 20
192.4717997257237982
 30
0.0
 40
0.2259270059744445
 50
86.0030099259340517
 51
93.9969900740659341
  0
ARC
  5
181CC
  8
0
 10
4210.5091874528097833
 20
192.9225515323232969
 30
0.0
 40
0.2259238467826191
 50
266.0029539434132175
 51
273.9970460565867825
  0
ARC
  5
181CD
  8
0
 10
4210.5288722485092876
 20
192.4729896411070911
 30
0.0
 40
0.2259270059744445
 50
86.0030099259340517
 51
93.9969900740659341
  0
ARC
  5
181CE
  8
0
 10
4210.5288722485092876
 20
192.9237414477065897
 30
0.0
 40
0.2259238467826191
 50
266.0029539434132175
 51
273.9970460565867825
  0
ARC
  5
181CF
  8
0
 10
4210.5288722485047401
 20
192.4706098103239924
 30
0.0
 40
0.2259270059744445
 50
86.0030099259340517
 51
93.9969900740659341
  0
ARC
  5
181D0
  8
0
 10
4210.5288722485047401
 20
192.9213616169234911
 30
0.0
 40
0.2259238467826191
 50
266.0029539434132175
 51
273.9970460565867825
  0
ARC
  5
181D1
  8
0
 10
4210.5288722485120161
 20
192.4682299795240112
 30
0.0
 40
0.2259270059744445
 50
86.0030099259340517
 51
93.9969900740659341
  0
ARC
  5
181D2
  8
0
 10
4210.5288722485120161
 20
192.9189817861235099
 30
0.0
 40
0.2259238467826191
 50
266.0029539434132175
 51
273.9970460565867825
  0
ARC
  5
181D3
  8
0
 10
4210.5288722485092876
 20
192.4658501488071067
 30
0.0
 40
0.2259270059744445
 50
86.0030099259340517
 51
93.9969900740659341
  0
ARC
  5
181D4
  8
0
 10
4210.5288722485092876
 20
192.9166019554066054
 30
0.0
 40
0.2259238467826191
 50
266.0029539434132175
 51
273.9970460565867825
  0
ARC
  5
181D5
  8
0
 10
4210.5288722566019715
 20
192.4634703257100057
 30
0.0
 40
0.2259270059744445
 50
86.0030099259340517
 51
93.9969900740659341
  0
ARC
  5
181D6
  8
0
 10
4210.5288722566019715
 20
192.9142221323095043
 30
0.0
 40
0.2259238467826191
 50
266.0029539434132175
 51
273.9970460565867825
  0
ARC
  5
181D7
  8
0
 10
4210.528872248524749
 20
192.4610904872901926
 30
0.0
 40
0.2259270059744445
 50
86.0030099259340517
 51
93.9969900740659341
  0
ARC
  5
181D8
  8
0
 10
4210.528872248524749
 20
192.9118422938896913
 30
0.0
 40
0.2259238467826191
 50
266.0029539434132175
 51
273.9970460565867825
  0
ARC
  5
181D9
  8
0
 10
4210.5288722485092876
 20
192.458710656507094
 30
0.0
 40
0.2259270059744445
 50
86.0030099259340517
 51
93.9969900740659341
  0
ARC
  5
181DA
  8
0
 10
4210.5288722485092876
 20
192.9094624631065926
 30
0.0
 40
0.2259238467826191
 50
266.0029539434132175
 51
273.9970460565867825
  0
ARC
  5
181DB
  8
0
 10
4210.5288722485165636
 20
192.4563308257239953
 30
0.0
 40
0.2259270059744445
 50
86.0030099259340517
 51
93.9969900740659341
  0
ARC
  5
181DC
  8
0
 10
4210.5288722485165636
 20
192.907082632323494
 30
0.0
 40
0.2259238467826191
 50
266.0029539434132175
 51
273.9970460565867825
  0
ARC
  5
181DD
  8
0
 10
4210.5485572878988023
 20
192.4717997257239972
 30
0.0
 40
0.2259270059744445
 50
86.0030099259340517
 51
93.9969900740659341
  0
ARC
  5
181DE
  8
0
 10
4210.5485572878988023
 20
192.9225515323234958
 30
0.0
 40
0.2259238467826191
 50
266.0029539434132175
 51
273.9970460565867825
  0
ARC
  5
181DF
  8
0
 10
4210.5485572879188112
 20
192.4694198949239876
 30
0.0
 40
0.2259270059744445
 50
86.0030099259340517
 51
93.9969900740659341
  0
ARC
  5
181E0
  8
0
 10
4210.5485572879188112
 20
192.9201717015234863
 30
0.0
 40
0.2259238467826191
 50
266.0029539434132175
 51
273.9970460565867825
  0
ARC
  5
181E1
  8
0
 10
4210.5485572879042593
 20
192.4670400641902006
 30
0.0
 40
0.2259270059744445
 50
86.0030099259340517
 51
93.9969900740659341
  0
ARC
  5
181E2
  8
0
 10
4210.5485572879042593
 20
192.9177918707896993
 30
0.0
 40
0.2259238467826191
 50
266.0029539434132175
 51
273.9970460565867825
  0
ARC
  5
181E3
  8
0
 10
4210.5485572878978928
 20
192.4646602334240129
 30
0.0
 40
0.2259270059744445
 50
86.0030099259340517
 51
93.9969900740659341
  0
ARC
  5
181E4
  8
0
 10
4210.5485572878978928
 20
192.9154120400235115
 30
0.0
 40
0.2259238467826191
 50
266.0029539434132175
 51
273.9970460565867825
  0
ARC
  5
181E5
  8
0
 10
4210.5485572879188112
 20
192.4622804026240033
 30
0.0
 40
0.2259270059744445
 50
86.0030099259340517
 51
93.9969900740659341
  0
ARC
  5
181E6
  8
0
 10
4210.5485572879188112
 20
192.9130322092235019
 30
0.0
 40
0.2259238467826191
 50
266.0029539434132175
 51
273.9970460565867825
  0
ARC
  5
181E7
  8
0
 10
4210.5485572878988023
 20
192.4599005718901878
 30
0.0
 40
0.2259270059744445
 50
86.0030099259340517
 51
93.9969900740659341
  0
ARC
  5
181E8
  8
0
 10
4210.5485572878988023
 20
192.9106523784896865
 30
0.0
 40
0.2259238467826191
 50
266.0029539434132175
 51
273.9970460565867825
  0
ARC
  5
181E9
  8
0
 10
4210.5485572878978928
 20
192.4575207411238864
 30
0.0
 40
0.2259270059744445
 50
86.0030099259340517
 51
93.9969900740659341
  0
ARC
  5
181EA
  8
0
 10
4210.5485572878978928
 20
192.9082725477234987
 30
0.0
 40
0.2259238467826191
 50
266.0029539434132175
 51
273.9970460565867825
  0
ARC
  5
181EB
  8
0
 10
4210.5682423272182859
 20
192.4706098103239924
 30
0.0
 40
0.2259270059744445
 50
86.0030099259340517
 51
93.9969900740659341
  0
ARC
  5
181EC
  8
0
 10
4210.5682423272182859
 20
192.9213616169234911
 30
0.0
 40
0.2259238467826191
 50
266.0029539434132175
 51
273.9970460565867825
  0
ARC
  5
181ED
  8
0
 10
4210.5682423272228334
 20
192.4682299795240112
 30
0.0
 40
0.2259270059744445
 50
86.0030099259340517
 51
93.9969900740659341
  0
ARC
  5
181EE
  8
0
 10
4210.5682423272228334
 20
192.9189817861235099
 30
0.0
 40
0.2259238467826191
 50
266.0029539434132175
 51
273.9970460565867825
  0
ARC
  5
181EF
  8
0
 10
4210.5682423353036938
 20
192.4658501565099868
 30
0.0
 40
0.2259270059744445
 50
86.0030099259340517
 51
93.9969900740659341
  0
ARC
  5
181F0
  8
0
 10
4210.5682423353036938
 20
192.9166019631095992
 30
0.0
 40
0.2259238467826191
 50
266.0029539434132175
 51
273.9970460565867825
  0
ARC
  5
181F1
  8
0
 10
4210.5682423272291999
 20
192.4634703180240081
 30
0.0
 40
0.2259270059744445
 50
86.0030099259340517
 51
93.9969900740659341
  0
ARC
  5
181F2
  8
0
 10
4210.5682423272291999
 20
192.9142221246235067
 30
0.0
 40
0.2259238467826191
 50
266.0029539434132175
 51
273.9970460565867825
  0
ARC
  5
181F3
  8
0
 10
4210.5682423272373853
 20
192.4610904872901926
 30
0.0
 40
0.2259270059744445
 50
86.0030099259340517
 51
93.9969900740659341
  0
ARC
  5
181F4
  8
0
 10
4210.5682423272373853
 20
192.9118422938896913
 30
0.0
 40
0.2259238467826191
 50
266.0029539434132175
 51
273.9970460565867825
  0
ARC
  5
181F5
  8
0
 10
4210.5682423272191954
 20
192.458710656507094
 30
0.0
 40
0.2259270059744445
 50
86.0030099259340517
 51
93.9969900740659341
  0
ARC
  5
181F6
  8
0
 10
4210.5682423272191954
 20
192.9094624631065926
 30
0.0
 40
0.2259238467826191
 50
266.0029539434132175
 51
273.9970460565867825
  0
ARC
  5
181F7
  8
0
 10
4210.5879273666132576
 20
192.4717997257239972
 30
0.0
 40
0.2259270059744445
 50
86.0030099259340517
 51
93.9969900740659341
  0
ARC
  5
181F8
  8
0
 10
4210.5879273666132576
 20
192.9225515323234958
 30
0.0
 40
0.2259238467826191
 50
266.0029539434132175
 51
273.9970460565867825
  0
ARC
  5
181F9
  8
0
 10
4210.5879273666332665
 20
192.4694198949239876
 30
0.0
 40
0.2259270059744445
 50
86.0030099259340517
 51
93.9969900740659341
  0
ARC
  5
181FA
  8
0
 10
4210.5879273666332665
 20
192.9201717015234863
 30
0.0
 40
0.2259238467826191
 50
266.0029539434132175
 51
273.9970460565867825
  0
ARC
  5
181FB
  8
0
 10
4210.5879273666168956
 20
192.4670400641902006
 30
0.0
 40
0.2259270059744445
 50
86.0030099259340517
 51
93.9969900740659341
  0
ARC
  5
181FC
  8
0
 10
4210.5879273666168956
 20
192.9177918707896993
 30
0.0
 40
0.2259238467826191
 50
266.0029539434132175
 51
273.9970460565867825
  0
ARC
  5
181FD
  8
0
 10
4210.5879273747023035
 20
192.4646602411100105
 30
0.0
 40
0.2259270059744445
 50
86.0030099259340517
 51
93.9969900740659341
  0
ARC
  5
181FE
  8
0
 10
4210.5879273747023035
 20
192.9154120477095091
 30
0.0
 40
0.2259238467826191
 50
266.0029539434132175
 51
273.9970460565867825
  0
ARC
  5
181FF
  8
0
 10
4210.587927366632357
 20
192.4622804026240033
 30
0.0
 40
0.2259270059744445
 50
86.0030099259340517
 51
93.9969900740659341
  0
ARC
  5
18200
  8
0
 10
4210.587927366632357
 20
192.9130322092235019
 30
0.0
 40
0.2259238467826191
 50
266.0029539434132175
 51
273.9970460565867825
  0
ARC
  5
18201
  8
0
 10
4210.5879273666114386
 20
192.4599005718901878
 30
0.0
 40
0.2259270059744445
 50
86.0030099259340517
 51
93.9969900740659341
  0
ARC
  5
18202
  8
0
 10
4210.5879273666114386
 20
192.9106523784896865
 30
0.0
 40
0.2259238467826191
 50
266.0029539434132175
 51
273.9970460565867825
  0
ARC
  5
18203
  8
0
 10
4210.5879273666114386
 20
192.4575207411238864
 30
0.0
 40
0.2259270059744445
 50
86.0030099259340517
 51
93.9969900740659341
  0
ARC
  5
18204
  8
0
 10
4210.5879273666114386
 20
192.9082725477234987
 30
0.0
 40
0.2259238467826191
 50
266.0029539434132175
 51
273.9970460565867825
  0
ARC
  5
18205
  8
0
 10
4210.6076124059945869
 20
192.4706098103239924
 30
0.0
 40
0.2259270059744445
 50
86.0030099259340517
 51
93.9969900740659341
  0
ARC
  5
18206
  8
0
 10
4210.6076124059945869
 20
192.9213616169234911
 30
0.0
 40
0.2259238467826191
 50
266.0029539434132175
 51
273.9970460565867825
  0
ARC
  5
18207
  8
0
 10
4210.6076124060009533
 20
192.4682299795240112
 30
0.0
 40
0.2259270059744445
 50
86.0030099259340517
 51
93.9969900740659341
  0
ARC
  5
18208
  8
0
 10
4210.6076124060009533
 20
192.9189817861235099
 30
0.0
 40
0.2259238467826191
 50
266.0029539434132175
 51
273.9970460565867825
  0
ARC
  5
18209
  8
0
 10
4210.6076124140890897
 20
192.4658501565099868
 30
0.0
 40
0.2259270059744445
 50
86.0030099259340517
 51
93.9969900740659341
  0
ARC
  5
1820A
  8
0
 10
4210.6076124140890897
 20
192.9166019631095992
 30
0.0
 40
0.2259238467826191
 50
266.0029539434132175
 51
273.9970460565867825
  0
ARC
  5
1820B
  8
0
 10
4210.6076124060082293
 20
192.4634703180240081
 30
0.0
 40
0.2259270059744445
 50
86.0030099259340517
 51
93.9969900740659341
  0
ARC
  5
1820C
  8
0
 10
4210.6076124060082293
 20
192.9142221246235067
 30
0.0
 40
0.2259238467826191
 50
266.0029539434132175
 51
273.9970460565867825
  0
ARC
  5
1820D
  8
0
 10
4210.6076124060164148
 20
192.4610904872901926
 30
0.0
 40
0.2259270059744445
 50
86.0030099259340517
 51
93.9969900740659341
  0
ARC
  5
1820E
  8
0
 10
4210.6076124060164148
 20
192.9118422938896913
 30
0.0
 40
0.2259238467826191
 50
266.0029539434132175
 51
273.9970460565867825
  0
ARC
  5
1820F
  8
0
 10
4210.6076124059991344
 20
192.458710656507094
 30
0.0
 40
0.2259270059744445
 50
86.0030099259340517
 51
93.9969900740659341
  0
ARC
  5
18210
  8
0
 10
4210.6076124059991344
 20
192.9094624631065926
 30
0.0
 40
0.2259238467826191
 50
266.0029539434132175
 51
273.9970460565867825
  0
ARC
  5
18211
  8
0
 10
4210.6272974453422648
 20
192.4694198949239876
 30
0.0
 40
0.2259270059744445
 50
86.0030099259340517
 51
93.9969900740659341
  0
ARC
  5
18212
  8
0
 10
4210.6272974453422648
 20
192.9201717015234863
 30
0.0
 40
0.2259238467826191
 50
266.0029539434132175
 51
273.9970460565867825
  0
ARC
  5
18213
  8
0
 10
4210.6272974453258939
 20
192.4670400641902006
 30
0.0
 40
0.2259270059744445
 50
86.0030099259340517
 51
93.9969900740659341
  0
ARC
  5
18214
  8
0
 10
4210.6272974453258939
 20
192.9177918707896993
 30
0.0
 40
0.2259238467826191
 50
266.0029539434132175
 51
273.9970460565867825
  0
ARC
  5
18215
  8
0
 10
4210.6272974534231253
 20
192.4646602411100105
 30
0.0
 40
0.2259270059744445
 50
86.0030099259340517
 51
93.9969900740659341
  0
ARC
  5
18216
  8
0
 10
4210.6272974534231253
 20
192.9154120477095091
 30
0.0
 40
0.2259238467826191
 50
266.0029539434132175
 51
273.9970460565867825
  0
ARC
  5
18217
  8
0
 10
4210.6272974534413152
 20
192.4622804103269118
 30
0.0
 40
0.2259270059744445
 50
86.0030099259340517
 51
93.9969900740659341
  0
ARC
  5
18218
  8
0
 10
4210.6272974534413152
 20
192.9130322169264105
 30
0.0
 40
0.2259238467826191
 50
266.0029539434132175
 51
273.9970460565867825
  0
ARC
  5
18219
  8
0
 10
4210.627297445320437
 20
192.4599005718901878
 30
0.0
 40
0.2259270059744445
 50
86.0030099259340517
 51
93.9969900740659341
  0
ARC
  5
1821A
  8
0
 10
4210.627297445320437
 20
192.9106523784896865
 30
0.0
 40
0.2259238467826191
 50
266.0029539434132175
 51
273.9970460565867825
  0
ARC
  5
1821B
  8
0
 10
4210.6469824847135897
 20
192.4682299795240112
 30
0.0
 40
0.2259270059744445
 50
86.0030099259340517
 51
93.9969900740659341
  0
ARC
  5
1821C
  8
0
 10
4210.6469824847135897
 20
192.9189817861235099
 30
0.0
 40
0.2259238467826191
 50
266.0029539434132175
 51
273.9970460565867825
  0
ARC
  5
1821D
  8
0
 10
4210.6469824927953596
 20
192.4658501565099868
 30
0.0
 40
0.2259270059744445
 50
86.0030099259340517
 51
93.9969900740659341
  0
ARC
  5
1821E
  8
0
 10
4210.6469824927953596
 20
192.9166019631095992
 30
0.0
 40
0.2259238467826191
 50
266.0029539434132175
 51
273.9970460565867825
  0
ARC
  5
1821F
  8
0
 10
4210.6469824847199561
 20
192.4634703180240081
 30
0.0
 40
0.2259270059744445
 50
86.0030099259340517
 51
93.9969900740659341
  0
ARC
  5
18220
  8
0
 10
4210.6469824847199561
 20
192.9142221246235067
 30
0.0
 40
0.2259238467826191
 50
266.0029539434132175
 51
273.9970460565867825
  0
ARC
  5
18221
  8
0
 10
4210.6469824847272321
 20
192.4610904872901926
 30
0.0
 40
0.2259270059744445
 50
86.0030099259340517
 51
93.9969900740659341
  0
ARC
  5
18222
  8
0
 10
4210.6469824847272321
 20
192.9118422938896913
 30
0.0
 40
0.2259238467826191
 50
266.0029539434132175
 51
273.9970460565867825
  0
ARC
  5
18223
  8
0
 10
4210.6666675241140183
 20
192.4670400641902006
 30
0.0
 40
0.2259270059744445
 50
86.0030099259340517
 51
93.9969900740659341
  0
ARC
  5
18224
  8
0
 10
4210.6666675241140183
 20
192.9177918707896993
 30
0.0
 40
0.2259238467826191
 50
266.0029539434132175
 51
273.9970460565867825
  0
ARC
  5
18225
  8
0
 10
4210.6666675322021547
 20
192.4646602411100105
 30
0.0
 40
0.2259270059744445
 50
86.0030099259340517
 51
93.9969900740659341
  0
ARC
  5
18226
  8
0
 10
4210.6666675322021547
 20
192.9154120477095091
 30
0.0
 40
0.2259238467826191
 50
266.0029539434132175
 51
273.9970460565867825
  0
ARC
  5
18227
  8
0
 10
4210.6666675322221636
 20
192.4622804103269118
 30
0.0
 40
0.2259270059744445
 50
86.0030099259340517
 51
93.9969900740659341
  0
ARC
  5
18228
  8
0
 10
4210.6666675322221636
 20
192.9130322169264105
 30
0.0
 40
0.2259238467826191
 50
266.0029539434132175
 51
273.9970460565867825
  0
ATTDEF
  5
1826B
  8
DEFPOINTS
 10
4210.3911403867086847
 20
184.6935534931820087
 30
0.0
 40
0.001
  1
K-73159W-ND
  3

  2
MODELNUMBER
 70
     0
1001
ACDBATTR
1070
     0
1070
     1
  0
ATTDEF
  5
1826C
  8
DEFPOINTS
 10
4210.3910145770523741
 20
184.6918866528027934
 30
0.0
 40
0.001
  1
TALL
  3

  2
TRADENAME
 70
     0
1001
ACDBATTR
1070
     0
1070
     1
  0
ATTDEF
  5
1826D
  8
DEFPOINTS
 10
4210.3911403867086847
 20
184.6902201598485931
 30
0.0
 40
0.001
  1
BATHROOM SINK FAUCET
  3

  2
PRODUCT
 70
     0
1001
ACDBATTR
1070
     0
1070
     1
  0
ENDSEC
  0
EOF
