  0
SECTION
  2
HEADER
  9
$ACADVER
  1
AC1009
  9
$INSBASE
 10
430.4682064522256724
 20
51.3945219422380717
 30
0.0
  9
$EXTMIN
 10
423.8273801737148005
 20
51.38791001975558
 30
-0.0015258207003583
  9
$EXTMAX
 10
432.2263095696368964
 20
59.0583551274808514
 30
0.0000000349246037
  9
$LIMMIN
 10
0.0
 20
0.0
  9
$LIMMAX
 10
11.6929133858000007
 20
8.2677165353999982
  9
$ORTHOMODE
 70
     0
  9
$REGENMODE
 70
     1
  9
$FILLMODE
 70
     1
  9
$QTEXTMODE
 70
     0
  9
$MIRRTEXT
 70
     0
  9
$DRAGMODE
 70
     2
  9
$LTSCALE
 40
0.6431102362
  9
$OSMODE
 70
  4095
  9
$ATTMODE
 70
     1
  9
$TEXTSIZE
 40
0.2
  9
$TRACEWID
 40
0.05
  9
$TEXTSTYLE
  7
STANDARD
  9
$CLAYER
  8
0
  9
$CELTYPE
  6
BYLAYER
  9
$CECOLOR
 62
   256
  9
$DIMSCALE
 40
1.0
  9
$DIMASZ
 40
0.1875
  9
$DIMEXO
 40
0.0625
  9
$DIMDLI
 40
0.4443307087
  9
$DIMRND
 40
0.0
  9
$DIMDLE
 40
0.0
  9
$DIMEXE
 40
0.125
  9
$DIMTP
 40
0.01
  9
$DIMTM
 40
0.01
  9
$DIMTXT
 40
1.0
  9
$DIMCEN
 40
0.1052362205
  9
$DIMTSZ
 40
0.0
  9
$DIMTOL
 70
     1
  9
$DIMLIM
 70
     0
  9
$DIMTIH
 70
     0
  9
$DIMTOH
 70
     1
  9
$DIMSE1
 70
     0
  9
$DIMSE2
 70
     0
  9
$DIMTAD
 70
     0
  9
$DIMZIN
 70
     0
  9
$DIMBLK
  1

  9
$DIMASO
 70
     1
  9
$DIMSHO
 70
     1
  9
$DIMPOST
  1
\X
  9
$DIMAPOST
  1

  9
$DIMALT
 70
     1
  9
$DIMALTD
 70
     2
  9
$DIMALTF
 40
25.3999999999999986
  9
$DIMLFAC
 40
1.0
  9
$DIMTOFL
 70
     0
  9
$DIMTVP
 40
0.0
  9
$DIMTIX
 70
     0
  9
$DIMSOXD
 70
     0
  9
$DIMSAH
 70
     0
  9
$DIMBLK1
  1

  9
$DIMBLK2
  1

  9
$DIMSTYLE
  2
STANDARD
  9
$DIMCLRD
 70
     0
  9
$DIMCLRE
 70
     0
  9
$DIMCLRT
 70
     0
  9
$DIMTFAC
 40
1.0
  9
$DIMGAP
 40
0.09
  9
$LUNITS
 70
     2
  9
$LUPREC
 70
     4
  9
$SKETCHINC
 40
0.1
  9
$FILLETRAD
 40
0.0
  9
$AUNITS
 70
     0
  9
$AUPREC
 70
     0
  9
$MENU
  1
.
  9
$ELEVATION
 40
0.0
  9
$PELEVATION
 40
0.0
  9
$THICKNESS
 40
0.0
  9
$LIMCHECK
 70
     0
  9
$BLIPMODE
 70
     0
  9
$CHAMFERA
 40
0.0
  9
$CHAMFERB
 40
0.0
  9
$SKPOLY
 70
     0
  9
$TDCREATE
 40
2458172.5207638889551163
  9
$TDUPDATE
 40
2459143.8699305560439825
  9
$TDINDWG
 40
0.0719988194
  9
$TDUSRTIMER
 40
0.0719988194
  9
$USRTIMER
 70
     1
  9
$ANGBASE
 50
0.0
  9
$ANGDIR
 70
     0
  9
$PDMODE
 70
     0
  9
$PDSIZE
 40
0.3125
  9
$PLINEWID
 40
0.0
  9
$COORDS
 70
     1
  9
$SPLFRAME
 70
     0
  9
$SPLINETYPE
 70
     6
  9
$SPLINESEGS
 70
     8
  9
$ATTDIA
 70
     1
  9
$ATTREQ
 70
     1
  9
$HANDLING
 70
     1
  9
$HANDSEED
  5
1CED
  9
$SURFTAB1
 70
     6
  9
$SURFTAB2
 70
     6
  9
$SURFTYPE
 70
     6
  9
$SURFU
 70
     6
  9
$SURFV
 70
     6
  9
$UCSNAME
  2

  9
$UCSORG
 10
0.0
 20
0.0
 30
0.0
  9
$UCSXDIR
 10
1.0
 20
0.0
 30
0.0
  9
$UCSYDIR
 10
0.0
 20
1.0
 30
0.0
  9
$PUCSNAME
  2

  9
$PUCSORG
 10
0.0
 20
0.0
 30
0.0
  9
$PUCSXDIR
 10
1.0
 20
0.0
 30
0.0
  9
$PUCSYDIR
 10
0.0
 20
1.0
 30
0.0
  9
$USERI1
 70
     0
  9
$USERI2
 70
     0
  9
$USERI3
 70
     0
  9
$USERI4
 70
     0
  9
$USERI5
 70
     0
  9
$USERR1
 40
0.0
  9
$USERR2
 40
0.0
  9
$USERR3
 40
0.0
  9
$USERR4
 40
0.0
  9
$USERR5
 40
0.0
  9
$WORLDVIEW
 70
     1
  9
$SHADEDGE
 70
     3
  9
$SHADEDIF
 70
    70
  9
$TILEMODE
 70
     1
  9
$MAXACTVP
 70
    64
  9
$PLIMCHECK
 70
     0
  9
$PEXTMIN
 10
1.0000000000000000E+20
 20
1.0000000000000000E+20
 30
1.0000000000000000E+20
  9
$PEXTMAX
 10
-1.0000000000000000E+20
 20
-1.0000000000000000E+20
 30
-1.0000000000000000E+20
  9
$PLIMMIN
 10
0.0
 20
0.0
  9
$PLIMMAX
 10
12.0
 20
9.0
  9
$UNITMODE
 70
     0
  9
$VISRETAIN
 70
     1
  9
$PLINEGEN
 70
     0
  9
$PSLTSCALE
 70
     1
  0
ENDSEC
  0
SECTION
  2
TABLES
  0
TABLE
  2
VPORT
 70
     1
  0
VPORT
  2
*ACTIVE
 70
     0
 10
0.0
 20
0.0
 11
1.0
 21
1.0
 12
10.4276474839805307
 22
-0.2892022499901827
 13
0.0
 23
0.0
 14
1.0
 24
1.0
 15
0.0
 25
0.0
 16
0.0
 26
0.0
 36
46.9660853561794625
 17
417.5991973876953125
 27
55.5123348236083984
 37
0.0
 40
7.7610409160842311
 41
2.6055226824457591
 42
50.0
 43
0.0
 44
0.0
 50
0.0
 51
0.0
 71
     0
 72
   100
 73
     1
 74
     1
 75
     0
 76
     0
 77
     0
 78
     0
  0
ENDTAB
  0
TABLE
  2
LTYPE
 70
     2
  0
LTYPE
  2
CONTINUOUS
 70
     0
  3
Solid line
 72
    65
 73
     0
 40
0.0
  0
LTYPE
  2
PHANTOM2
 70
     0
  3
___ _ _ ___ _ _ ___ _ _ ___ _ _
 72
    65
 73
     6
 40
1.25
 49
0.625
 49
-0.125
 49
0.125
 49
-0.125
 49
0.125
 49
-0.125
  0
ENDTAB
  0
TABLE
  2
LAYER
 70
     2
  0
LAYER
  2
0
 70
     0
 62
   255
  6
CONTINUOUS
  0
LAYER
  2
DEFPOINTS
 70
     0
 62
     7
  6
CONTINUOUS
  0
ENDTAB
  0
TABLE
  2
STYLE
 70
     1
  0
STYLE
  2
STANDARD
 70
     0
 40
0.0
 41
0.8
 50
0.0
 71
     0
 42
0.2
  3
txt
  4

  0
ENDTAB
  0
TABLE
  2
VIEW
 70
     0
  0
ENDTAB
  0
TABLE
  2
UCS
 70
     0
  0
ENDTAB
  0
TABLE
  2
APPID
 70
    10
  0
APPID
  2
ACAD
 70
     0
  0
APPID
  2
ACAD_MLEADERVER
 70
     0
  0
APPID
  2
ACAD_EXEMPT_FROM_CAD_STANDARDS
 70
     0
  0
APPID
  2
ACAD_DSTYLE_DIMJAG
 70
     0
  0
APPID
  2
ACAD_DSTYLE_DIMTALN
 70
     0
  0
APPID
  2
ACAD_NAV_VCDISPLAY
 70
     0
  0
APPID
  2
ACAECLAYERSTANDARD
 70
     0
  0
APPID
  2
ACCMTRANSPARENCY
 70
     0
  0
APPID
  2
DCO15
 70
     0
  0
APPID
  2
ACDBATTR
 70
     0
  0
ENDTAB
  0
TABLE
  2
DIMSTYLE
 70
     1
  0
DIMSTYLE
  2
STANDARD
 70
     0
  3

  4

  5

  6

  7

 40
1.0
 41
0.1875
 42
0.0625
 43
0.38
 44
0.125
 45
0.0
 46
0.0
 47
0.01
 48
0.01
140
0.15625
141
0.09
142
0.0
143
25.3999999999999986
144
1.0
145
0.0
146
1.0
147
0.09
 71
     1
 72
     0
 73
     1
 74
     1
 75
     0
 76
     0
 77
     0
 78
     4
170
     0
171
     2
172
     0
173
     0
174
     0
175
     0
176
     0
177
     0
178
     0
  0
ENDTAB
  0
ENDSEC
  0
SECTION
  2
BLOCKS
  0
BLOCK
  8
0
  2
$MODEL_SPACE
 70
     0
 10
0.0
 20
0.0
 30
0.0
  3
$MODEL_SPACE
  1

  0
ENDBLK
  5
21
  8
0
  0
BLOCK
 67
     1
  8
0
  2
$PAPER_SPACE
 70
     0
 10
0.0
 20
0.0
 30
0.0
  3
$PAPER_SPACE
  1

  0
ENDBLK
  5
1D
 67
     1
  8
0
  0
ENDSEC
  0
SECTION
  2
ENTITIES
  0
ATTDEF
  5
829
  8
DEFPOINTS
 10
430.4652189877381829
 20
51.3916357870078571
 30
0.0
 40
0.001
  1
K-73158W
  3

  2
MODELNUMBER
 70
     0
1001
ACDBATTR
1070
     0
1070
     1
  0
ATTDEF
  5
82A
  8
DEFPOINTS
 10
430.4652189877381829
 20
51.3899691203411919
 30
0.0
 40
0.001
  1
COMPOSED
  3

  2
TRADENAME
 70
     0
1001
ACDBATTR
1070
     0
1070
     1
  0
ATTDEF
  5
82B
  8
DEFPOINTS
 10
430.4652189877381829
 20
51.3883024536745268
 30
0.0
 40
0.001
  1
BATHROOM SINK FAUCET
  3

  2
PRODUCT
 70
     0
1001
ACDBATTR
1070
     0
1070
     1
  0
LINE
  5
1BD2
  8
0
 10
423.8408625443756819
 20
55.6436896249380695
 30
0.0
 11
423.8579000939757861
 21
56.1315812097380729
 31
0.0
  0
LINE
  5
1BD3
  8
0
 10
429.464269444375816
 20
51.5323172178380702
 30
0.0
 11
429.464269444375816
 21
51.3945219422380717
 31
0.0
  0
LINE
  5
1BD4
  8
0
 10
429.621749759275815
 20
55.3776915122380586
 30
0.0
 11
429.621749759275815
 21
51.5834983202380712
 31
0.0
  0
LINE
  5
1BD5
  8
0
 10
431.3122093499083007
 20
53.0397305063358289
 30
0.0
 11
431.4761585742757006
 21
53.4901772980380699
 31
0.0
  0
LINE
  5
1BD6
  8
0
 10
429.464269444375816
 20
51.3945219422380717
 30
0.0
 11
431.4721434600756993
 21
51.3945219422380717
 31
0.0
  0
LINE
  5
1BD7
  8
0
 10
431.4524584206757822
 20
51.5520022572380796
 30
0.0
 11
429.4839544836756886
 21
51.5520022572380796
 31
0.0
  0
LINE
  5
1BD8
  8
0
 10
430.3028521215256887
 20
59.0224507002380676
 30
0.0
 11
430.3028521215256887
 21
56.5736318026380687
 31
0.0
  0
LINE
  5
1BD9
  8
0
 10
430.3796237750756859
 20
56.5342617238608867
 30
0.0
 11
430.3796237750756859
 21
56.2350491372338723
 31
0.0
  0
LINE
  5
1BDA
  8
0
 10
430.5567891293757157
 20
56.5342617238583784
 30
0.0
 11
430.5567891293757157
 21
56.2350491372698471
 31
0.0
  0
LINE
  5
1BDB
  8
0
 10
430.6335607829257128
 20
59.0224507002380676
 30
0.0
 11
430.6335607829257128
 21
56.5736318026380687
 31
0.0
  0
LINE
  5
1BDC
  8
0
 10
431.3146631450758264
 20
51.5834983202380712
 30
0.0
 11
431.3146631450758264
 21
52.9889170495206869
 31
0.0
  0
LINE
  5
1BDD
  8
0
 10
431.3146631450758264
 20
53.7371347100381769
 30
0.0
 11
431.3146631450758264
 21
55.3207670643380567
 31
0.0
  0
LINE
  5
1BDE
  8
0
 10
431.3146631450758264
 20
55.3838015758380706
 30
0.0
 11
431.3146631450758264
 21
55.8722881298380614
 31
0.0
  0
LINE
  5
1BDF
  8
0
 10
431.4721434600756993
 20
51.5323172178380702
 30
0.0
 11
431.4721434600756993
 21
51.3945219422380717
 31
0.0
  0
LINE
  5
1BE0
  8
0
 10
432.2168188695757749
 20
53.6976715485380609
 30
0.0
 11
432.2168188695757749
 21
53.8748369028380623
 31
0.0
  0
LINE
  5
1BE1
  8
0
 10
431.744377924675689
 20
53.6779865091380586
 30
0.0
 11
432.1971338301756873
 21
53.6779865091380586
 31
0.0
  0
LINE
  5
1BE2
  8
0
 10
431.744377924675689
 20
53.8945219422380717
 30
0.0
 11
432.1971338301756873
 21
53.8945219422380717
 31
0.0
  0
LINE
  5
1BE3
  8
0
 10
423.8712402240756774
 20
55.6111135517380717
 30
0.0
 11
431.2820179837386263
 21
55.3523232163227235
 31
0.0
  0
LINE
  5
1BE4
  8
0
 10
423.890476167175791
 20
56.1619588894380612
 30
0.0
 11
431.2842163991142002
 21
55.9037640743946014
 31
0.0
  0
LINE
  5
1BE5
  8
0
 10
430.3225371609257195
 20
56.5539467632380592
 30
0.0
 11
430.6138757436257265
 21
56.5539467632380592
 31
0.0
  0
LINE
  5
1BE6
  8
0
 10
430.6020647199256928
 20
59.0539467632380592
 30
0.0
 11
430.3343481845257088
 21
59.0539467632380592
 31
0.0
  0
ARC
  5
1BE7
  8
0
 10
431.744377924675689
 20
53.3925534382380818
 30
0.0
 40
0.5019685039000001
 50
90.0
 51
149.8143656970435984
  0
ARC
  5
1BE8
  8
0
 10
431.744377924675689
 20
53.3925534382380818
 30
0.0
 40
0.2854330709
 50
90.0
 51
160.0000000000011937
  0
ARC
  5
1BE9
  8
0
 10
431.2831670820756926
 20
51.5834983202380712
 30
0.0
 40
0.031496063
 50
270.0
 51
0.0
  0
ARC
  5
1BEA
  8
0
 10
429.6532458222757214
 20
51.5834983202380712
 30
0.0
 40
0.031496063
 50
180.0
 51
270.0
  0
ARC
  5
1BEB
  8
0
 10
431.4524584206757822
 20
51.5323172178380702
 30
0.0
 40
0.0196850394
 50
0.0
 51
90.0
  0
ARC
  5
1BEC
  8
0
 10
429.4839544836756886
 20
51.5323172178380702
 30
0.0
 40
0.0196850394
 50
90.0
 51
180.0
  0
ARC
  5
1BED
  8
0
 10
432.1971338301756873
 20
53.8748369028380623
 30
0.0
 40
0.0196850394
 50
0.0000000007002309
 51
90.0
  0
ARC
  5
1BEE
  8
0
 10
432.1971338301756873
 20
53.6976715485380609
 30
0.0
 40
0.0196850394
 50
270.0
 51
0.0
  0
ARC
  5
1BEF
  8
0
 10
423.8893769703756789
 20
56.1304820130380477
 30
0.0
 40
0.031496063
 50
87.9999999999996163
 51
177.9999999999996021
  0
ARC
  5
1BF0
  8
0
 10
423.8723394207756883
 20
55.642590428138071
 30
0.0
 40
0.031496063
 50
177.9999999999996021
 51
267.9999999999996021
  0
ARC
  5
1BF1
  8
0
 10
429.6531632735761264
 20
55.3777713787188119
 30
0.0
 40
0.0314136158273945
 50
87.9638149409584003
 51
180.1456698657891025
  0
ARC
  5
1BF2
  8
0
 10
430.3225371609257195
 20
56.5736318026380687
 30
0.0
 40
0.0196850394
 50
180.0
 51
270.0
  0
ARC
  5
1BF3
  8
0
 10
430.3599387355394015
 20
56.5342617238608867
 30
0.0
 40
0.0196850395863848
 50
0.0
 51
89.9916472622823989
  0
ARC
  5
1BF4
  8
0
 10
430.3594213307048904
 20
56.235207590819968
 30
0.0
 40
0.0202030657597822
 50
280.1788695803389828
 51
359.550621924406073
  0
ARC
  5
1BF5
  8
0
 10
431.2791838138792855
 20
55.3167272863670334
 30
0.0
 40
0.0357085808763096
 50
6.4958849717056424
 51
85.447678277233365
  0
ARC
  5
1BF6
  8
0
 10
431.2830853063176164
 20
55.383883117655472
 30
0.0
 40
0.0315779440385541
 50
268.063057485663478
 51
359.8520484051244921
  0
ARC
  5
1BF7
  8
0
 10
431.2830781313501802
 20
55.8721994533441801
 30
0.0
 40
0.0315851382070595
 50
0.1608603224474434
 51
87.9347228575292945
  0
ARC
  5
1BF8
  8
0
 10
430.468206452175707
 20
56.053988345238082
 30
0.0
 40
0.2204724409
 50
348.0076811828250243
 51
40.2043091608314285
  0
ARC
  5
1BF9
  8
0
 10
430.468206452175707
 20
56.053988345238082
 30
0.0
 40
0.2204724409
 50
139.7956908391686
 51
187.9923187997275988
  0
ARC
  5
1BFA
  8
0
 10
430.6138757436257265
 20
56.5736318026380687
 30
0.0
 40
0.0196850394
 50
270.0
 51
0.0
  0
ARC
  5
1BFB
  8
0
 10
430.5764741690181268
 20
56.5342617238583784
 30
0.0
 40
0.0196850395923729
 50
90.0084225166706631
 51
180.0
  0
ARC
  5
1BFC
  8
0
 10
430.5770628093119967
 20
56.2351938149491914
 30
0.0
 40
0.0202741961564259
 50
180.4088690228610119
 51
258.5586208935116019
  0
ARC
  5
1BFD
  8
0
 10
430.6020647199256928
 20
59.0224507002380676
 30
0.0
 40
0.031496063
 50
0.0
 51
90.0
  0
ARC
  5
1BFE
  8
0
 10
430.3343481845257088
 20
59.0224507002380676
 30
0.0
 40
0.031496063
 50
90.0
 51
180.0
  0
ARC
  5
1BFF
  8
0
 10
438.5343972425699803
 20
53.3630258797794212
 30
0.0
 40
7.2294202987099583
 50
177.0337268649157068
 51
182.9662731350825879
  0
LINE
  5
1C00
  8
0
 10
430.6990117073464148
 20
56.0076496003630027
 30
0.0
 11
430.2345473222464989
 21
56.023869054163022
 31
0.0
  0
LINE
  5
1C01
  8
0
 10
429.9746056239881113
 20
56.0230978991030568
 30
0.0
 11
430.9582339991881099
 21
55.9887488393030566
 31
0.0
  0
LINE
  5
1C02
  8
0
 10
429.9536994058597088
 20
55.9883960189387366
 30
0.0
 11
429.9542171060026021
 21
56.0033990548421627
 31
0.0
  0
LINE
  5
1C03
  8
0
 10
430.9766767453011767
 20
55.9526728638129711
 30
0.0
 11
430.9772320557929106
 21
55.9683883743028971
 31
0.0
  0
ARC
  5
1C04
  8
0
 10
430.9687816725603966
 20
55.9529518376794783
 30
0.0
 40
0.0079
 50
268.0000000395363031
 51
357.9762849274878249
  0
LINE
  5
1C05
  8
0
 10
430.7063284795495974
 20
55.9975455738993375
 30
0.0
 11
430.7064519758114898
 21
55.9981428232453027
 31
0.0
  0
ARC
  5
1C06
  8
0
 10
430.6158442474758203
 20
56.2055215664380867
 30
0.0
 40
0.0098425197000021
 50
0.0
 51
84.7314626566035685
  0
ARC
  5
1C07
  8
0
 10
430.3205689666647231
 20
56.205521406882049
 30
0.0
 40
0.0098428515069536
 50
95.2793570976307365
 51
180.121190710278313
  0
ARC
  5
1C08
  8
0
 10
430.6987500097573047
 20
55.9997799193562003
 30
0.0
 40
0.0078740310373684
 50
348.0000520414989182
 51
88.0953936938129374
  0
ARC
  5
1C09
  8
0
 10
430.2342271896391139
 20
56.0160013657281226
 30
0.0
 40
0.0078741987652464
 50
87.6699465453781244
 51
192.4767752316938072
  0
ARC
  5
1C0A
  8
0
 10
430.9575590018073967
 20
55.9690753699922112
 30
0.0
 40
0.0196850454962346
 50
358.0000072549879064
 51
88.0349507452452258
  0
ARC
  5
1C0B
  8
0
 10
429.9739093587115235
 20
56.0034179502098226
 30
0.0
 40
0.0196922617740288
 50
87.9737534019872243
 51
180.054977178255001
  0
LINE
  5
1C0C
  8
0
 10
430.625686767075706
 20
56.2055215664380867
 30
0.0
 11
430.625686767075706
 21
56.1976891326380681
 31
0.0
  0
LINE
  5
1C0D
  8
0
 10
430.3107261371756067
 20
56.2055005875252718
 30
0.0
 11
430.3107261371756067
 21
56.1976891326380681
 31
0.0
  0
LINE
  5
1C0E
  8
0
 10
429.9613190008162178
 20
55.9802283933152083
 30
0.0
 11
430.9685059665418976
 21
55.9450566501458368
 31
0.0
  0
LINE
  5
1C0F
  8
0
 10
430.9756901904767119
 20
55.9191996217782119
 30
0.0
 11
430.9761550974986903
 21
55.9369537028379114
 31
0.0
  0
LINE
  5
1C10
  8
0
 10
430.9756901904767119
 20
55.9191996217782119
 30
0.0
 11
429.95269170617388
 21
55.9549235159979617
 31
0.0
  0
LINE
  5
1C11
  8
0
 10
429.95269170617388
 20
55.9549235159979617
 30
0.0
 11
429.9534663937797063
 21
55.9726667786601979
 31
0.0
  0
ARC
  5
1C12
  8
0
 10
429.9613588747296831
 20
55.9723221854877266
 30
0.0
 40
0.0079
 50
88.0000000395427833
 51
177.4999999108100042
  0
ARC
  5
1C13
  8
0
 10
429.9615947068347168
 20
55.9881235808488498
 30
0.0
 40
0.0079
 50
178.0237153938984136
 51
268.0000000395427833
  0
ARC
  5
1C14
  8
0
 10
430.9682578046317758
 20
55.9371605007507569
 30
0.0
 40
0.0079
 50
358.4999998461270252
 51
88.0000000395427833
  0
ARC
  5
1C15
  8
0
 10
430.9368249935757262
 20
55.9343447511380134
 30
0.0
 40
0.0196850393999345
 50
288.5012738837609731
 51
313.5729961376509891
  0
ARC
  5
1C16
  8
0
 10
429.9925187002756957
 20
55.9673206535381098
 30
0.0
 40
0.0196850394000537
 50
222.4270040298843867
 51
247.4990310127608097
  0
LINE
  5
1C17
  8
0
 10
430.6167480249798132
 20
56.2153225041613425
 30
0.0
 11
430.3196633078341051
 21
56.2153225041613425
 31
0.0
  0
LINE
  5
1C18
  8
0
 10
430.3027997957204889
 20
56.1976891326380681
 30
0.0
 11
430.633613108630982
 21
56.1976891326380681
 31
0.0
  0
ARC
  5
1C19
  8
0
 10
430.3027997957204889
 20
56.1937891326379386
 30
0.0
 40
0.0039
 50
90.0000000004168754
 51
139.7956908379767924
  0
ARC
  5
1C1A
  8
0
 10
430.6336131086309251
 20
56.1937891326379315
 30
0.0
 40
0.0039
 50
40.2043091620368997
 51
89.9999999995570619
  0
LINE
  5
1C1B
  8
0
 10
424.9758785516756916
 20
55.4046677732380601
 30
0.0
 11
424.9817335932490892
 21
55.5723342277851629
 31
0.0
  0
LINE
  5
1C1C
  8
0
 10
424.0508486677757105
 20
55.4255984382380689
 30
0.0
 11
424.9558088654756034
 21
55.39399653183807
 31
0.0
  0
LINE
  5
1C1D
  8
0
 10
424.9558088654756034
 20
55.39399653183807
 30
0.0
 11
424.9758785516756916
 21
55.4046677732380601
 31
0.0
  0
LINE
  5
1C1E
  8
0
 10
424.0315722584758191
 20
55.4376436756380571
 30
0.0
 11
424.0374273012644721
 21
55.6053101649894472
 31
0.0
  0
LINE
  5
1C1F
  8
0
 10
424.0315722584758191
 20
55.4376436756380571
 30
0.0
 11
424.0508486677757105
 21
55.4255984382380689
 31
0.0
  0
LINE
  5
1C20
  8
0
 10
424.6423223748756755
 20
55.5231259509380592
 30
0.0
 11
424.6385970255781217
 21
55.4164459038055313
 31
0.0
  0
LINE
  5
1C21
  8
0
 10
424.3725791338757176
 20
55.532545592438062
 30
0.0
 11
424.3688537845779933
 21
55.4258655453026279
 31
0.0
  0
LINE
  5
1C22
  8
0
 10
424.6423223748756755
 20
55.5231259509380592
 30
0.0
 11
424.3725791338757176
 21
55.532545592438062
 31
0.0
  0
LINE
  5
1C23
  8
0
 10
424.0315722584758191
 20
55.4376436756380571
 30
0.0
 11
424.3688537841122184
 21
55.4258655453026279
 31
0.0
  0
LINE
  5
1C24
  8
0
 10
424.638597025578008
 20
55.4164459038055313
 30
0.0
 11
424.9758785516831949
 21
55.404667773453717
 31
0.0
  0
ARC
  5
1C25
  8
0
 10
424.5314900968406846
 20
56.2162324819327495
 30
0.0
 40
0.8069265547346942
 50
258.3723672813206917
 51
277.627632744176708
  0
ARC
  5
1C26
  8
0
 10
424.4916498011896238
 20
55.0753556721748723
 30
0.0
 40
0.4724409455210794
 50
71.4021578946466207
 51
104.5978421227171964
  0
ENDSEC
  0
EOF
