  0
SECTION
  2
HEADER
  9
$ACADVER
  1
AC1009
  9
$INSBASE
 10
407.1022682807501951
 20
51.3606643819777204
 30
0.0
  9
$EXTMIN
 10
406.0973277979155114
 20
51.358979945518108
 30
-0.0015258207003583
  9
$EXTMAX
 10
408.1320375268994098
 20
59.0233464998867134
 30
0.0000000349246037
  9
$LIMMIN
 10
0.0
 20
0.0
  9
$LIMMAX
 10
11.6929133858000007
 20
8.2677165353999982
  9
$ORTHOMODE
 70
     0
  9
$REGENMODE
 70
     1
  9
$FILLMODE
 70
     1
  9
$QTEXTMODE
 70
     0
  9
$MIRRTEXT
 70
     0
  9
$DRAGMODE
 70
     2
  9
$LTSCALE
 40
0.6431102362
  9
$OSMODE
 70
  4095
  9
$ATTMODE
 70
     1
  9
$TEXTSIZE
 40
0.2
  9
$TRACEWID
 40
0.05
  9
$TEXTSTYLE
  7
STANDARD
  9
$CLAYER
  8
0
  9
$CELTYPE
  6
BYLAYER
  9
$CECOLOR
 62
   256
  9
$DIMSCALE
 40
1.0
  9
$DIMASZ
 40
0.1875
  9
$DIMEXO
 40
0.0625
  9
$DIMDLI
 40
0.4443307087
  9
$DIMRND
 40
0.0
  9
$DIMDLE
 40
0.0
  9
$DIMEXE
 40
0.125
  9
$DIMTP
 40
0.01
  9
$DIMTM
 40
0.01
  9
$DIMTXT
 40
1.0
  9
$DIMCEN
 40
0.1052362205
  9
$DIMTSZ
 40
0.0
  9
$DIMTOL
 70
     1
  9
$DIMLIM
 70
     0
  9
$DIMTIH
 70
     0
  9
$DIMTOH
 70
     1
  9
$DIMSE1
 70
     0
  9
$DIMSE2
 70
     0
  9
$DIMTAD
 70
     0
  9
$DIMZIN
 70
     0
  9
$DIMBLK
  1

  9
$DIMASO
 70
     1
  9
$DIMSHO
 70
     1
  9
$DIMPOST
  1
\X
  9
$DIMAPOST
  1

  9
$DIMALT
 70
     1
  9
$DIMALTD
 70
     2
  9
$DIMALTF
 40
25.3999999999999986
  9
$DIMLFAC
 40
1.0
  9
$DIMTOFL
 70
     0
  9
$DIMTVP
 40
0.0
  9
$DIMTIX
 70
     0
  9
$DIMSOXD
 70
     0
  9
$DIMSAH
 70
     0
  9
$DIMBLK1
  1

  9
$DIMBLK2
  1

  9
$DIMSTYLE
  2
STANDARD
  9
$DIMCLRD
 70
     0
  9
$DIMCLRE
 70
     0
  9
$DIMCLRT
 70
     0
  9
$DIMTFAC
 40
1.0
  9
$DIMGAP
 40
0.09
  9
$LUNITS
 70
     2
  9
$LUPREC
 70
     4
  9
$SKETCHINC
 40
0.1
  9
$FILLETRAD
 40
0.0
  9
$AUNITS
 70
     0
  9
$AUPREC
 70
     0
  9
$MENU
  1
.
  9
$ELEVATION
 40
0.0
  9
$PELEVATION
 40
0.0
  9
$THICKNESS
 40
0.0
  9
$LIMCHECK
 70
     0
  9
$BLIPMODE
 70
     0
  9
$CHAMFERA
 40
0.0
  9
$CHAMFERB
 40
0.0
  9
$SKPOLY
 70
     0
  9
$TDCREATE
 40
2458172.5207638889551163
  9
$TDUPDATE
 40
2459143.869259259197861
  9
$TDINDWG
 40
0.0693252083
  9
$TDUSRTIMER
 40
0.0693252083
  9
$USRTIMER
 70
     1
  9
$ANGBASE
 50
0.0
  9
$ANGDIR
 70
     0
  9
$PDMODE
 70
     0
  9
$PDSIZE
 40
0.3125
  9
$PLINEWID
 40
0.0
  9
$COORDS
 70
     1
  9
$SPLFRAME
 70
     0
  9
$SPLINETYPE
 70
     6
  9
$SPLINESEGS
 70
     8
  9
$ATTDIA
 70
     1
  9
$ATTREQ
 70
     1
  9
$HANDLING
 70
     1
  9
$HANDSEED
  5
21A6
  9
$SURFTAB1
 70
     6
  9
$SURFTAB2
 70
     6
  9
$SURFTYPE
 70
     6
  9
$SURFU
 70
     6
  9
$SURFV
 70
     6
  9
$UCSNAME
  2

  9
$UCSORG
 10
0.0
 20
0.0
 30
0.0
  9
$UCSXDIR
 10
1.0
 20
0.0
 30
0.0
  9
$UCSYDIR
 10
0.0
 20
1.0
 30
0.0
  9
$PUCSNAME
  2

  9
$PUCSORG
 10
0.0
 20
0.0
 30
0.0
  9
$PUCSXDIR
 10
1.0
 20
0.0
 30
0.0
  9
$PUCSYDIR
 10
0.0
 20
1.0
 30
0.0
  9
$USERI1
 70
     0
  9
$USERI2
 70
     0
  9
$USERI3
 70
     0
  9
$USERI4
 70
     0
  9
$USERI5
 70
     0
  9
$USERR1
 40
0.0
  9
$USERR2
 40
0.0
  9
$USERR3
 40
0.0
  9
$USERR4
 40
0.0
  9
$USERR5
 40
0.0
  9
$WORLDVIEW
 70
     1
  9
$SHADEDGE
 70
     3
  9
$SHADEDIF
 70
    70
  9
$TILEMODE
 70
     1
  9
$MAXACTVP
 70
    64
  9
$PLIMCHECK
 70
     0
  9
$PEXTMIN
 10
1.0000000000000000E+20
 20
1.0000000000000000E+20
 30
1.0000000000000000E+20
  9
$PEXTMAX
 10
-1.0000000000000000E+20
 20
-1.0000000000000000E+20
 30
-1.0000000000000000E+20
  9
$PLIMMIN
 10
0.0
 20
0.0
  9
$PLIMMAX
 10
12.0
 20
9.0
  9
$UNITMODE
 70
     0
  9
$VISRETAIN
 70
     1
  9
$PLINEGEN
 70
     0
  9
$PSLTSCALE
 70
     1
  0
ENDSEC
  0
SECTION
  2
TABLES
  0
TABLE
  2
VPORT
 70
     1
  0
VPORT
  2
*ACTIVE
 70
     0
 10
0.0
 20
0.0
 11
1.0
 21
1.0
 12
4.0375037073293916
 22
-0.5552223516384061
 13
0.0
 23
0.0
 14
1.0
 24
1.0
 15
0.0
 25
0.0
 16
0.0
 26
0.0
 36
32.6516033899411724
 17
403.077178955078125
 27
55.7463855743408203
 37
0.0
 40
7.7548905687902741
 41
2.6055226824457591
 42
50.0
 43
0.0
 44
0.0
 50
0.0
 51
0.0
 71
     0
 72
   100
 73
     1
 74
     1
 75
     0
 76
     0
 77
     0
 78
     0
  0
ENDTAB
  0
TABLE
  2
LTYPE
 70
     2
  0
LTYPE
  2
CONTINUOUS
 70
     0
  3
Solid line
 72
    65
 73
     0
 40
0.0
  0
LTYPE
  2
PHANTOM2
 70
     0
  3
___ _ _ ___ _ _ ___ _ _ ___ _ _
 72
    65
 73
     6
 40
1.25
 49
0.625
 49
-0.125
 49
0.125
 49
-0.125
 49
0.125
 49
-0.125
  0
ENDTAB
  0
TABLE
  2
LAYER
 70
     2
  0
LAYER
  2
0
 70
     0
 62
   255
  6
CONTINUOUS
  0
LAYER
  2
DEFPOINTS
 70
     0
 62
     7
  6
CONTINUOUS
  0
ENDTAB
  0
TABLE
  2
STYLE
 70
     1
  0
STYLE
  2
STANDARD
 70
     0
 40
0.0
 41
0.8
 50
0.0
 71
     0
 42
0.2
  3
txt
  4

  0
ENDTAB
  0
TABLE
  2
VIEW
 70
     0
  0
ENDTAB
  0
TABLE
  2
UCS
 70
     0
  0
ENDTAB
  0
TABLE
  2
APPID
 70
    10
  0
APPID
  2
ACAD
 70
     0
  0
APPID
  2
ACAD_MLEADERVER
 70
     0
  0
APPID
  2
ACAD_EXEMPT_FROM_CAD_STANDARDS
 70
     0
  0
APPID
  2
ACAD_DSTYLE_DIMJAG
 70
     0
  0
APPID
  2
ACAD_DSTYLE_DIMTALN
 70
     0
  0
APPID
  2
ACAD_NAV_VCDISPLAY
 70
     0
  0
APPID
  2
ACAECLAYERSTANDARD
 70
     0
  0
APPID
  2
ACCMTRANSPARENCY
 70
     0
  0
APPID
  2
DCO15
 70
     0
  0
APPID
  2
ACDBATTR
 70
     0
  0
ENDTAB
  0
TABLE
  2
DIMSTYLE
 70
     1
  0
DIMSTYLE
  2
STANDARD
 70
     0
  3

  4

  5

  6

  7

 40
1.0
 41
0.1875
 42
0.0625
 43
0.38
 44
0.125
 45
0.0
 46
0.0
 47
0.01
 48
0.01
140
0.15625
141
0.09
142
0.0
143
25.3999999999999986
144
1.0
145
0.0
146
1.0
147
0.09
 71
     1
 72
     0
 73
     1
 74
     1
 75
     0
 76
     0
 77
     0
 78
     4
170
     0
171
     2
172
     0
173
     0
174
     0
175
     0
176
     0
177
     0
178
     0
  0
ENDTAB
  0
ENDSEC
  0
SECTION
  2
BLOCKS
  0
BLOCK
  8
0
  2
$MODEL_SPACE
 70
     0
 10
0.0
 20
0.0
 30
0.0
  3
$MODEL_SPACE
  1

  0
ENDBLK
  5
21
  8
0
  0
BLOCK
 67
     1
  8
0
  2
$PAPER_SPACE
 70
     0
 10
0.0
 20
0.0
 30
0.0
  3
$PAPER_SPACE
  1

  0
ENDBLK
  5
1D
 67
     1
  8
0
  0
ENDSEC
  0
SECTION
  2
ENTITIES
  0
ATTDEF
  5
829
  8
DEFPOINTS
 10
407.0995703016686775
 20
51.3655344919056489
 30
0.0
 40
0.001
  1
K-73158W
  3

  2
MODELNUMBER
 70
     0
1001
ACDBATTR
1070
     0
1070
     1
  0
ATTDEF
  5
82A
  8
DEFPOINTS
 10
407.0995703016686775
 20
51.3638678252389909
 30
0.0
 40
0.001
  1
COMPOSED
  3

  2
TRADENAME
 70
     0
1001
ACDBATTR
1070
     0
1070
     1
  0
ATTDEF
  5
82B
  8
DEFPOINTS
 10
407.0995703016686775
 20
51.3622011585723186
 30
0.0
 40
0.001
  1
BATHROOM SINK FAUCET
  3

  2
PRODUCT
 70
     0
1001
ACDBATTR
1070
     0
1070
     1
  0
LINE
  5
1EDF
  8
0
 10
406.2558115878002241
 20
56.0925024649777413
 30
0.0
 11
406.2558115878002241
 21
55.3784001712777183
 31
0.0
  0
LINE
  5
1EE0
  8
0
 10
406.2558115878002241
 20
55.3153706757777215
 30
0.0
 11
406.2558115878002241
 21
51.5496407599777271
 31
0.0
  0
LINE
  5
1EE1
  8
0
 10
407.013685603600095
 20
56.2012004450972
 30
0.0
 11
407.013685603600095
 21
56.500404163677743
 31
0.0
  0
LINE
  5
1EE2
  8
0
 10
407.1908509579001816
 20
56.2012000601321589
 30
0.0
 11
407.1908509579001816
 21
56.500404163677743
 31
0.0
  0
LINE
  5
1EE3
  8
0
 10
407.948724973700223
 20
55.312258377406053
 30
0.0
 11
407.948724973700223
 21
51.5496407599777271
 31
0.0
  0
LINE
  5
1EE4
  8
0
 10
407.948724973700223
 20
55.3795289971498192
 30
0.0
 11
407.948724973700223
 21
56.0925024649777413
 31
0.0
  0
LINE
  5
1EE5
  8
0
 10
406.098331272900225
 20
51.3606643819777204
 30
0.0
 11
408.106205288600222
 21
51.3606643819777204
 31
0.0
  0
LINE
  5
1EE6
  8
0
 10
406.1180163122002114
 20
51.5181446969777426
 30
0.0
 11
408.0865202492001913
 21
51.5181446969777426
 31
0.0
  0
LINE
  5
1EE7
  8
0
 10
407.7991186744001766
 20
55.5772559914777204
 30
0.0
 11
406.4054178870001124
 21
55.5772559914777204
 31
0.0
  0
LINE
  5
1EE8
  8
0
 10
407.9159011349956927
 20
56.1281205157777308
 30
0.0
 11
406.2886354264048236
 21
56.1281205157777308
 31
0.0
  0
LINE
  5
1EE9
  8
0
 10
406.95659898940022
 20
56.5200892029777293
 30
0.0
 11
407.247937572100227
 21
56.5200892029777293
 31
0.0
  0
LINE
  5
1EEA
  8
0
 10
407.2361265485204171
 20
59.0200892029777293
 30
0.0
 11
406.9684100129799731
 21
59.0200892029777293
 31
0.0
  0
ARC
  5
1EEB
  8
0
 10
407.2361265484800015
 20
58.9885931399777377
 30
0.0
 40
0.031496063
 50
0.0
 51
90.0
  0
ARC
  5
1EEC
  8
0
 10
406.9684100129799731
 20
58.9885931399777377
 30
0.0
 40
0.031496063
 50
90.0
 51
180.0
  0
ARC
  5
1EED
  8
0
 10
407.917228910700203
 20
51.5496407599777271
 30
0.0
 40
0.031496063
 50
270.0
 51
0.0
  0
ARC
  5
1EEE
  8
0
 10
406.2873076508001873
 20
51.5496407599777271
 30
0.0
 40
0.031496063
 50
180.0
 51
270.0
  0
ARC
  5
1EEF
  8
0
 10
407.9172396282899058
 20
55.6046200112085316
 30
0.0
 40
0.0314853467343768
 50
269.9991383622460148
 51
359.9833832466252943
  0
ARC
  5
1EF0
  8
0
 10
406.2872947627849953
 20
55.6046191097491089
 30
0.0
 40
0.0314831760604553
 50
180.0149774491069081
 51
270.0367866522477129
  0
ARC
  5
1EF1
  8
0
 10
408.0865202492001913
 20
51.4984596575777402
 30
0.0
 40
0.0196850394
 50
0.0
 51
90.0
  0
ARC
  5
1EF2
  8
0
 10
406.1180163122002114
 20
51.4984596575777402
 30
0.0
 40
0.0196850394
 50
90.0
 51
180.0
  0
ARC
  5
1EF3
  8
0
 10
407.247937572100227
 20
56.5397742423777316
 30
0.0
 40
0.0196850394
 50
270.0
 51
0.0
  0
ARC
  5
1EF4
  8
0
 10
406.95659898940022
 20
56.5397742423777316
 30
0.0
 40
0.0196850394
 50
180.0
 51
270.0
  0
ARC
  5
1EF5
  8
0
 10
406.9940005642001779
 20
56.500404163677743
 30
0.0
 40
0.0196850394
 50
0.0
 51
90.0
  0
ARC
  5
1EF6
  8
0
 10
407.210535997300326
 20
56.500404163677743
 30
0.0
 40
0.0196850394
 50
90.0
 51
180.0
  0
ARC
  5
1EF7
  8
0
 10
406.2921097563893795
 20
55.3138145254263165
 30
0.0
 40
0.0363315103849586
 50
97.5374620004583761
 51
177.5451576028831937
  0
ARC
  5
1EF8
  8
0
 10
406.725141247922295
 20
51.0232833706090787
 30
0.0
 40
4.3486423628745108
 50
90.742343592117038
 51
95.7780106476339341
  0
ARC
  5
1EF9
  8
0
 10
406.2899362326880919
 20
55.3789645875858412
 30
0.0
 40
0.0341293122360613
 50
180.9475756865047913
 51
248.8539741489472021
  0
ARC
  5
1EFA
  8
0
 10
406.3866991890885174
 20
54.4190414222792285
 30
0.0
 40
1.1583658221629161
 50
89.0740843257784292
 51
94.9218520803400736
  0
ARC
  5
1EFB
  8
0
 10
407.8179378460657176
 20
54.4218545843047607
 30
0.0
 40
1.155554660290671
 50
85.0702705855665045
 51
90.9331508212178363
  0
ARC
  5
1EFC
  8
0
 10
406.2951391235795882
 20
56.0891935886432407
 30
0.0
 40
0.0394664887350711
 50
99.4850566994520733
 51
175.1906677212122077
  0
ARC
  5
1EFD
  8
0
 10
407.9093974377018981
 20
56.0891935884232495
 30
0.0
 40
0.0394664889716439
 50
4.8093325703857053
 51
80.5149431829295565
  0
LINE
  5
1EFE
  8
0
 10
406.0983312728500891
 20
51.4984596575777402
 30
0.0
 11
406.0983312728500891
 21
51.3606643819777204
 31
0.0
  0
LINE
  5
1EFF
  8
0
 10
408.1062052886500737
 20
51.3606643819777204
 30
0.0
 11
408.1062052886500737
 21
51.4984596575777402
 31
0.0
  0
LINE
  5
1F00
  8
0
 10
407.2676226114501787
 20
58.9885931399777377
 30
0.0
 11
407.2676226114501787
 21
56.5397742423777316
 31
0.0
  0
LINE
  5
1F01
  8
0
 10
406.9369139500500978
 20
58.9885931399777377
 30
0.0
 11
406.9369139500500978
 21
56.5397742423777316
 31
0.0
  0
LINE
  5
1F02
  8
0
 10
407.2676226115502232
 20
56.163831572377731
 30
0.0
 11
406.9369139501501991
 21
56.163831572377731
 31
0.0
  0
ARC
  5
1F03
  8
0
 10
406.9939649988183987
 20
56.2011855157691187
 30
0.0
 40
0.0197206104327335
 50
270.1134040302060271
 51
0.0433753089629709
  0
ARC
  5
1F04
  8
0
 10
406.9369139501501991
 20
56.1598945644777103
 30
0.0
 40
0.0039370079
 50
90.0
 51
139.785828982699087
  0
ARC
  5
1F05
  8
0
 10
407.1022682808501827
 20
56.0200892030777098
 30
0.0
 40
0.2204724409
 50
29.3405269175548007
 51
40.2141710173971632
  0
ARC
  5
1F06
  8
0
 10
407.1022682808501827
 20
56.0200892030777098
 30
0.0
 40
0.2204724409
 50
139.7858289826027942
 51
150.6594730824452029
  0
ARC
  5
1F07
  8
0
 10
407.2105715835759838
 20
56.2011855241512421
 30
0.0
 40
0.019720631032997
 50
179.9577675565932964
 51
269.8699851551775168
  0
ARC
  5
1F08
  8
0
 10
407.2676226115502232
 20
56.1598945644777103
 30
0.0
 40
0.0039370079
 50
40.2141710173009272
 51
90.0
  0
LINE
  5
1F09
  8
0
 10
406.9546890261776753
 20
56.1814649439776872
 30
0.0
 11
407.2499060761501823
 21
56.1814649438777067
 31
0.0
  0
ARC
  5
1F0A
  8
0
 10
407.2499060761501823
 20
56.1716224242777074
 30
0.0
 40
0.0098425197000021
 50
0.0
 51
90.0000000000195257
  0
ARC
  5
1F0B
  8
0
 10
406.9546307953391988
 20
56.1716222647216696
 30
0.0
 40
0.0098428515069536
 50
89.6610331119800179
 51
180.121190710278313
  0
LINE
  5
1F0C
  8
0
 10
407.2597485957501817
 20
56.1716224242777074
 30
0.0
 11
407.2597485957501817
 21
56.163831572377731
 31
0.0
  0
LINE
  5
1F0D
  8
0
 10
406.9447879658501961
 20
56.1716014453648995
 30
0.0
 11
406.9447879658501961
 21
56.163831572377731
 31
0.0
  0
LINE
  5
1F0E
  8
0
 10
406.6495123752501968
 20
55.4985541678543726
 30
0.0
 11
406.6495123752501968
 21
55.3759399247777466
 31
0.0
  0
LINE
  5
1F0F
  8
0
 10
406.6298273358502229
 20
55.5561499052189305
 30
0.0
 11
406.6298273358502229
 21
55.5136420199802814
 31
0.0
  0
ARC
  5
1F10
  8
0
 10
407.1016725670284018
 20
42.2565275650641468
 30
0.0
 40
13.31506245863965
 50
89.9974365961730456
 51
90.4864474098311717
  0
ARC
  5
1F11
  8
0
 10
407.078549408463175
 20
44.9800029810044109
 30
0.0
 40
10.5914888830421301
 50
90.4864474098311717
 51
91.4720258213310871
  0
ARC
  5
1F12
  8
0
 10
406.9031656147629974
 20
51.8049784629678527
 30
0.0
 40
3.764260323480443
 50
91.4720258213310871
 51
93.4737859793187909
  0
ARC
  5
1F13
  8
0
 10
406.6935663937501886
 20
55.2578199739739802
 30
0.0
 40
0.3050629695302197
 50
93.4737859793187909
 51
102.7981099383023036
  0
ARC
  5
1F14
  8
0
 10
406.6295858444592
 20
55.5568784808668426
 30
0.0
 40
0.0039254089658374
 50
203.6443853063759093
 51
273.5270669497194831
  0
ARC
  5
1F15
  8
0
 10
406.7597635831913863
 20
55.5991252248484216
 30
0.0
 40
0.1555339406291126
 50
213.3403477744583938
 51
224.8580662140523998
  0
ARC
  5
1F16
  8
0
 10
406.5799408085935056
 20
55.4281699280754196
 30
0.0
 40
0.0989653681664757
 50
45.3326922827008829
 51
59.7296570425163793
  0
ARC
  5
1F17
  8
0
 10
407.1021796198779157
 20
42.468542156799117
 30
0.0
 40
12.9231987214827306
 50
89.9996069169091442
 51
90.1975664124596364
  0
ARC
  5
1F18
  8
0
 10
407.1006391819020109
 20
42.9152792500023494
 30
0.0
 40
12.4764589724197794
 50
90.1975664124596364
 51
90.4832493937188644
  0
ARC
  5
1F19
  8
0
 10
407.0897229151137253
 20
44.2095202609304891
 30
0.0
 40
11.1821719257223098
 50
90.4832493937188644
 51
90.8629281126912502
  0
ARC
  5
1F1A
  8
0
 10
407.0406129764293155
 20
47.470022986054822
 30
0.0
 40
7.9212993727664571
 50
90.862928112687996
 51
91.8976462532262133
  0
ARC
  5
1F1B
  8
0
 10
406.8560895169861169
 20
53.0393167134396393
 30
0.0
 40
2.3489496413719149
 50
91.8976462532262133
 51
94.2709514461577385
  0
ARC
  5
1F1C
  8
0
 10
406.7004667858382732
 20
55.1231625938052332
 30
0.0
 40
0.259300846103553
 50
94.2709514461577385
 51
99.7269261994659217
  0
ARC
  5
1F1D
  8
0
 10
406.6598685441177281
 20
55.3600018627877617
 30
0.0
 40
0.0190071579571876
 50
99.7269261994659217
 51
123.0148410230044931
  0
ARC
  5
1F1E
  8
0
 10
406.6578963379179754
 20
55.3870633758639386
 30
0.0
 40
0.0139291777963314
 50
232.993952003858908
 51
262.8176797313971065
  0
ARC
  5
1F1F
  8
0
 10
406.7406213737489793
 20
55.9596356276174021
 30
0.0
 40
0.5924443705003721
 50
261.8032389126088901
 51
267.5800672765558943
  0
ARC
  5
1F20
  8
0
 10
406.916008750535525
 20
58.9450010085232279
 30
0.0
 40
3.582890365243256
 50
266.7935939710296225
 51
269.2034064926908741
  0
ARC
  5
1F21
  8
0
 10
407.0808136780875088
 20
65.6646713763045824
 30
0.0
 40
10.3044496742387697
 50
268.8065804936496193
 51
269.6703149168133109
  0
ARC
  5
1F22
  8
0
 10
407.1018445900468805
 20
68.0945734935422138
 30
0.0
 40
12.7344345290128604
 50
269.6386005517069862
 51
270.001906302647626
  0
LINE
  5
1F23
  8
0
 10
407.0505739373325014
 20
55.364261043015361
 30
0.0
 11
407.1539626240679013
 21
55.364261043015361
 31
0.0
  0
ARC
  5
1F24
  8
0
 10
406.7716736672875868
 20
55.3989751611879484
 30
0.0
 40
0.0248665941679737
 50
211.7415761253280948
 51
263.8029070658815272
  0
ARC
  5
1F25
  8
0
 10
406.9022904507796738
 20
56.6018915354113687
 30
0.0
 40
1.234853597199264
 50
263.8029070658815272
 51
266.6740766233155
  0
ARC
  5
1F26
  8
0
 10
406.9479347582870901
 20
57.3873239687966787
 30
0.0
 40
2.0216111902489851
 50
266.6740766233155
 51
269.7412591851007733
  0
ARC
  5
1F27
  8
0
 10
406.9096494354753872
 20
48.9094481306274176
 30
0.0
 40
6.4563510940122963
 50
88.749290372866227
 51
89.7412591851008585
  0
ARC
  5
1F28
  8
0
 10
407.0826131437847835
 20
55.143151410644208
 30
0.0
 40
0.2250087777004483
 50
85.9943050908358941
 51
94.0911789128328735
  0
ARC
  5
1F29
  8
0
 10
407.0822708945485147
 20
55.6019374361884573
 30
0.0
 40
0.2348766501189919
 50
266.1646580198449783
 51
273.9208259838214872
  0
ARC
  5
1F2A
  8
0
 10
407.0826131437847835
 20
55.1454942394829004
 30
0.0
 40
0.2250087777004483
 50
85.9943050908358941
 51
94.0911789128328735
  0
ARC
  5
1F2B
  8
0
 10
407.0822708945485147
 20
55.6042802650271568
 30
0.0
 40
0.2348766501189919
 50
266.1646580198449783
 51
273.9208259838214872
  0
ARC
  5
1F2C
  8
0
 10
407.0826131437847835
 20
55.1479211103940088
 30
0.0
 40
0.2250087777004483
 50
85.9943050908358941
 51
94.0911789128328735
  0
ARC
  5
1F2D
  8
0
 10
407.0822708945485147
 20
55.606707135938251
 30
0.0
 40
0.2348766501189919
 50
266.1646580198449783
 51
273.9208259838214872
  0
ARC
  5
1F2E
  8
0
 10
407.0826131437847835
 20
55.1502647716071408
 30
0.0
 40
0.2250087777004483
 50
85.9943050908358941
 51
94.0911789128328735
  0
ARC
  5
1F2F
  8
0
 10
407.0822708945485147
 20
55.609050797151383
 30
0.0
 40
0.2348766501189919
 50
266.1646580198449783
 51
273.9208259838214872
  0
ARC
  5
1F30
  8
0
 10
407.0826131437847835
 20
55.152707568615817
 30
0.0
 40
0.2250087777004483
 50
85.9943050908358941
 51
94.0911789128328735
  0
ARC
  5
1F31
  8
0
 10
407.0822708945485147
 20
55.6114935941600592
 30
0.0
 40
0.2348766501189919
 50
266.1646580198449783
 51
273.9208259838214872
  0
ARC
  5
1F32
  8
0
 10
407.0826131437847835
 20
55.1551058058462615
 30
0.0
 40
0.2250087777004483
 50
85.9943050908358941
 51
94.0911789128328735
  0
ARC
  5
1F33
  8
0
 10
407.0822708945485147
 20
55.613891831390518
 30
0.0
 40
0.2348766501189919
 50
266.1646580198449783
 51
273.9208259838214872
  0
ARC
  5
1F34
  8
0
 10
407.0826131437847835
 20
55.1574264657790891
 30
0.0
 40
0.2250087777004483
 50
85.9943050908358941
 51
94.0911789128328735
  0
ARC
  5
1F35
  8
0
 10
407.0822708945485147
 20
55.6162124913233384
 30
0.0
 40
0.2348766501189919
 50
266.1646580198449783
 51
273.9208259838214872
  0
ARC
  5
1F36
  8
0
 10
407.0826131437847835
 20
55.1598427377890204
 30
0.0
 40
0.2250087777004483
 50
85.9943050908358941
 51
94.0911789128328735
  0
ARC
  5
1F37
  8
0
 10
407.0822708945485147
 20
55.6186287633332626
 30
0.0
 40
0.2348766501189919
 50
266.1646580198449783
 51
273.9208259838214872
  0
ARC
  5
1F38
  8
0
 10
407.0629058879110858
 20
55.1419192190179928
 30
0.0
 40
0.2250087777004483
 50
85.9943050908358941
 51
94.0911789128328735
  0
ARC
  5
1F39
  8
0
 10
407.062563638674817
 20
55.6007052445622278
 30
0.0
 40
0.2348766501189919
 50
266.1646580198449783
 51
273.9208259838214872
  0
ARC
  5
1F3A
  8
0
 10
407.0432546586080775
 20
55.1431527701891326
 30
0.0
 40
0.2250087777004483
 50
85.9943050908358941
 51
94.0911789128328735
  0
ARC
  5
1F3B
  8
0
 10
407.0429124093718087
 20
55.6019387957333677
 30
0.0
 40
0.2348766501189919
 50
266.1646580198449783
 51
273.9208259838214872
  0
ARC
  5
1F3C
  8
0
 10
407.063257734774993
 20
55.1443366840979508
 30
0.0
 40
0.2250087777004483
 50
85.9943050908358941
 51
94.0911789128328735
  0
ARC
  5
1F3D
  8
0
 10
407.0629154855387242
 20
55.6031227096421929
 30
0.0
 40
0.2348766501189919
 50
266.1646580198449783
 51
273.9208259838214872
  0
ARC
  5
1F3E
  8
0
 10
407.0436065054719847
 20
55.1455702352690906
 30
0.0
 40
0.2250087777004483
 50
85.9943050908358941
 51
94.0911789128328735
  0
ARC
  5
1F3F
  8
0
 10
407.0432642562357159
 20
55.6043562608133328
 30
0.0
 40
0.2348766501189919
 50
266.1646580198449783
 51
273.9208259838214872
  0
ARC
  5
1F40
  8
0
 10
407.0630146156045157
 20
55.146665556791902
 30
0.0
 40
0.2250087777004483
 50
85.9943050908358941
 51
94.0911789128328735
  0
ARC
  5
1F41
  8
0
 10
407.0626723663680764
 20
55.6054515823361371
 30
0.0
 40
0.2348766501189919
 50
266.1646580198449783
 51
273.9208259838214872
  0
ARC
  5
1F42
  8
0
 10
407.0433633863013938
 20
55.1478991079630205
 30
0.0
 40
0.2250087777004483
 50
85.9943050908358941
 51
94.0911789128328735
  0
ARC
  5
1F43
  8
0
 10
407.043021137065125
 20
55.6066851335072769
 30
0.0
 40
0.2348766501189919
 50
266.1646580198449783
 51
273.9208259838214872
  0
ARC
  5
1F44
  8
0
 10
407.0627023126555173
 20
55.149087017269153
 30
0.0
 40
0.2250087777004483
 50
85.9943050908358941
 51
94.0911789128328735
  0
ARC
  5
1F45
  8
0
 10
407.0623600634193053
 20
55.6078730428134023
 30
0.0
 40
0.2348766501189919
 50
266.1646580198449783
 51
273.9208259838214872
  0
ARC
  5
1F46
  8
0
 10
407.0430510833525091
 20
55.1503205684402928
 30
0.0
 40
0.2250087777004483
 50
85.9943050908358941
 51
94.0911789128328735
  0
ARC
  5
1F47
  8
0
 10
407.0427088341162971
 20
55.6091065939845279
 30
0.0
 40
0.2348766501189919
 50
266.1646580198449783
 51
273.9208259838214872
  0
ARC
  5
1F48
  8
0
 10
407.0626266225659151
 20
55.151467580415698
 30
0.0
 40
0.2250087777004483
 50
85.9943050908358941
 51
94.0911789128328735
  0
ARC
  5
1F49
  8
0
 10
407.0622843733294758
 20
55.6102536059599473
 30
0.0
 40
0.2348766501189919
 50
266.1646580198449783
 51
273.9208259838214872
  0
ARC
  5
1F4A
  8
0
 10
407.0429753932629069
 20
55.1527011315868378
 30
0.0
 40
0.2250087777004483
 50
85.9943050908358941
 51
94.0911789128328735
  0
ARC
  5
1F4B
  8
0
 10
407.0426331440265244
 20
55.61148715713108
 30
0.0
 40
0.2348766501189919
 50
266.1646580198449783
 51
273.9208259838214872
  0
ARC
  5
1F4C
  8
0
 10
407.0624612899630961
 20
55.1538693413645973
 30
0.0
 40
0.2250087777004483
 50
85.9943050908358941
 51
94.0911789128328735
  0
ARC
  5
1F4D
  8
0
 10
407.0621190407268273
 20
55.6126553669088395
 30
0.0
 40
0.2348766501189919
 50
266.1646580198449783
 51
273.9208259838214872
  0
ARC
  5
1F4E
  8
0
 10
407.0428100606599742
 20
55.1551028925357301
 30
0.0
 40
0.2250087777004483
 50
85.9943050908358941
 51
94.0911789128328735
  0
ARC
  5
1F4F
  8
0
 10
407.0424678114238191
 20
55.6138889180799794
 30
0.0
 40
0.2348766501189919
 50
266.1646580198449783
 51
273.9208259838214872
  0
ARC
  5
1F50
  8
0
 10
407.0634727322217259
 20
55.1562707138720896
 30
0.0
 40
0.2250087777004483
 50
85.9943050908358941
 51
94.0911789128328735
  0
ARC
  5
1F51
  8
0
 10
407.0631304829855139
 20
55.6150567394163318
 30
0.0
 40
0.2348766501189919
 50
266.1646580198449783
 51
273.9208259838214872
  0
ARC
  5
1F52
  8
0
 10
407.0438215029187177
 20
55.1575042650432223
 30
0.0
 40
0.2250087777004483
 50
85.9943050908358941
 51
94.0911789128328735
  0
ARC
  5
1F53
  8
0
 10
407.0434792536825057
 20
55.6162902905874716
 30
0.0
 40
0.2348766501189919
 50
266.1646580198449783
 51
273.9208259838214872
  0
ARC
  5
1F54
  8
0
 10
407.0641316769854257
 20
55.1585909298718917
 30
0.0
 40
0.2250087777004483
 50
85.9943050908358941
 51
94.0911789128328735
  0
ARC
  5
1F55
  8
0
 10
407.0637894277489863
 20
55.6173769554161268
 30
0.0
 40
0.2348766501189919
 50
266.1646580198449783
 51
273.9208259838214872
  0
ARC
  5
1F56
  8
0
 10
407.0444804476823037
 20
55.1598244810430174
 30
0.0
 40
0.2250087777004483
 50
85.9943050908358941
 51
94.0911789128328735
  0
ARC
  5
1F57
  8
0
 10
407.0441381984459781
 20
55.6186105065872667
 30
0.0
 40
0.2348766501189919
 50
266.1646580198449783
 51
273.9208259838214872
  0
ARC
  5
1F58
  8
0
 10
407.0637431779003919
 20
55.1610161360341209
 30
0.0
 40
0.2250087777004483
 50
85.9943050908358941
 51
94.0911789128328735
  0
ARC
  5
1F59
  8
0
 10
407.0634009286640094
 20
55.6198021615783631
 30
0.0
 40
0.2348766501189919
 50
266.1646580198449783
 51
273.9208259838214872
  0
ARC
  5
1F5A
  8
0
 10
407.0234867494534114
 20
55.1419398341582365
 30
0.0
 40
0.2250087777004483
 50
85.9943050908358941
 51
94.0911789128328735
  0
ARC
  5
1F5B
  8
0
 10
407.0231445002169721
 20
55.6007258597024787
 30
0.0
 40
0.2348766501189919
 50
266.1646580198449783
 51
273.9208259838214872
  0
ARC
  5
1F5C
  8
0
 10
407.0038355201504032
 20
55.1431733853293693
 30
0.0
 40
0.2250087777004483
 50
85.9943050908358941
 51
94.0911789128328735
  0
ARC
  5
1F5D
  8
0
 10
407.0034932709140207
 20
55.6019594108736186
 30
0.0
 40
0.2348766501189919
 50
266.1646580198449783
 51
273.9208259838214872
  0
ARC
  5
1F5E
  8
0
 10
407.0238385963173187
 20
55.1443572992381874
 30
0.0
 40
0.2250087777004483
 50
85.9943050908358941
 51
94.0911789128328735
  0
ARC
  5
1F5F
  8
0
 10
407.0234963470808793
 20
55.6031433247824367
 30
0.0
 40
0.2348766501189919
 50
266.1646580198449783
 51
273.9208259838214872
  0
ARC
  5
1F60
  8
0
 10
407.0041873670143104
 20
55.1455908504093273
 30
0.0
 40
0.2250087777004483
 50
85.9943050908358941
 51
94.0911789128328735
  0
ARC
  5
1F61
  8
0
 10
407.003845117777928
 20
55.6043768759535695
 30
0.0
 40
0.2348766501189919
 50
266.1646580198449783
 51
273.9208259838214872
  0
ARC
  5
1F62
  8
0
 10
407.0235954771467277
 20
55.1466861719321528
 30
0.0
 40
0.2250087777004483
 50
85.9943050908358941
 51
94.0911789128328735
  0
ARC
  5
1F63
  8
0
 10
407.0232532279104021
 20
55.6054721974763879
 30
0.0
 40
0.2348766501189919
 50
266.1646580198449783
 51
273.9208259838214872
  0
ARC
  5
1F64
  8
0
 10
407.0039442478437195
 20
55.1479197231032714
 30
0.0
 40
0.2250087777004483
 50
85.9943050908358941
 51
94.0911789128328735
  0
ARC
  5
1F65
  8
0
 10
407.0036019986073939
 20
55.6067057486475278
 30
0.0
 40
0.2348766501189919
 50
266.1646580198449783
 51
273.9208259838214872
  0
ARC
  5
1F66
  8
0
 10
407.0232831741977861
 20
55.1491076324093967
 30
0.0
 40
0.2250087777004483
 50
85.9943050908358941
 51
94.0911789128328735
  0
ARC
  5
1F67
  8
0
 10
407.0229409249614037
 20
55.6078936579536531
 30
0.0
 40
0.2348766501189919
 50
266.1646580198449783
 51
273.9208259838214872
  0
ARC
  5
1F68
  8
0
 10
407.0036319448947779
 20
55.1503411835805366
 30
0.0
 40
0.2250087777004483
 50
85.9943050908358941
 51
94.0911789128328735
  0
ARC
  5
1F69
  8
0
 10
407.0032896956583954
 20
55.6091272091247788
 30
0.0
 40
0.2348766501189919
 50
266.1646580198449783
 51
273.9208259838214872
  0
ARC
  5
1F6A
  8
0
 10
407.0232074841081271
 20
55.1514881955559417
 30
0.0
 40
0.2250087777004483
 50
85.9943050908358941
 51
94.0911789128328735
  0
ARC
  5
1F6B
  8
0
 10
407.0228652348718015
 20
55.610274221100191
 30
0.0
 40
0.2348766501189919
 50
266.1646580198449783
 51
273.9208259838214872
  0
ARC
  5
1F6C
  8
0
 10
407.0035562548051189
 20
55.1527217467270816
 30
0.0
 40
0.2250087777004483
 50
85.9943050908358941
 51
94.0911789128328735
  0
ARC
  5
1F6D
  8
0
 10
407.0032140055687933
 20
55.6115077722713167
 30
0.0
 40
0.2348766501189919
 50
266.1646580198449783
 51
273.9208259838214872
  0
ARC
  5
1F6E
  8
0
 10
407.0230421515053081
 20
55.1538899565048411
 30
0.0
 40
0.2250087777004483
 50
85.9943050908358941
 51
94.0911789128328735
  0
ARC
  5
1F6F
  8
0
 10
407.0226999022689824
 20
55.6126759820490832
 30
0.0
 40
0.2348766501189919
 50
266.1646580198449783
 51
273.9208259838214872
  0
ARC
  5
1F70
  8
0
 10
407.0033909222022999
 20
55.1551235076759809
 30
0.0
 40
0.2250087777004483
 50
85.9943050908358941
 51
94.0911789128328735
  0
ARC
  5
1F71
  8
0
 10
407.0030486729659742
 20
55.6139095332202231
 30
0.0
 40
0.2348766501189919
 50
266.1646580198449783
 51
273.9208259838214872
  0
ARC
  5
1F72
  8
0
 10
407.0240535937641084
 20
55.1562913290123333
 30
0.0
 40
0.2250087777004483
 50
85.9943050908358941
 51
94.0911789128328735
  0
ARC
  5
1F73
  8
0
 10
407.0237113445277259
 20
55.6150773545565684
 30
0.0
 40
0.2348766501189919
 50
266.1646580198449783
 51
273.9208259838214872
  0
ARC
  5
1F74
  8
0
 10
407.0044023644609865
 20
55.157524880183459
 30
0.0
 40
0.2250087777004483
 50
85.9943050908358941
 51
94.0911789128328735
  0
ARC
  5
1F75
  8
0
 10
407.0040601152247177
 20
55.6163109057277083
 30
0.0
 40
0.2348766501189919
 50
266.1646580198449783
 51
273.9208259838214872
  0
ARC
  5
1F76
  8
0
 10
407.0247125385276945
 20
55.1586115450121284
 30
0.0
 40
0.2250087777004483
 50
85.9943050908358941
 51
94.0911789128328735
  0
ARC
  5
1F77
  8
0
 10
407.0243702892914257
 20
55.6173975705563706
 30
0.0
 40
0.2348766501189919
 50
266.1646580198449783
 51
273.9208259838214872
  0
ARC
  5
1F78
  8
0
 10
407.0050613092246863
 20
55.1598450961832611
 30
0.0
 40
0.2250087777004483
 50
85.9943050908358941
 51
94.0911789128328735
  0
ARC
  5
1F79
  8
0
 10
407.0047190599884175
 20
55.6186311217275104
 30
0.0
 40
0.2348766501189919
 50
266.1646580198449783
 51
273.9208259838214872
  0
ARC
  5
1F7A
  8
0
 10
407.0243240394426039
 20
55.1610367511743576
 30
0.0
 40
0.2250087777004483
 50
85.9943050908358941
 51
94.0911789128328735
  0
ARC
  5
1F7B
  8
0
 10
407.0239817902063919
 20
55.6198227767186069
 30
0.0
 40
0.2348766501189919
 50
266.1646580198449783
 51
273.9208259838214872
  0
ARC
  5
1F7C
  8
0
 10
406.9841838570932282
 20
55.144390122536862
 30
0.0
 40
0.2250087777004483
 50
85.9943050908358941
 51
94.0911789128328735
  0
ARC
  5
1F7D
  8
0
 10
406.9838416078569026
 20
55.6031761480810971
 30
0.0
 40
0.2348766501189919
 50
266.1646580198449783
 51
273.9208259838214872
  0
ARC
  5
1F7E
  8
0
 10
406.9646043418006798
 20
55.1455341379642903
 30
0.0
 40
0.2250087777004483
 50
85.9943050908358941
 51
94.0911789128328735
  0
ARC
  5
1F7F
  8
0
 10
406.9642620925645247
 20
55.6043201635085467
 30
0.0
 40
0.2348766501189919
 50
266.1646580198449783
 51
273.9208259838214872
  0
ARC
  5
1F80
  8
0
 10
406.9845357039571923
 20
55.14680758761682
 30
0.0
 40
0.2250087777004483
 50
85.9943050908358941
 51
94.0911789128328735
  0
ARC
  5
1F81
  8
0
 10
406.9841934547208098
 20
55.6055936131610622
 30
0.0
 40
0.2348766501189919
 50
266.1646580198449783
 51
273.9208259838214872
  0
ARC
  5
1F82
  8
0
 10
406.964956188664587
 20
55.1479516030442483
 30
0.0
 40
0.2250087777004483
 50
85.9943050908358941
 51
94.0911789128328735
  0
ARC
  5
1F83
  8
0
 10
406.964613939428375
 20
55.6067376285885118
 30
0.0
 40
0.2348766501189919
 50
266.1646580198449783
 51
273.9208259838214872
  0
ARC
  5
1F84
  8
0
 10
406.9842925847866013
 20
55.1491364603107712
 30
0.0
 40
0.2250087777004483
 50
85.9943050908358941
 51
94.0911789128328735
  0
ARC
  5
1F85
  8
0
 10
406.9839503355502757
 20
55.6079224858550134
 30
0.0
 40
0.2348766501189919
 50
266.1646580198449783
 51
273.9208259838214872
  0
ARC
  5
1F86
  8
0
 10
406.964713069493996
 20
55.1502804757381995
 30
0.0
 40
0.2250087777004483
 50
85.9943050908358941
 51
94.0911789128328735
  0
ARC
  5
1F87
  8
0
 10
406.9643708202577272
 20
55.6090665012824417
 30
0.0
 40
0.2348766501189919
 50
266.1646580198449783
 51
273.9208259838214872
  0
ARC
  5
1F88
  8
0
 10
406.9839802818377166
 20
55.1515579207880222
 30
0.0
 40
0.2250087777004483
 50
85.9943050908358941
 51
94.0911789128328735
  0
ARC
  5
1F89
  8
0
 10
406.9836380326013909
 20
55.6103439463322573
 30
0.0
 40
0.2348766501189919
 50
266.1646580198449783
 51
273.9208259838214872
  0
ARC
  5
1F8A
  8
0
 10
406.964400766545225
 20
55.1527019362154576
 30
0.0
 40
0.2250087777004483
 50
85.9943050908358941
 51
94.0911789128328735
  0
ARC
  5
1F8B
  8
0
 10
406.9640585173088994
 20
55.6114879617596998
 30
0.0
 40
0.2348766501189919
 50
266.1646580198449783
 51
273.9208259838214872
  0
ARC
  5
1F8C
  8
0
 10
406.9839045917480007
 20
55.1539384839345672
 30
0.0
 40
0.2250087777004483
 50
85.9943050908358941
 51
94.0911789128328735
  0
ARC
  5
1F8D
  8
0
 10
406.9835623425116751
 20
55.6127245094788094
 30
0.0
 40
0.2348766501189919
 50
266.1646580198449783
 51
273.9208259838214872
  0
ARC
  5
1F8E
  8
0
 10
406.9643250764555091
 20
55.1550824993620097
 30
0.0
 40
0.2250087777004483
 50
85.9943050908358941
 51
94.0911789128328735
  0
ARC
  5
1F8F
  8
0
 10
406.9639828272191266
 20
55.6138685249062519
 30
0.0
 40
0.2348766501189919
 50
266.1646580198449783
 51
273.9208259838214872
  0
ARC
  5
1F90
  8
0
 10
406.9837392591451817
 20
55.1563402448834594
 30
0.0
 40
0.2250087777004483
 50
85.9943050908358941
 51
94.0911789128328735
  0
ARC
  5
1F91
  8
0
 10
406.9833970099089129
 20
55.6151262704277087
 30
0.0
 40
0.2348766501189919
 50
266.1646580198449783
 51
273.9208259838214872
  0
ARC
  5
1F92
  8
0
 10
406.9641597438526901
 20
55.157484260310909
 30
0.0
 40
0.2250087777004483
 50
85.9943050908358941
 51
94.0911789128328735
  0
ARC
  5
1F93
  8
0
 10
406.9638174946164213
 20
55.6162702858551512
 30
0.0
 40
0.2348766501189919
 50
266.1646580198449783
 51
273.9208259838214872
  0
ARC
  5
1F94
  8
0
 10
406.9847507014038115
 20
55.1587416173909588
 30
0.0
 40
0.2250087777004483
 50
85.9943050908358941
 51
94.0911789128328735
  0
ARC
  5
1F95
  8
0
 10
406.9844084521675995
 20
55.617527642935201
 30
0.0
 40
0.2348766501189919
 50
266.1646580198449783
 51
273.9208259838214872
  0
ARC
  5
1F96
  8
0
 10
406.9651711861113768
 20
55.1598856328183871
 30
0.0
 40
0.2250087777004483
 50
85.9943050908358941
 51
94.0911789128328735
  0
ARC
  5
1F97
  8
0
 10
406.964828936875108
 20
55.6186716583626293
 30
0.0
 40
0.2348766501189919
 50
266.1646580198449783
 51
273.9208259838214872
  0
ARC
  5
1F98
  8
0
 10
406.9854096461675113
 20
55.1610618333907468
 30
0.0
 40
0.2250087777004483
 50
85.9943050908358941
 51
94.0911789128328735
  0
ARC
  5
1F99
  8
0
 10
406.9850673969311856
 20
55.6198478589350032
 30
0.0
 40
0.2348766501189919
 50
266.1646580198449783
 51
273.9208259838214872
  0
ARC
  5
1F9A
  8
0
 10
406.9644719022169284
 20
55.1431655055180272
 30
0.0
 40
0.2250087777004483
 50
85.9943050908358941
 51
94.0911789128328735
  0
ARC
  5
1F9B
  8
0
 10
406.964129652980489
 20
55.6019515310622694
 30
0.0
 40
0.2348766501189919
 50
266.1646580198449783
 51
273.9208259838214872
  0
ARC
  5
1F9C
  8
0
 10
406.9448923869243231
 20
55.1443095209454626
 30
0.0
 40
0.2250087777004483
 50
85.9943050908358941
 51
94.0911789128328735
  0
ARC
  5
1F9D
  8
0
 10
406.9445501376879974
 20
55.6030955464897119
 30
0.0
 40
0.2348766501189919
 50
266.1646580198449783
 51
273.9208259838214872
  0
ARC
  5
1F9E
  8
0
 10
406.9251746486600041
 20
55.1455825544107725
 30
0.0
 40
0.2250087777004483
 50
85.9943050908358941
 51
94.0911789128328735
  0
ARC
  5
1F9F
  8
0
 10
406.9248323994236216
 20
55.6043685799550076
 30
0.0
 40
0.2348766501189919
 50
266.1646580198449783
 51
273.9208259838214872
  0
ARC
  5
1FA0
  8
0
 10
406.9448923869243231
 20
55.1467370577561127
 30
0.0
 40
0.2250087777004483
 50
85.9943050908358941
 51
94.0911789128328735
  0
ARC
  5
1FA1
  8
0
 10
406.9445501376879974
 20
55.6055230833003478
 30
0.0
 40
0.2348766501189919
 50
266.1646580198449783
 51
273.9208259838214872
  0
ARC
  5
1FA2
  8
0
 10
406.9251746486600041
 20
55.1480100912214226
 30
0.0
 40
0.2250087777004483
 50
85.9943050908358941
 51
94.0911789128328735
  0
ARC
  5
1FA3
  8
0
 10
406.9248323994236216
 20
55.6067961167656577
 30
0.0
 40
0.2348766501189919
 50
266.1646580198449783
 51
273.9208259838214872
  0
ARC
  5
1FA4
  8
0
 10
406.9448923869243231
 20
55.1490997525980404
 30
0.0
 40
0.2250087777004483
 50
85.9943050908358941
 51
94.0911789128328735
  0
ARC
  5
1FA5
  8
0
 10
406.9445501376879974
 20
55.6078857781422968
 30
0.0
 40
0.2348766501189919
 50
266.1646580198449783
 51
273.9208259838214872
  0
ARC
  5
1FA6
  8
0
 10
406.9251746486600041
 20
55.1503727860633504
 30
0.0
 40
0.2250087777004483
 50
85.9943050908358941
 51
94.0911789128328735
  0
ARC
  5
1FA7
  8
0
 10
406.9248323994236216
 20
55.6091588116075926
 30
0.0
 40
0.2348766501189919
 50
266.1646580198449783
 51
273.9208259838214872
  0
ARC
  5
1FA8
  8
0
 10
406.9448923869243231
 20
55.1514501837899402
 30
0.0
 40
0.2250087777004483
 50
85.9943050908358941
 51
94.0911789128328735
  0
ARC
  5
1FA9
  8
0
 10
406.9445501376879974
 20
55.6102362093341824
 30
0.0
 40
0.2348766501189919
 50
266.1646580198449783
 51
273.9208259838214872
  0
ARC
  5
1FAA
  8
0
 10
406.9251746486600041
 20
55.1527232172552502
 30
0.0
 40
0.2250087777004483
 50
85.9943050908358941
 51
94.0911789128328735
  0
ARC
  5
1FAB
  8
0
 10
406.9248323994236216
 20
55.6115092427994924
 30
0.0
 40
0.2348766501189919
 50
266.1646580198449783
 51
273.9208259838214872
  0
ARC
  5
1FAC
  8
0
 10
406.9448923869243231
 20
55.1538954224303168
 30
0.0
 40
0.2250087777004483
 50
85.9943050908358941
 51
94.0911789128328735
  0
ARC
  5
1FAD
  8
0
 10
406.9445501376879974
 20
55.612681447974559
 30
0.0
 40
0.2348766501189919
 50
266.1646580198449783
 51
273.9208259838214872
  0
ARC
  5
1FAE
  8
0
 10
406.9251746486600041
 20
55.1551684558956197
 30
0.0
 40
0.2250087777004483
 50
85.9943050908358941
 51
94.0911789128328735
  0
ARC
  5
1FAF
  8
0
 10
406.9248323994236216
 20
55.613954481439869
 30
0.0
 40
0.2348766501189919
 50
266.1646580198449783
 51
273.9208259838214872
  0
ARC
  5
1FB0
  8
0
 10
406.9448923869243231
 20
55.1562236847163518
 30
0.0
 40
0.2250087777004483
 50
85.9943050908358941
 51
94.0911789128328735
  0
ARC
  5
1FB1
  8
0
 10
406.9445501376879974
 20
55.6150097102606011
 30
0.0
 40
0.2348766501189919
 50
266.1646580198449783
 51
273.9208259838214872
  0
ARC
  5
1FB2
  8
0
 10
406.9251746486600041
 20
55.1574967181816476
 30
0.0
 40
0.2250087777004483
 50
85.9943050908358941
 51
94.0911789128328735
  0
ARC
  5
1FB3
  8
0
 10
406.9248323994236216
 20
55.6162827437259111
 30
0.0
 40
0.2348766501189919
 50
266.1646580198449783
 51
273.9208259838214872
  0
ARC
  5
1FB4
  8
0
 10
406.9448923869243231
 20
55.1586049137624386
 30
0.0
 40
0.2250087777004483
 50
85.9943050908358941
 51
94.0911789128328735
  0
ARC
  5
1FB5
  8
0
 10
406.9445501376879974
 20
55.6173909393066808
 30
0.0
 40
0.2348766501189919
 50
266.1646580198449783
 51
273.9208259838214872
  0
ARC
  5
1FB6
  8
0
 10
406.9055116357039878
 20
55.1443095209454626
 30
0.0
 40
0.2250087777004483
 50
85.9943050908358941
 51
94.0911789128328735
  0
ARC
  5
1FB7
  8
0
 10
406.9051693864677191
 20
55.6030955464897119
 30
0.0
 40
0.2348766501189919
 50
266.1646580198449783
 51
273.9208259838214872
  0
ARC
  5
1FB8
  8
0
 10
406.8857938974397257
 20
55.1455825544107725
 30
0.0
 40
0.2250087777004483
 50
85.9943050908358941
 51
94.0911789128328735
  0
ARC
  5
1FB9
  8
0
 10
406.8854516482034001
 20
55.6043685799550076
 30
0.0
 40
0.2348766501189919
 50
266.1646580198449783
 51
273.9208259838214872
  0
ARC
  5
1FBA
  8
0
 10
406.9055116357039878
 20
55.1467456034670107
 30
0.0
 40
0.2250087777004483
 50
85.9943050908358941
 51
94.0911789128328735
  0
ARC
  5
1FBB
  8
0
 10
406.9051693864677191
 20
55.60553162901126
 30
0.0
 40
0.2348766501189919
 50
266.1646580198449783
 51
273.9208259838214872
  0
ARC
  5
1FBC
  8
0
 10
406.8857938974397257
 20
55.1480186369323206
 30
0.0
 40
0.2250087777004483
 50
85.9943050908358941
 51
94.0911789128328735
  0
ARC
  5
1FBD
  8
0
 10
406.8854516482034001
 20
55.6068046624765628
 30
0.0
 40
0.2348766501189919
 50
266.1646580198449783
 51
273.9208259838214872
  0
ARC
  5
1FBE
  8
0
 10
406.9055116357039878
 20
55.1490897641048008
 30
0.0
 40
0.2250087777004483
 50
85.9943050908358941
 51
94.0911789128328735
  0
ARC
  5
1FBF
  8
0
 10
406.9051693864677191
 20
55.607875789649043
 30
0.0
 40
0.2348766501189919
 50
266.1646580198449783
 51
273.9208259838214872
  0
ARC
  5
1FC0
  8
0
 10
406.8857938974397257
 20
55.1503627975701107
 30
0.0
 40
0.2250087777004483
 50
85.9943050908358941
 51
94.0911789128328735
  0
ARC
  5
1FC1
  8
0
 10
406.8854516482034001
 20
55.6091488231143529
 30
0.0
 40
0.2348766501189919
 50
266.1646580198449783
 51
273.9208259838214872
  0
ARC
  5
1FC2
  8
0
 10
406.9055116357039878
 20
55.1515137494511833
 30
0.0
 40
0.2250087777004483
 50
85.9943050908358941
 51
94.0911789128328735
  0
ARC
  5
1FC3
  8
0
 10
406.9051693864677191
 20
55.6102997749954326
 30
0.0
 40
0.2348766501189919
 50
266.1646580198449783
 51
273.9208259838214872
  0
ARC
  5
1FC4
  8
0
 10
406.8857938974397257
 20
55.1527867829164933
 30
0.0
 40
0.2250087777004483
 50
85.9943050908358941
 51
94.0911789128328735
  0
ARC
  5
1FC5
  8
0
 10
406.8854516482034001
 20
55.6115728084607426
 30
0.0
 40
0.2348766501189919
 50
266.1646580198449783
 51
273.9208259838214872
  0
ARC
  5
1FC6
  8
0
 10
406.9055116357039878
 20
55.1538351030293796
 30
0.0
 40
0.2250087777004483
 50
85.9943050908358941
 51
94.0911789128328735
  0
ARC
  5
1FC7
  8
0
 10
406.9051693864677191
 20
55.6126211285736218
 30
0.0
 40
0.2348766501189919
 50
266.1646580198449783
 51
273.9208259838214872
  0
ARC
  5
1FC8
  8
0
 10
406.8857938974397257
 20
55.1551081364946896
 30
0.0
 40
0.2250087777004483
 50
85.9943050908358941
 51
94.0911789128328735
  0
ARC
  5
1FC9
  8
0
 10
406.8854516482034001
 20
55.6138941620389318
 30
0.0
 40
0.2348766501189919
 50
266.1646580198449783
 51
273.9208259838214872
  0
ARC
  5
1FCA
  8
0
 10
406.9055116357039878
 20
55.1562466582508293
 30
0.0
 40
0.2250087777004483
 50
85.9943050908358941
 51
94.0911789128328735
  0
ARC
  5
1FCB
  8
0
 10
406.9051693864677191
 20
55.6150326837950786
 30
0.0
 40
0.2348766501189919
 50
266.1646580198449783
 51
273.9208259838214872
  0
ARC
  5
1FCC
  8
0
 10
406.8857938974397257
 20
55.1575196917161321
 30
0.0
 40
0.2250087777004483
 50
85.9943050908358941
 51
94.0911789128328735
  0
ARC
  5
1FCD
  8
0
 10
406.8854516482034001
 20
55.6163057172603885
 30
0.0
 40
0.2348766501189919
 50
266.1646580198449783
 51
273.9208259838214872
  0
ARC
  5
1FCE
  8
0
 10
406.8660746410359934
 20
55.1467522347167005
 30
0.0
 40
0.2250087777004483
 50
85.9943050908358941
 51
94.0911789128328735
  0
ARC
  5
1FCF
  8
0
 10
406.8657323917997815
 20
55.6055382602609427
 30
0.0
 40
0.2348766501189919
 50
266.1646580198449783
 51
273.9208259838214872
  0
ARC
  5
1FD0
  8
0
 10
406.8463569027716744
 20
55.1480252681820033
 30
0.0
 40
0.2250087777004483
 50
85.9943050908358941
 51
94.0911789128328735
  0
ARC
  5
1FD1
  8
0
 10
406.8460146535354056
 20
55.6068112937262526
 30
0.0
 40
0.2348766501189919
 50
266.1646580198449783
 51
273.9208259838214872
  0
ARC
  5
1FD2
  8
0
 10
406.8660746410359934
 20
55.1490892369343229
 30
0.0
 40
0.2250087777004483
 50
85.9943050908358941
 51
94.0911789128328735
  0
ARC
  5
1FD3
  8
0
 10
406.8657323917997815
 20
55.6078752624785722
 30
0.0
 40
0.2348766501189919
 50
266.1646580198449783
 51
273.9208259838214872
  0
ARC
  5
1FD4
  8
0
 10
406.8463569027716744
 20
55.1503622703996328
 30
0.0
 40
0.2250087777004483
 50
85.9943050908358941
 51
94.0911789128328735
  0
ARC
  5
1FD5
  8
0
 10
406.8460146535354056
 20
55.6091482959438821
 30
0.0
 40
0.2348766501189919
 50
266.1646580198449783
 51
273.9208259838214872
  0
ARC
  5
1FD6
  8
0
 10
406.8660746410359934
 20
55.1514907759166988
 30
0.0
 40
0.2250087777004483
 50
85.9943050908358941
 51
94.0911789128328735
  0
ARC
  5
1FD7
  8
0
 10
406.8657323917997815
 20
55.6102768014609623
 30
0.0
 40
0.2348766501189919
 50
266.1646580198449783
 51
273.9208259838214872
  0
ARC
  5
1FD8
  8
0
 10
406.8463569027716744
 20
55.1527638093820087
 30
0.0
 40
0.2250087777004483
 50
85.9943050908358941
 51
94.0911789128328735
  0
ARC
  5
1FD9
  8
0
 10
406.8460146535354056
 20
55.6115498349262509
 30
0.0
 40
0.2348766501189919
 50
266.1646580198449783
 51
273.9208259838214872
  0
ARC
  5
1FDA
  8
0
 10
406.8660746410359934
 20
55.1538147098556522
 30
0.0
 40
0.2250087777004483
 50
85.9943050908358941
 51
94.0911789128328735
  0
ARC
  5
1FDB
  8
0
 10
406.8657323917997815
 20
55.6126007353999015
 30
0.0
 40
0.2348766501189919
 50
266.1646580198449783
 51
273.9208259838214872
  0
ARC
  5
1FDC
  8
0
 10
406.8463569027716744
 20
55.1550877433209621
 30
0.0
 40
0.2250087777004483
 50
85.9943050908358941
 51
94.0911789128328735
  0
ARC
  5
1FDD
  8
0
 10
406.8460146535354056
 20
55.6138737688651972
 30
0.0
 40
0.2348766501189919
 50
266.1646580198449783
 51
273.9208259838214872
  0
ARC
  5
1FDE
  8
0
 10
406.8660746410359934
 20
55.1562748202526478
 30
0.0
 40
0.2250087777004483
 50
85.9943050908358941
 51
94.0911789128328735
  0
ARC
  5
1FDF
  8
0
 10
406.8657323917997815
 20
55.61506084579689
 30
0.0
 40
0.2348766501189919
 50
266.1646580198449783
 51
273.9208259838214872
  0
ARC
  5
1FE0
  8
0
 10
406.8267149268893945
 20
55.1491306336897082
 30
0.0
 40
0.2250087777004483
 50
85.9943050908358941
 51
94.0911789128328735
  0
ARC
  5
1FE1
  8
0
 10
406.8263726776531257
 20
55.6079166592339504
 30
0.0
 40
0.2348766501189919
 50
266.1646580198449783
 51
273.9208259838214872
  0
ARC
  5
1FE2
  8
0
 10
406.8267149268893945
 20
55.1514797053366834
 30
0.0
 40
0.2250087777004483
 50
85.9943050908358941
 51
94.0911789128328735
  0
ARC
  5
1FE3
  8
0
 10
406.8263726776531257
 20
55.6102657308809185
 30
0.0
 40
0.2348766501189919
 50
266.1646580198449783
 51
273.9208259838214872
  0
ARC
  5
1FE4
  8
0
 10
406.8267149268893945
 20
55.1538521944511828
 30
0.0
 40
0.2250087777004483
 50
85.9943050908358941
 51
94.0911789128328735
  0
ARC
  5
1FE5
  8
0
 10
406.8263726776531257
 20
55.6126382199954179
 30
0.0
 40
0.2348766501189919
 50
266.1646580198449783
 51
273.9208259838214872
  0
ARC
  5
1FE6
  8
0
 10
407.1021719037481716
 20
45.8606078802631814
 30
0.0
 40
9.5270109257396971
 50
89.9994203856288095
 51
90.2394221795034497
  0
ARC
  5
1FE7
  8
0
 10
407.100098054555076
 20
46.356894877363743
 30
0.0
 40
9.0307195956304867
 50
90.2394221795034497
 51
90.6555224745400636
  0
ARC
  5
1FE8
  8
0
 10
407.0783338809008001
 20
48.2591040823815121
 30
0.0
 40
7.1283858870217234
 50
90.6555224745400636
 51
91.3184521496448838
  0
ARC
  5
1FE9
  8
0
 10
407.0016554695931745
 20
51.5351052576555304
 30
0.0
 40
3.8514879257474801
 50
91.2994162333954478
 51
92.3609057177045685
  0
ARC
  5
1FEA
  8
0
 10
406.8837577350922743
 20
54.2789183729465918
 30
0.0
 40
1.105157461652337
 50
92.1136482156687038
 51
95.1269986909934602
  0
ARC
  5
1FEB
  8
0
 10
406.7870493969667791
 20
55.3249962132955204
 30
0.0
 40
0.0546964855386459
 50
92.1505993243971346
 51
110.745195189433403
  0
ARC
  5
1FEC
  8
0
 10
406.7719299544338014
 20
55.3792060853253503
 30
0.0
 40
0.0052406314769435
 50
215.7203749424432999
 51
262.2331400335152125
  0
ARC
  5
1FED
  8
0
 10
407.9124268050109094
 20
55.3138145254263165
 30
0.0
 40
0.0363315103849586
 50
357.5451612825214056
 51
86.0110829204903951
  0
ARC
  5
1FEE
  8
0
 10
407.479395313477994
 20
51.0232833706090787
 30
0.0
 40
4.3486423628745108
 50
84.2516315678159344
 51
89.2576564078829762
  0
ARC
  5
1FEF
  8
0
 10
407.9146003287123108
 20
55.3789645875858412
 30
0.0
 40
0.0341293122360613
 50
291.1460258510527979
 51
0.9475655383012526
  0
LINE
  5
1FF0
  8
0
 10
407.5550241861503196
 20
55.4985541678543726
 30
0.0
 11
407.5550241861503196
 21
55.3759399247777466
 31
0.0
  0
LINE
  5
1FF1
  8
0
 10
407.5747092255501798
 20
55.5561499052189305
 30
0.0
 11
407.5747092255501798
 21
55.5136420199802814
 31
0.0
  0
ARC
  5
1FF2
  8
0
 10
407.1028639943720009
 20
42.2565275650641468
 30
0.0
 40
13.31506245863965
 50
89.5135525901688283
 51
90.0025634038269544
  0
ARC
  5
1FF3
  8
0
 10
407.1259871529371139
 20
44.9800029810044109
 30
0.0
 40
10.5914888830421301
 50
88.5279741786689272
 51
89.5135525901688283
  0
ARC
  5
1FF4
  8
0
 10
407.3013709466374053
 20
51.8049784629678527
 30
0.0
 40
3.764260323480443
 50
86.5262140206811949
 51
88.5279741786689272
  0
ARC
  5
1FF5
  8
0
 10
407.5109701676502141
 20
55.2578199739739802
 30
0.0
 40
0.3050629695302197
 50
77.2018900616976396
 51
86.5262140206811949
  0
ARC
  5
1FF6
  8
0
 10
407.5749507169412027
 20
55.5568784808668426
 30
0.0
 40
0.0039254089658374
 50
266.4729330502805169
 51
336.355614693623977
  0
ARC
  5
1FF7
  8
0
 10
407.4447729782090732
 20
55.5991252248484216
 30
0.0
 40
0.1555339406291126
 50
315.1419337859475718
 51
326.6596522255416062
  0
ARC
  5
1FF8
  8
0
 10
407.6245957528068971
 20
55.4281699280754196
 30
0.0
 40
0.0989653681664757
 50
120.2703429574836065
 51
134.66730771729911
  0
ARC
  5
1FF9
  8
0
 10
407.1023569415223733
 20
42.468542156799117
 30
0.0
 40
12.9231987214827306
 50
89.8024335875403636
 51
90.0003930830941101
  0
ARC
  5
1FFA
  8
0
 10
407.1038973794983917
 20
42.9152792500023494
 30
0.0
 40
12.4764589724197794
 50
89.516750606281164
 51
89.8024335875403636
  0
ARC
  5
1FFB
  8
0
 10
407.1148136462866773
 20
44.2095202609304891
 30
0.0
 40
11.1821719257223098
 50
89.1370718873087355
 51
89.516750606281164
  0
ARC
  5
1FFC
  8
0
 10
407.1639235849710872
 20
47.470022986054822
 30
0.0
 40
7.9212993727664571
 50
88.1023537467737867
 51
89.1370718873087355
  0
ARC
  5
1FFD
  8
0
 10
407.3484470444141721
 20
53.0393167134396393
 30
0.0
 40
2.3489496413719149
 50
85.7290485538422757
 51
88.1023537467737867
  0
ARC
  5
1FFE
  8
0
 10
407.5040697755620727
 20
55.1231625938052332
 30
0.0
 40
0.259300846103553
 50
80.2730738005340925
 51
85.7290485538422757
  0
ARC
  5
1FFF
  8
0
 10
407.5446680172826746
 20
55.3600018627877617
 30
0.0
 40
0.0190071579571876
 50
56.9851589769955424
 51
80.2730738005340925
  0
ARC
  5
2000
  8
0
 10
407.5466402234824272
 20
55.3870633758639386
 30
0.0
 40
0.0139291777963314
 50
277.1823202686028935
 51
307.0060479961409783
  0
ARC
  5
2001
  8
0
 10
407.4639151876514234
 20
55.9596356276174021
 30
0.0
 40
0.5924443705003721
 50
272.419932723443992
 51
278.1967610873879266
  0
ARC
  5
2002
  8
0
 10
407.2885278108649914
 20
58.9450010085232279
 30
0.0
 40
3.582890365243256
 50
270.7965935073091259
 51
273.2064060289703207
  0
ARC
  5
2003
  8
0
 10
407.1237228833130075
 20
65.6646713763045824
 30
0.0
 40
10.3044496742387697
 50
270.3296850831866891
 51
271.1934195063503807
  0
ARC
  5
2004
  8
0
 10
407.1026919713535221
 20
68.0945734935422138
 30
0.0
 40
12.7344345290128604
 50
269.998093697352374
 51
270.3613994482930138
  0
ARC
  5
2005
  8
0
 10
407.4328628941128727
 20
55.3989751611879484
 30
0.0
 40
0.0248665941679737
 50
276.1970929341184728
 51
328.258423874671621
  0
ARC
  5
2006
  8
0
 10
407.3022461106207857
 20
56.6018915354113687
 30
0.0
 40
1.234853597199264
 50
273.3259233766843863
 51
276.1970929341184728
  0
ARC
  5
2007
  8
0
 10
407.2566018031134263
 20
57.3873239687966787
 30
0.0
 40
2.0216111902489851
 50
270.258740814899113
 51
273.3259233766843863
  0
ARC
  5
2008
  8
0
 10
407.2948871259249017
 20
48.9094481306274176
 30
0.0
 40
6.4563510940122963
 50
90.2587408148991557
 51
91.250709627133773
  0
ARC
  5
2009
  8
0
 10
407.1219234176155055
 20
55.143151410644208
 30
0.0
 40
0.2250087777004483
 50
85.9088210871671407
 51
94.0056949091641201
  0
ARC
  5
200A
  8
0
 10
407.122265666851888
 20
55.6019374361884573
 30
0.0
 40
0.2348766501189919
 50
266.0791740161783991
 51
273.835341980154908
  0
ARC
  5
200B
  8
0
 10
407.1219234176155055
 20
55.1454942394829004
 30
0.0
 40
0.2250087777004483
 50
85.9088210871671407
 51
94.0056949091641201
  0
ARC
  5
200C
  8
0
 10
407.122265666851888
 20
55.6042802650271568
 30
0.0
 40
0.2348766501189919
 50
266.0791740161783991
 51
273.835341980154908
  0
ARC
  5
200D
  8
0
 10
407.1219234176155055
 20
55.1479211103940088
 30
0.0
 40
0.2250087777004483
 50
85.9088210871671407
 51
94.0056949091641201
  0
ARC
  5
200E
  8
0
 10
407.122265666851888
 20
55.606707135938251
 30
0.0
 40
0.2348766501189919
 50
266.0791740161783991
 51
273.835341980154908
  0
ARC
  5
200F
  8
0
 10
407.1219234176155055
 20
55.1502647716071408
 30
0.0
 40
0.2250087777004483
 50
85.9088210871671407
 51
94.0056949091641201
  0
ARC
  5
2010
  8
0
 10
407.122265666851888
 20
55.609050797151383
 30
0.0
 40
0.2348766501189919
 50
266.0791740161783991
 51
273.835341980154908
  0
ARC
  5
2011
  8
0
 10
407.1219234176155055
 20
55.152707568615817
 30
0.0
 40
0.2250087777004483
 50
85.9088210871671407
 51
94.0056949091641201
  0
ARC
  5
2012
  8
0
 10
407.122265666851888
 20
55.6114935941600592
 30
0.0
 40
0.2348766501189919
 50
266.0791740161783991
 51
273.835341980154908
  0
ARC
  5
2013
  8
0
 10
407.1219234176155055
 20
55.1551058058462615
 30
0.0
 40
0.2250087777004483
 50
85.9088210871671407
 51
94.0056949091641201
  0
ARC
  5
2014
  8
0
 10
407.122265666851888
 20
55.613891831390518
 30
0.0
 40
0.2348766501189919
 50
266.0791740161783991
 51
273.835341980154908
  0
ARC
  5
2015
  8
0
 10
407.1219234176155055
 20
55.1574264657790891
 30
0.0
 40
0.2250087777004483
 50
85.9088210871671407
 51
94.0056949091641201
  0
ARC
  5
2016
  8
0
 10
407.122265666851888
 20
55.6162124913233384
 30
0.0
 40
0.2348766501189919
 50
266.0791740161783991
 51
273.835341980154908
  0
ARC
  5
2017
  8
0
 10
407.1219234176155055
 20
55.1598427377890204
 30
0.0
 40
0.2250087777004483
 50
85.9088210871671407
 51
94.0056949091641201
  0
ARC
  5
2018
  8
0
 10
407.122265666851888
 20
55.6186287633332626
 30
0.0
 40
0.2348766501189919
 50
266.0791740161783991
 51
273.835341980154908
  0
ARC
  5
2019
  8
0
 10
407.1416306734893169
 20
55.1419192190179928
 30
0.0
 40
0.2250087777004483
 50
85.9088210871671407
 51
94.0056949091641201
  0
ARC
  5
201A
  8
0
 10
407.1419729227255857
 20
55.6007052445622278
 30
0.0
 40
0.2348766501189919
 50
266.0791740161783991
 51
273.835341980154908
  0
ARC
  5
201B
  8
0
 10
407.1612819027923251
 20
55.1431527701891326
 30
0.0
 40
0.2250087777004483
 50
85.9088210871671407
 51
94.0056949091641201
  0
ARC
  5
201C
  8
0
 10
407.1616241520287076
 20
55.6019387957333677
 30
0.0
 40
0.2348766501189919
 50
266.0791740161783991
 51
273.835341980154908
  0
ARC
  5
201D
  8
0
 10
407.1412788266254097
 20
55.1443366840979508
 30
0.0
 40
0.2250087777004483
 50
85.9088210871671407
 51
94.0056949091641201
  0
ARC
  5
201E
  8
0
 10
407.1416210758616785
 20
55.6031227096421929
 30
0.0
 40
0.2348766501189919
 50
266.0791740161783991
 51
273.835341980154908
  0
ARC
  5
201F
  8
0
 10
407.1609300559284179
 20
55.1455702352690906
 30
0.0
 40
0.2250087777004483
 50
85.9088210871671407
 51
94.0056949091641201
  0
ARC
  5
2020
  8
0
 10
407.1612723051646867
 20
55.6043562608133328
 30
0.0
 40
0.2348766501189919
 50
266.0791740161783991
 51
273.835341980154908
  0
ARC
  5
2021
  8
0
 10
407.1415219457960006
 20
55.146665556791902
 30
0.0
 40
0.2250087777004483
 50
85.9088210871671407
 51
94.0056949091641201
  0
ARC
  5
2022
  8
0
 10
407.1418641950323263
 20
55.6054515823361371
 30
0.0
 40
0.2348766501189919
 50
266.0791740161783991
 51
273.835341980154908
  0
ARC
  5
2023
  8
0
 10
407.1611731750990089
 20
55.1478991079630205
 30
0.0
 40
0.2250087777004483
 50
85.9088210871671407
 51
94.0056949091641201
  0
ARC
  5
2024
  8
0
 10
407.1615154243352777
 20
55.6066851335072769
 30
0.0
 40
0.2348766501189919
 50
266.0791740161783991
 51
273.835341980154908
  0
ARC
  5
2025
  8
0
 10
407.1418342487447717
 20
55.149087017269153
 30
0.0
 40
0.2250087777004483
 50
85.9088210871671407
 51
94.0056949091641201
  0
ARC
  5
2026
  8
0
 10
407.1421764979810973
 20
55.6078730428134023
 30
0.0
 40
0.2348766501189919
 50
266.0791740161783991
 51
273.835341980154908
  0
ARC
  5
2027
  8
0
 10
407.1614854780477799
 20
55.1503205684402928
 30
0.0
 40
0.2250087777004483
 50
85.9088210871671407
 51
94.0056949091641201
  0
ARC
  5
2028
  8
0
 10
407.1618277272841055
 20
55.6091065939845279
 30
0.0
 40
0.2348766501189919
 50
266.0791740161783991
 51
273.835341980154908
  0
ARC
  5
2029
  8
0
 10
407.1419099388346012
 20
55.151467580415698
 30
0.0
 40
0.2250087777004483
 50
85.9088210871671407
 51
94.0056949091641201
  0
ARC
  5
202A
  8
0
 10
407.1422521880709269
 20
55.6102536059599473
 30
0.0
 40
0.2348766501189919
 50
266.0791740161783991
 51
273.835341980154908
  0
ARC
  5
202B
  8
0
 10
407.1615611681376095
 20
55.1527011315868378
 30
0.0
 40
0.2250087777004483
 50
85.9088210871671407
 51
94.0056949091641201
  0
ARC
  5
202C
  8
0
 10
407.1619034173738783
 20
55.61148715713108
 30
0.0
 40
0.2348766501189919
 50
266.0791740161783991
 51
273.835341980154908
  0
ARC
  5
202D
  8
0
 10
407.1420752714373066
 20
55.1538693413645973
 30
0.0
 40
0.2250087777004483
 50
85.9088210871671407
 51
94.0056949091641201
  0
ARC
  5
202E
  8
0
 10
407.1424175206735754
 20
55.6126553669088395
 30
0.0
 40
0.2348766501189919
 50
266.0791740161783991
 51
273.835341980154908
  0
ARC
  5
202F
  8
0
 10
407.1617265007403148
 20
55.1551028925357301
 30
0.0
 40
0.2250087777004483
 50
85.9088210871671407
 51
94.0056949091641201
  0
ARC
  5
2030
  8
0
 10
407.1620687499765836
 20
55.6138889180799794
 30
0.0
 40
0.2348766501189919
 50
266.0791740161783991
 51
273.835341980154908
  0
ARC
  5
2031
  8
0
 10
407.1410638291786199
 20
55.1562707138720896
 30
0.0
 40
0.2250087777004483
 50
85.9088210871671407
 51
94.0056949091641201
  0
ARC
  5
2032
  8
0
 10
407.1414060784150024
 20
55.6150567394163318
 30
0.0
 40
0.2348766501189919
 50
266.0791740161783991
 51
273.835341980154908
  0
ARC
  5
2033
  8
0
 10
407.1607150584816281
 20
55.1575042650432223
 30
0.0
 40
0.2250087777004483
 50
85.9088210871671407
 51
94.0056949091641201
  0
ARC
  5
2034
  8
0
 10
407.1610573077180106
 20
55.6162902905874716
 30
0.0
 40
0.2348766501189919
 50
266.0791740161783991
 51
273.835341980154908
  0
ARC
  5
2035
  8
0
 10
407.1404048844150907
 20
55.1585909298718917
 30
0.0
 40
0.2250087777004483
 50
85.9088210871671407
 51
94.0056949091641201
  0
ARC
  5
2036
  8
0
 10
407.1407471336514163
 20
55.6173769554161268
 30
0.0
 40
0.2348766501189919
 50
266.0791740161783991
 51
273.835341980154908
  0
ARC
  5
2037
  8
0
 10
407.1600561137180989
 20
55.1598244810430174
 30
0.0
 40
0.2250087777004483
 50
85.9088210871671407
 51
94.0056949091641201
  0
ARC
  5
2038
  8
0
 10
407.1603983629544246
 20
55.6186105065872667
 30
0.0
 40
0.2348766501189919
 50
266.0791740161783991
 51
273.835341980154908
  0
ARC
  5
2039
  8
0
 10
407.1407933835001245
 20
55.1610161360341209
 30
0.0
 40
0.2250087777004483
 50
85.9088210871671407
 51
94.0056949091641201
  0
ARC
  5
203A
  8
0
 10
407.1411356327363933
 20
55.6198021615783631
 30
0.0
 40
0.2348766501189919
 50
266.0791740161783991
 51
273.835341980154908
  0
ARC
  5
203B
  8
0
 10
407.1810498119471049
 20
55.1419398341582365
 30
0.0
 40
0.2250087777004483
 50
85.9088210871671407
 51
94.0056949091641201
  0
ARC
  5
203C
  8
0
 10
407.1813920611833737
 20
55.6007258597024787
 30
0.0
 40
0.2348766501189919
 50
266.0791740161783991
 51
273.835341980154908
  0
ARC
  5
203D
  8
0
 10
407.2007010412501131
 20
55.1431733853293693
 30
0.0
 40
0.2250087777004483
 50
85.9088210871671407
 51
94.0056949091641201
  0
ARC
  5
203E
  8
0
 10
407.2010432904863819
 20
55.6019594108736186
 30
0.0
 40
0.2348766501189919
 50
266.0791740161783991
 51
273.835341980154908
  0
ARC
  5
203F
  8
0
 10
407.1806979650831977
 20
55.1443572992381874
 30
0.0
 40
0.2250087777004483
 50
85.9088210871671407
 51
94.0056949091641201
  0
ARC
  5
2040
  8
0
 10
407.1810402143195233
 20
55.6031433247824367
 30
0.0
 40
0.2348766501189919
 50
266.0791740161783991
 51
273.835341980154908
  0
ARC
  5
2041
  8
0
 10
407.2003491943862059
 20
55.1455908504093273
 30
0.0
 40
0.2250087777004483
 50
85.9088210871671407
 51
94.0056949091641201
  0
ARC
  5
2042
  8
0
 10
407.2006914436224747
 20
55.6043768759535695
 30
0.0
 40
0.2348766501189919
 50
266.0791740161783991
 51
273.835341980154908
  0
ARC
  5
2043
  8
0
 10
407.1809410842536749
 20
55.1466861719321528
 30
0.0
 40
0.2250087777004483
 50
85.9088210871671407
 51
94.0056949091641201
  0
ARC
  5
2044
  8
0
 10
407.1812833334901143
 20
55.6054721974763879
 30
0.0
 40
0.2348766501189919
 50
266.0791740161783991
 51
273.835341980154908
  0
ARC
  5
2045
  8
0
 10
407.2005923135566832
 20
55.1479197231032714
 30
0.0
 40
0.2250087777004483
 50
85.9088210871671407
 51
94.0056949091641201
  0
ARC
  5
2046
  8
0
 10
407.2009345627931225
 20
55.6067057486475278
 30
0.0
 40
0.2348766501189919
 50
266.0791740161783991
 51
273.835341980154908
  0
ARC
  5
2047
  8
0
 10
407.1812533872026165
 20
55.1491076324093967
 30
0.0
 40
0.2250087777004483
 50
85.9088210871671407
 51
94.0056949091641201
  0
ARC
  5
2048
  8
0
 10
407.1815956364388853
 20
55.6078936579536531
 30
0.0
 40
0.2348766501189919
 50
266.0791740161783991
 51
273.835341980154908
  0
ARC
  5
2049
  8
0
 10
407.2009046165056247
 20
55.1503411835805366
 30
0.0
 40
0.2250087777004483
 50
85.9088210871671407
 51
94.0056949091641201
  0
ARC
  5
204A
  8
0
 10
407.2012468657418935
 20
55.6091272091247788
 30
0.0
 40
0.2348766501189919
 50
266.0791740161783991
 51
273.835341980154908
  0
ARC
  5
204B
  8
0
 10
407.1813290772922755
 20
55.1514881955559417
 30
0.0
 40
0.2250087777004483
 50
85.9088210871671407
 51
94.0056949091641201
  0
ARC
  5
204C
  8
0
 10
407.1816713265286012
 20
55.610274221100191
 30
0.0
 40
0.2348766501189919
 50
266.0791740161783991
 51
273.835341980154908
  0
ARC
  5
204D
  8
0
 10
407.2009803065952838
 20
55.1527217467270816
 30
0.0
 40
0.2250087777004483
 50
85.9088210871671407
 51
94.0056949091641201
  0
ARC
  5
204E
  8
0
 10
407.2013225558317231
 20
55.6115077722713167
 30
0.0
 40
0.2348766501189919
 50
266.0791740161783991
 51
273.835341980154908
  0
ARC
  5
204F
  8
0
 10
407.1814944098949809
 20
55.1538899565048411
 30
0.0
 40
0.2250087777004483
 50
85.9088210871671407
 51
94.0056949091641201
  0
ARC
  5
2050
  8
0
 10
407.1818366591314202
 20
55.6126759820490832
 30
0.0
 40
0.2348766501189919
 50
266.0791740161783991
 51
273.835341980154908
  0
ARC
  5
2051
  8
0
 10
407.2011456391979891
 20
55.1551235076759809
 30
0.0
 40
0.2250087777004483
 50
85.9088210871671407
 51
94.0056949091641201
  0
ARC
  5
2052
  8
0
 10
407.2014878884343716
 20
55.6139095332202231
 30
0.0
 40
0.2348766501189919
 50
266.0791740161783991
 51
273.835341980154908
  0
ARC
  5
2053
  8
0
 10
407.1804829676364079
 20
55.1562913290123333
 30
0.0
 40
0.2250087777004483
 50
85.9088210871671407
 51
94.0056949091641201
  0
ARC
  5
2054
  8
0
 10
407.1808252168726767
 20
55.6150773545565684
 30
0.0
 40
0.2348766501189919
 50
266.0791740161783991
 51
273.835341980154908
  0
ARC
  5
2055
  8
0
 10
407.2001341969394161
 20
55.157524880183459
 30
0.0
 40
0.2250087777004483
 50
85.9088210871671407
 51
94.0056949091641201
  0
ARC
  5
2056
  8
0
 10
407.2004764461756849
 20
55.6163109057277083
 30
0.0
 40
0.2348766501189919
 50
266.0791740161783991
 51
273.835341980154908
  0
ARC
  5
2057
  8
0
 10
407.1798240228728218
 20
55.1586115450121284
 30
0.0
 40
0.2250087777004483
 50
85.9088210871671407
 51
94.0056949091641201
  0
ARC
  5
2058
  8
0
 10
407.1801662721090906
 20
55.6173975705563706
 30
0.0
 40
0.2348766501189919
 50
266.0791740161783991
 51
273.835341980154908
  0
ARC
  5
2059
  8
0
 10
407.1994752521757732
 20
55.1598450961832611
 30
0.0
 40
0.2250087777004483
 50
85.9088210871671407
 51
94.0056949091641201
  0
ARC
  5
205A
  8
0
 10
407.1998175014120989
 20
55.6186311217275104
 30
0.0
 40
0.2348766501189919
 50
266.0791740161783991
 51
273.835341980154908
  0
ARC
  5
205B
  8
0
 10
407.1802125219576851
 20
55.1610367511743576
 30
0.0
 40
0.2250087777004483
 50
85.9088210871671407
 51
94.0056949091641201
  0
ARC
  5
205C
  8
0
 10
407.1805547711941244
 20
55.6198227767186069
 30
0.0
 40
0.2348766501189919
 50
266.0791740161783991
 51
273.835341980154908
  0
ARC
  5
205D
  8
0
 10
407.2203527043071176
 20
55.144390122536862
 30
0.0
 40
0.2250087777004483
 50
85.9088210871671407
 51
94.0056949091641201
  0
ARC
  5
205E
  8
0
 10
407.2206949535433864
 20
55.6031761480810971
 30
0.0
 40
0.2348766501189919
 50
266.0791740161783991
 51
273.835341980154908
  0
ARC
  5
205F
  8
0
 10
407.2399322195996092
 20
55.1455341379642903
 30
0.0
 40
0.2250087777004483
 50
85.9088210871671407
 51
94.0056949091641201
  0
ARC
  5
2060
  8
0
 10
407.2402744688359917
 20
55.6043201635085467
 30
0.0
 40
0.2348766501189919
 50
266.0791740161783991
 51
273.835341980154908
  0
ARC
  5
2061
  8
0
 10
407.2200008574432104
 20
55.14680758761682
 30
0.0
 40
0.2250087777004483
 50
85.9088210871671407
 51
94.0056949091641201
  0
ARC
  5
2062
  8
0
 10
407.2203431066794792
 20
55.6055936131610622
 30
0.0
 40
0.2348766501189919
 50
266.0791740161783991
 51
273.835341980154908
  0
ARC
  5
2063
  8
0
 10
407.2395803727358157
 20
55.1479516030442483
 30
0.0
 40
0.2250087777004483
 50
85.9088210871671407
 51
94.0056949091641201
  0
ARC
  5
2064
  8
0
 10
407.2399226219720845
 20
55.6067376285885118
 30
0.0
 40
0.2348766501189919
 50
266.0791740161783991
 51
273.835341980154908
  0
ARC
  5
2065
  8
0
 10
407.2202439766138014
 20
55.1491364603107712
 30
0.0
 40
0.2250087777004483
 50
85.9088210871671407
 51
94.0056949091641201
  0
ARC
  5
2066
  8
0
 10
407.2205862258501838
 20
55.6079224858550134
 30
0.0
 40
0.2348766501189919
 50
266.0791740161783991
 51
273.835341980154908
  0
ARC
  5
2067
  8
0
 10
407.2398234919064066
 20
55.1502804757381995
 30
0.0
 40
0.2250087777004483
 50
85.9088210871671407
 51
94.0056949091641201
  0
ARC
  5
2068
  8
0
 10
407.2401657411426754
 20
55.6090665012824417
 30
0.0
 40
0.2348766501189919
 50
266.0791740161783991
 51
273.835341980154908
  0
ARC
  5
2069
  8
0
 10
407.2205562795626861
 20
55.1515579207880222
 30
0.0
 40
0.2250087777004483
 50
85.9088210871671407
 51
94.0056949091641201
  0
ARC
  5
206A
  8
0
 10
407.2208985287990117
 20
55.6103439463322573
 30
0.0
 40
0.2348766501189919
 50
266.0791740161783991
 51
273.835341980154908
  0
ARC
  5
206B
  8
0
 10
407.2401357948551777
 20
55.1527019362154576
 30
0.0
 40
0.2250087777004483
 50
85.9088210871671407
 51
94.0056949091641201
  0
ARC
  5
206C
  8
0
 10
407.240478044091617
 20
55.6114879617596998
 30
0.0
 40
0.2348766501189919
 50
266.0791740161783991
 51
273.835341980154908
  0
ARC
  5
206D
  8
0
 10
407.2206319696524019
 20
55.1539384839345672
 30
0.0
 40
0.2250087777004483
 50
85.9088210871671407
 51
94.0056949091641201
  0
ARC
  5
206E
  8
0
 10
407.2209742188887844
 20
55.6127245094788094
 30
0.0
 40
0.2348766501189919
 50
266.0791740161783991
 51
273.835341980154908
  0
ARC
  5
206F
  8
0
 10
407.2402114849448935
 20
55.1550824993620097
 30
0.0
 40
0.2250087777004483
 50
85.9088210871671407
 51
94.0056949091641201
  0
ARC
  5
2070
  8
0
 10
407.2405537341812192
 20
55.6138685249062519
 30
0.0
 40
0.2348766501189919
 50
266.0791740161783991
 51
273.835341980154908
  0
ARC
  5
2071
  8
0
 10
407.2207973022551073
 20
55.1563402448834594
 30
0.0
 40
0.2250087777004483
 50
85.9088210871671407
 51
94.0056949091641201
  0
ARC
  5
2072
  8
0
 10
407.2211395514914898
 20
55.6151262704277087
 30
0.0
 40
0.2348766501189919
 50
266.0791740161783991
 51
273.835341980154908
  0
ARC
  5
2073
  8
0
 10
407.2403768175477126
 20
55.157484260310909
 30
0.0
 40
0.2250087777004483
 50
85.9088210871671407
 51
94.0056949091641201
  0
ARC
  5
2074
  8
0
 10
407.2407190667839814
 20
55.6162702858551512
 30
0.0
 40
0.2348766501189919
 50
266.0791740161783991
 51
273.835341980154908
  0
ARC
  5
2075
  8
0
 10
407.2197858599964775
 20
55.1587416173909588
 30
0.0
 40
0.2250087777004483
 50
85.9088210871671407
 51
94.0056949091641201
  0
ARC
  5
2076
  8
0
 10
407.2201281092328031
 20
55.617527642935201
 30
0.0
 40
0.2348766501189919
 50
266.0791740161783991
 51
273.835341980154908
  0
ARC
  5
2077
  8
0
 10
407.2393653752890259
 20
55.1598856328183871
 30
0.0
 40
0.2250087777004483
 50
85.9088210871671407
 51
94.0056949091641201
  0
ARC
  5
2078
  8
0
 10
407.2397076245254084
 20
55.6186716583626293
 30
0.0
 40
0.2348766501189919
 50
266.0791740161783991
 51
273.835341980154908
  0
ARC
  5
2079
  8
0
 10
407.2191269152328914
 20
55.1610618333907468
 30
0.0
 40
0.2250087777004483
 50
85.9088210871671407
 51
94.0056949091641201
  0
ARC
  5
207A
  8
0
 10
407.2194691644692739
 20
55.6198478589350032
 30
0.0
 40
0.2348766501189919
 50
266.0791740161783991
 51
273.835341980154908
  0
ARC
  5
207B
  8
0
 10
407.240064659183588
 20
55.1431655055180272
 30
0.0
 40
0.2250087777004483
 50
85.9088210871671407
 51
94.0056949091641201
  0
ARC
  5
207C
  8
0
 10
407.2404069084199136
 20
55.6019515310622694
 30
0.0
 40
0.2348766501189919
 50
266.0791740161783991
 51
273.835341980154908
  0
ARC
  5
207D
  8
0
 10
407.2596441744760796
 20
55.1443095209454626
 30
0.0
 40
0.2250087777004483
 50
85.9088210871671407
 51
94.0056949091641201
  0
ARC
  5
207E
  8
0
 10
407.2599864237124052
 20
55.6030955464897119
 30
0.0
 40
0.2348766501189919
 50
266.0791740161783991
 51
273.835341980154908
  0
ARC
  5
207F
  8
0
 10
407.2793619127403986
 20
55.1455825544107725
 30
0.0
 40
0.2250087777004483
 50
85.9088210871671407
 51
94.0056949091641201
  0
ARC
  5
2080
  8
0
 10
407.2797041619767242
 20
55.6043685799550076
 30
0.0
 40
0.2348766501189919
 50
266.0791740161783991
 51
273.835341980154908
  0
ARC
  5
2081
  8
0
 10
407.2596441744760796
 20
55.1467370577561127
 30
0.0
 40
0.2250087777004483
 50
85.9088210871671407
 51
94.0056949091641201
  0
ARC
  5
2082
  8
0
 10
407.2599864237124052
 20
55.6055230833003478
 30
0.0
 40
0.2348766501189919
 50
266.0791740161783991
 51
273.835341980154908
  0
ARC
  5
2083
  8
0
 10
407.2793619127403986
 20
55.1480100912214226
 30
0.0
 40
0.2250087777004483
 50
85.9088210871671407
 51
94.0056949091641201
  0
ARC
  5
2084
  8
0
 10
407.2797041619767242
 20
55.6067961167656577
 30
0.0
 40
0.2348766501189919
 50
266.0791740161783991
 51
273.835341980154908
  0
ARC
  5
2085
  8
0
 10
407.2596441744760796
 20
55.1490997525980404
 30
0.0
 40
0.2250087777004483
 50
85.9088210871671407
 51
94.0056949091641201
  0
ARC
  5
2086
  8
0
 10
407.2599864237124052
 20
55.6078857781422968
 30
0.0
 40
0.2348766501189919
 50
266.0791740161783991
 51
273.835341980154908
  0
ARC
  5
2087
  8
0
 10
407.2793619127403986
 20
55.1503727860633504
 30
0.0
 40
0.2250087777004483
 50
85.9088210871671407
 51
94.0056949091641201
  0
ARC
  5
2088
  8
0
 10
407.2797041619767242
 20
55.6091588116075926
 30
0.0
 40
0.2348766501189919
 50
266.0791740161783991
 51
273.835341980154908
  0
ARC
  5
2089
  8
0
 10
407.2596441744760796
 20
55.1514501837899402
 30
0.0
 40
0.2250087777004483
 50
85.9088210871671407
 51
94.0056949091641201
  0
ARC
  5
208A
  8
0
 10
407.2599864237124052
 20
55.6102362093341824
 30
0.0
 40
0.2348766501189919
 50
266.0791740161783991
 51
273.835341980154908
  0
ARC
  5
208B
  8
0
 10
407.2793619127403986
 20
55.1527232172552502
 30
0.0
 40
0.2250087777004483
 50
85.9088210871671407
 51
94.0056949091641201
  0
ARC
  5
208C
  8
0
 10
407.2797041619767242
 20
55.6115092427994924
 30
0.0
 40
0.2348766501189919
 50
266.0791740161783991
 51
273.835341980154908
  0
ARC
  5
208D
  8
0
 10
407.2596441744760796
 20
55.1538954224303168
 30
0.0
 40
0.2250087777004483
 50
85.9088210871671407
 51
94.0056949091641201
  0
ARC
  5
208E
  8
0
 10
407.2599864237124052
 20
55.612681447974559
 30
0.0
 40
0.2348766501189919
 50
266.0791740161783991
 51
273.835341980154908
  0
ARC
  5
208F
  8
0
 10
407.2793619127403986
 20
55.1551684558956197
 30
0.0
 40
0.2250087777004483
 50
85.9088210871671407
 51
94.0056949091641201
  0
ARC
  5
2090
  8
0
 10
407.2797041619767242
 20
55.613954481439869
 30
0.0
 40
0.2348766501189919
 50
266.0791740161783991
 51
273.835341980154908
  0
ARC
  5
2091
  8
0
 10
407.2596441744760796
 20
55.1562236847163518
 30
0.0
 40
0.2250087777004483
 50
85.9088210871671407
 51
94.0056949091641201
  0
ARC
  5
2092
  8
0
 10
407.2599864237124052
 20
55.6150097102606011
 30
0.0
 40
0.2348766501189919
 50
266.0791740161783991
 51
273.835341980154908
  0
ARC
  5
2093
  8
0
 10
407.2793619127403986
 20
55.1574967181816476
 30
0.0
 40
0.2250087777004483
 50
85.9088210871671407
 51
94.0056949091641201
  0
ARC
  5
2094
  8
0
 10
407.2797041619767242
 20
55.6162827437259111
 30
0.0
 40
0.2348766501189919
 50
266.0791740161783991
 51
273.835341980154908
  0
ARC
  5
2095
  8
0
 10
407.2596441744760796
 20
55.1586049137624386
 30
0.0
 40
0.2250087777004483
 50
85.9088210871671407
 51
94.0056949091641201
  0
ARC
  5
2096
  8
0
 10
407.2599864237124052
 20
55.6173909393066808
 30
0.0
 40
0.2348766501189919
 50
266.0791740161783991
 51
273.835341980154908
  0
ARC
  5
2097
  8
0
 10
407.2990249256964148
 20
55.1443095209454626
 30
0.0
 40
0.2250087777004483
 50
85.9088210871671407
 51
94.0056949091641201
  0
ARC
  5
2098
  8
0
 10
407.2993671749326836
 20
55.6030955464897119
 30
0.0
 40
0.2348766501189919
 50
266.0791740161783991
 51
273.835341980154908
  0
ARC
  5
2099
  8
0
 10
407.318742663960677
 20
55.1455825544107725
 30
0.0
 40
0.2250087777004483
 50
85.9088210871671407
 51
94.0056949091641201
  0
ARC
  5
209A
  8
0
 10
407.3190849131970026
 20
55.6043685799550076
 30
0.0
 40
0.2348766501189919
 50
266.0791740161783991
 51
273.835341980154908
  0
ARC
  5
209B
  8
0
 10
407.2990249256964148
 20
55.1467456034670107
 30
0.0
 40
0.2250087777004483
 50
85.9088210871671407
 51
94.0056949091641201
  0
ARC
  5
209C
  8
0
 10
407.2993671749326836
 20
55.60553162901126
 30
0.0
 40
0.2348766501189919
 50
266.0791740161783991
 51
273.835341980154908
  0
ARC
  5
209D
  8
0
 10
407.318742663960677
 20
55.1480186369323206
 30
0.0
 40
0.2250087777004483
 50
85.9088210871671407
 51
94.0056949091641201
  0
ARC
  5
209E
  8
0
 10
407.3190849131970026
 20
55.6068046624765628
 30
0.0
 40
0.2348766501189919
 50
266.0791740161783991
 51
273.835341980154908
  0
ARC
  5
209F
  8
0
 10
407.2990249256964148
 20
55.1490897641048008
 30
0.0
 40
0.2250087777004483
 50
85.9088210871671407
 51
94.0056949091641201
  0
ARC
  5
20A0
  8
0
 10
407.2993671749326836
 20
55.607875789649043
 30
0.0
 40
0.2348766501189919
 50
266.0791740161783991
 51
273.835341980154908
  0
ARC
  5
20A1
  8
0
 10
407.318742663960677
 20
55.1503627975701107
 30
0.0
 40
0.2250087777004483
 50
85.9088210871671407
 51
94.0056949091641201
  0
ARC
  5
20A2
  8
0
 10
407.3190849131970026
 20
55.6091488231143529
 30
0.0
 40
0.2348766501189919
 50
266.0791740161783991
 51
273.835341980154908
  0
ARC
  5
20A3
  8
0
 10
407.2990249256964148
 20
55.1515137494511833
 30
0.0
 40
0.2250087777004483
 50
85.9088210871671407
 51
94.0056949091641201
  0
ARC
  5
20A4
  8
0
 10
407.2993671749326836
 20
55.6102997749954326
 30
0.0
 40
0.2348766501189919
 50
266.0791740161783991
 51
273.835341980154908
  0
ARC
  5
20A5
  8
0
 10
407.318742663960677
 20
55.1527867829164933
 30
0.0
 40
0.2250087777004483
 50
85.9088210871671407
 51
94.0056949091641201
  0
ARC
  5
20A6
  8
0
 10
407.3190849131970026
 20
55.6115728084607426
 30
0.0
 40
0.2348766501189919
 50
266.0791740161783991
 51
273.835341980154908
  0
ARC
  5
20A7
  8
0
 10
407.2990249256964148
 20
55.1538351030293796
 30
0.0
 40
0.2250087777004483
 50
85.9088210871671407
 51
94.0056949091641201
  0
ARC
  5
20A8
  8
0
 10
407.2993671749326836
 20
55.6126211285736218
 30
0.0
 40
0.2348766501189919
 50
266.0791740161783991
 51
273.835341980154908
  0
ARC
  5
20A9
  8
0
 10
407.318742663960677
 20
55.1551081364946896
 30
0.0
 40
0.2250087777004483
 50
85.9088210871671407
 51
94.0056949091641201
  0
ARC
  5
20AA
  8
0
 10
407.3190849131970026
 20
55.6138941620389318
 30
0.0
 40
0.2348766501189919
 50
266.0791740161783991
 51
273.835341980154908
  0
ARC
  5
20AB
  8
0
 10
407.2990249256964148
 20
55.1562466582508293
 30
0.0
 40
0.2250087777004483
 50
85.9088210871671407
 51
94.0056949091641201
  0
ARC
  5
20AC
  8
0
 10
407.2993671749326836
 20
55.6150326837950786
 30
0.0
 40
0.2348766501189919
 50
266.0791740161783991
 51
273.835341980154908
  0
ARC
  5
20AD
  8
0
 10
407.318742663960677
 20
55.1575196917161321
 30
0.0
 40
0.2250087777004483
 50
85.9088210871671407
 51
94.0056949091641201
  0
ARC
  5
20AE
  8
0
 10
407.3190849131970026
 20
55.6163057172603885
 30
0.0
 40
0.2348766501189919
 50
266.0791740161783991
 51
273.835341980154908
  0
ARC
  5
20AF
  8
0
 10
407.3384619203642956
 20
55.1467522347167005
 30
0.0
 40
0.2250087777004483
 50
85.9088210871671407
 51
94.0056949091641201
  0
ARC
  5
20B0
  8
0
 10
407.3388041696006781
 20
55.6055382602609427
 30
0.0
 40
0.2348766501189919
 50
266.0791740161783991
 51
273.835341980154908
  0
ARC
  5
20B1
  8
0
 10
407.3581796586287282
 20
55.1480252681820033
 30
0.0
 40
0.2250087777004483
 50
85.9088210871671407
 51
94.0056949091641201
  0
ARC
  5
20B2
  8
0
 10
407.358521907864997
 20
55.6068112937262526
 30
0.0
 40
0.2348766501189919
 50
266.0791740161783991
 51
273.835341980154908
  0
ARC
  5
20B3
  8
0
 10
407.3384619203642956
 20
55.1490892369343229
 30
0.0
 40
0.2250087777004483
 50
85.9088210871671407
 51
94.0056949091641201
  0
ARC
  5
20B4
  8
0
 10
407.3388041696006781
 20
55.6078752624785722
 30
0.0
 40
0.2348766501189919
 50
266.0791740161783991
 51
273.835341980154908
  0
ARC
  5
20B5
  8
0
 10
407.3581796586287282
 20
55.1503622703996328
 30
0.0
 40
0.2250087777004483
 50
85.9088210871671407
 51
94.0056949091641201
  0
ARC
  5
20B6
  8
0
 10
407.358521907864997
 20
55.6091482959438821
 30
0.0
 40
0.2348766501189919
 50
266.0791740161783991
 51
273.835341980154908
  0
ARC
  5
20B7
  8
0
 10
407.3384619203642956
 20
55.1514907759166988
 30
0.0
 40
0.2250087777004483
 50
85.9088210871671407
 51
94.0056949091641201
  0
ARC
  5
20B8
  8
0
 10
407.3388041696006781
 20
55.6102768014609623
 30
0.0
 40
0.2348766501189919
 50
266.0791740161783991
 51
273.835341980154908
  0
ARC
  5
20B9
  8
0
 10
407.3581796586287282
 20
55.1527638093820087
 30
0.0
 40
0.2250087777004483
 50
85.9088210871671407
 51
94.0056949091641201
  0
ARC
  5
20BA
  8
0
 10
407.358521907864997
 20
55.6115498349262509
 30
0.0
 40
0.2348766501189919
 50
266.0791740161783991
 51
273.835341980154908
  0
ARC
  5
20BB
  8
0
 10
407.3384619203642956
 20
55.1538147098556522
 30
0.0
 40
0.2250087777004483
 50
85.9088210871671407
 51
94.0056949091641201
  0
ARC
  5
20BC
  8
0
 10
407.3388041696006781
 20
55.6126007353999015
 30
0.0
 40
0.2348766501189919
 50
266.0791740161783991
 51
273.835341980154908
  0
ARC
  5
20BD
  8
0
 10
407.3581796586287282
 20
55.1550877433209621
 30
0.0
 40
0.2250087777004483
 50
85.9088210871671407
 51
94.0056949091641201
  0
ARC
  5
20BE
  8
0
 10
407.358521907864997
 20
55.6138737688651972
 30
0.0
 40
0.2348766501189919
 50
266.0791740161783991
 51
273.835341980154908
  0
ARC
  5
20BF
  8
0
 10
407.3384619203642956
 20
55.1562748202526478
 30
0.0
 40
0.2250087777004483
 50
85.9088210871671407
 51
94.0056949091641201
  0
ARC
  5
20C0
  8
0
 10
407.3388041696006781
 20
55.61506084579689
 30
0.0
 40
0.2348766501189919
 50
266.0791740161783991
 51
273.835341980154908
  0
ARC
  5
20C1
  8
0
 10
407.3778216345110081
 20
55.1491306336897082
 30
0.0
 40
0.2250087777004483
 50
85.9088210871671407
 51
94.0056949091641201
  0
ARC
  5
20C2
  8
0
 10
407.3781638837472769
 20
55.6079166592339504
 30
0.0
 40
0.2348766501189919
 50
266.0791740161783991
 51
273.835341980154908
  0
ARC
  5
20C3
  8
0
 10
407.3778216345110081
 20
55.1514797053366834
 30
0.0
 40
0.2250087777004483
 50
85.9088210871671407
 51
94.0056949091641201
  0
ARC
  5
20C4
  8
0
 10
407.3781638837472769
 20
55.6102657308809185
 30
0.0
 40
0.2348766501189919
 50
266.0791740161783991
 51
273.835341980154908
  0
ARC
  5
20C5
  8
0
 10
407.3778216345110081
 20
55.1538521944511828
 30
0.0
 40
0.2250087777004483
 50
85.9088210871671407
 51
94.0056949091641201
  0
ARC
  5
20C6
  8
0
 10
407.3781638837472769
 20
55.6126382199954179
 30
0.0
 40
0.2348766501189919
 50
266.0791740161783991
 51
273.835341980154908
  0
ARC
  5
20C7
  8
0
 10
407.1023646576521173
 20
45.8606078802631814
 30
0.0
 40
9.5270109257396971
 50
89.7605778204965645
 51
90.0005796144005217
  0
ARC
  5
20C8
  8
0
 10
407.1044385068453835
 20
46.356894877363743
 30
0.0
 40
9.0307195956304867
 50
89.3444775254599364
 51
89.7605778204965645
  0
ARC
  5
20C9
  8
0
 10
407.1262026804997163
 20
48.2591040823815121
 30
0.0
 40
7.1283858870217234
 50
88.6815478503551162
 51
89.3444775254599364
  0
ARC
  5
20CA
  8
0
 10
407.2028810918072281
 20
51.5351052576555304
 30
0.0
 40
3.8514879257474801
 50
87.6390942822954457
 51
88.7005837666045522
  0
ARC
  5
20CB
  8
0
 10
407.3207788263080147
 20
54.2789183729465918
 30
0.0
 40
1.105157461652337
 50
84.873001309006554
 51
87.8863517843313247
  0
ARC
  5
20CC
  8
0
 10
407.4174871644335099
 20
55.3249962132955204
 30
0.0
 40
0.0546964855386459
 50
69.2548048105666254
 51
87.8494006756028796
  0
ARC
  5
20CD
  8
0
 10
407.4326066069666012
 20
55.3792060853253503
 30
0.0
 40
0.0052406314769435
 50
277.7668599664847875
 51
324.2796250575565864
  0
ARC
  5
20CE
  8
0
 10
407.1021004267191188
 20
55.1419192190179928
 30
0.0
 40
0.2250087777004483
 50
85.9088210871671407
 51
94.0056949091641201
  0
ARC
  5
20CF
  8
0
 10
407.1024426759553876
 20
55.6007052445622278
 30
0.0
 40
0.2348766501189919
 50
266.0791740161783991
 51
273.835341980154908
  0
ARC
  5
20D0
  8
0
 10
407.1021004267191188
 20
55.1442774520755208
 30
0.0
 40
0.2250087777004483
 50
85.9088210871671407
 51
94.0056949091641201
  0
ARC
  5
20D1
  8
0
 10
407.1024426759553876
 20
55.603063477619763
 30
0.0
 40
0.2348766501189919
 50
266.0791740161783991
 51
273.835341980154908
  0
ARC
  5
20D2
  8
0
 10
407.1022567669746195
 20
55.1465849531412928
 30
0.0
 40
0.2250087777004483
 50
85.9088210871671407
 51
94.0056949091641201
  0
ARC
  5
20D3
  8
0
 10
407.1025990162108883
 20
55.6053709786855421
 30
0.0
 40
0.2348766501189919
 50
266.0791740161783991
 51
273.835341980154908
  0
ARC
  5
20D4
  8
0
 10
407.1021004267191188
 20
55.1490716117677522
 30
0.0
 40
0.2250087777004483
 50
85.9088210871671407
 51
94.0056949091641201
  0
ARC
  5
20D5
  8
0
 10
407.1024426759553876
 20
55.6078576373120015
 30
0.0
 40
0.2348766501189919
 50
266.0791740161783991
 51
273.835341980154908
  0
ARC
  5
20D6
  8
0
 10
407.1021004267191188
 20
55.1515280731106969
 30
0.0
 40
0.2250087777004483
 50
85.9088210871671407
 51
94.0056949091641201
  0
ARC
  5
20D7
  8
0
 10
407.1024426759553876
 20
55.6103140986549604
 30
0.0
 40
0.2348766501189919
 50
266.0791740161783991
 51
273.835341980154908
  0
ARC
  5
20D8
  8
0
 10
407.1021004267191188
 20
55.1538854483995493
 30
0.0
 40
0.2250087777004483
 50
85.9088210871671407
 51
94.0056949091641201
  0
ARC
  5
20D9
  8
0
 10
407.1024426759553876
 20
55.6126714739438128
 30
0.0
 40
0.2348766501189919
 50
266.0791740161783991
 51
273.835341980154908
  0
ARC
  5
20DA
  8
0
 10
407.1021004267191188
 20
55.1562161721504509
 30
0.0
 40
0.2250087777004483
 50
85.9088210871671407
 51
94.0056949091641201
  0
ARC
  5
20DB
  8
0
 10
407.1024426759553876
 20
55.6150021976947002
 30
0.0
 40
0.2348766501189919
 50
266.0791740161783991
 51
273.835341980154908
  0
ARC
  5
20DC
  8
0
 10
407.1021004267191188
 20
55.1586943755375287
 30
0.0
 40
0.2250087777004483
 50
85.9088210871671407
 51
94.0056949091641201
  0
ARC
  5
20DD
  8
0
 10
407.1024426759553876
 20
55.6174804010817709
 30
0.0
 40
0.2348766501189919
 50
266.0791740161783991
 51
273.835341980154908
  0
ARC
  5
20DE
  8
0
 10
407.1021004267191188
 20
55.1611725399603685
 30
0.0
 40
0.2250087777004483
 50
85.9088210871671407
 51
94.0056949091641201
  0
ARC
  5
20DF
  8
0
 10
407.1024426759553876
 20
55.619958565504632
 30
0.0
 40
0.2348766501189919
 50
266.0791740161783991
 51
273.835341980154908
  0
ENDSEC
  0
EOF
