  0
SECTION
  2
HEADER
  9
$ACADVER
  1
AC1009
  9
$INSBASE
 10
442.8543114326615751
 20
50.7326043088656533
 30
0.0
  9
$EXTMIN
 10
436.196651634953696
 20
50.7289428416928274
 30
-0.0000000349181948
  9
$EXTMAX
 10
443.8801174897292867
 20
58.3932999345604671
 30
0.0000000814935746
  9
$LIMMIN
 10
0.0
 20
0.0
  9
$LIMMAX
 10
11.6929133858000007
 20
8.2677165353999982
  9
$ORTHOMODE
 70
     0
  9
$REGENMODE
 70
     1
  9
$FILLMODE
 70
     1
  9
$QTEXTMODE
 70
     0
  9
$MIRRTEXT
 70
     0
  9
$DRAGMODE
 70
     2
  9
$LTSCALE
 40
0.6431102362
  9
$OSMODE
 70
  4095
  9
$ATTMODE
 70
     1
  9
$TEXTSIZE
 40
0.2
  9
$TRACEWID
 40
0.05
  9
$TEXTSTYLE
  7
STANDARD
  9
$CLAYER
  8
0
  9
$CELTYPE
  6
BYLAYER
  9
$CECOLOR
 62
   256
  9
$DIMSCALE
 40
1.0
  9
$DIMASZ
 40
0.1875
  9
$DIMEXO
 40
0.0625
  9
$DIMDLI
 40
0.4443307087
  9
$DIMRND
 40
0.0
  9
$DIMDLE
 40
0.0
  9
$DIMEXE
 40
0.125
  9
$DIMTP
 40
0.01
  9
$DIMTM
 40
0.01
  9
$DIMTXT
 40
1.0
  9
$DIMCEN
 40
0.1052362205
  9
$DIMTSZ
 40
0.0
  9
$DIMTOL
 70
     1
  9
$DIMLIM
 70
     0
  9
$DIMTIH
 70
     0
  9
$DIMTOH
 70
     1
  9
$DIMSE1
 70
     0
  9
$DIMSE2
 70
     0
  9
$DIMTAD
 70
     0
  9
$DIMZIN
 70
     0
  9
$DIMBLK
  1

  9
$DIMASO
 70
     1
  9
$DIMSHO
 70
     1
  9
$DIMPOST
  1
\X
  9
$DIMAPOST
  1

  9
$DIMALT
 70
     1
  9
$DIMALTD
 70
     2
  9
$DIMALTF
 40
25.3999999999999986
  9
$DIMLFAC
 40
1.0
  9
$DIMTOFL
 70
     0
  9
$DIMTVP
 40
0.0
  9
$DIMTIX
 70
     0
  9
$DIMSOXD
 70
     0
  9
$DIMSAH
 70
     0
  9
$DIMBLK1
  1

  9
$DIMBLK2
  1

  9
$DIMSTYLE
  2
STANDARD
  9
$DIMCLRD
 70
     0
  9
$DIMCLRE
 70
     0
  9
$DIMCLRT
 70
     0
  9
$DIMTFAC
 40
1.0
  9
$DIMGAP
 40
0.09
  9
$LUNITS
 70
     2
  9
$LUPREC
 70
     4
  9
$SKETCHINC
 40
0.1
  9
$FILLETRAD
 40
0.0
  9
$AUNITS
 70
     0
  9
$AUPREC
 70
     0
  9
$MENU
  1
.
  9
$ELEVATION
 40
0.0
  9
$PELEVATION
 40
0.0
  9
$THICKNESS
 40
0.0
  9
$LIMCHECK
 70
     0
  9
$BLIPMODE
 70
     0
  9
$CHAMFERA
 40
0.0
  9
$CHAMFERB
 40
0.0
  9
$SKPOLY
 70
     0
  9
$TDCREATE
 40
2458172.5207638889551163
  9
$TDUPDATE
 40
2459857.4726736107841134
  9
$TDINDWG
 40
0.0784571528
  9
$TDUSRTIMER
 40
0.0784571528
  9
$USRTIMER
 70
     1
  9
$ANGBASE
 50
0.0
  9
$ANGDIR
 70
     0
  9
$PDMODE
 70
     0
  9
$PDSIZE
 40
0.3125
  9
$PLINEWID
 40
0.0
  9
$COORDS
 70
     1
  9
$SPLFRAME
 70
     0
  9
$SPLINETYPE
 70
     6
  9
$SPLINESEGS
 70
     8
  9
$ATTDIA
 70
     1
  9
$ATTREQ
 70
     1
  9
$HANDLING
 70
     1
  9
$HANDSEED
  5
1E53
  9
$SURFTAB1
 70
     6
  9
$SURFTAB2
 70
     6
  9
$SURFTYPE
 70
     6
  9
$SURFU
 70
     6
  9
$SURFV
 70
     6
  9
$UCSNAME
  2

  9
$UCSORG
 10
0.0
 20
0.0
 30
0.0
  9
$UCSXDIR
 10
1.0
 20
0.0
 30
0.0
  9
$UCSYDIR
 10
0.0
 20
1.0
 30
0.0
  9
$PUCSNAME
  2

  9
$PUCSORG
 10
0.0
 20
0.0
 30
0.0
  9
$PUCSXDIR
 10
1.0
 20
0.0
 30
0.0
  9
$PUCSYDIR
 10
0.0
 20
1.0
 30
0.0
  9
$USERI1
 70
     0
  9
$USERI2
 70
     0
  9
$USERI3
 70
     0
  9
$USERI4
 70
     0
  9
$USERI5
 70
     0
  9
$USERR1
 40
0.0
  9
$USERR2
 40
0.0
  9
$USERR3
 40
0.0
  9
$USERR4
 40
0.0
  9
$USERR5
 40
0.0
  9
$WORLDVIEW
 70
     1
  9
$SHADEDGE
 70
     3
  9
$SHADEDIF
 70
    70
  9
$TILEMODE
 70
     1
  9
$MAXACTVP
 70
    64
  9
$PLIMCHECK
 70
     0
  9
$PEXTMIN
 10
1.0000000000000000E+20
 20
1.0000000000000000E+20
 30
1.0000000000000000E+20
  9
$PEXTMAX
 10
-1.0000000000000000E+20
 20
-1.0000000000000000E+20
 30
-1.0000000000000000E+20
  9
$PLIMMIN
 10
0.0
 20
0.0
  9
$PLIMMAX
 10
12.0
 20
9.0
  9
$UNITMODE
 70
     0
  9
$VISRETAIN
 70
     1
  9
$PLINEGEN
 70
     0
  9
$PSLTSCALE
 70
     1
  0
ENDSEC
  0
SECTION
  2
TABLES
  0
TABLE
  2
VPORT
 70
     1
  0
VPORT
  2
*ACTIVE
 70
     0
 10
0.0
 20
0.0
 11
1.0
 21
1.0
 12
22.4391871746462392
 22
-0.9512134354817476
 13
0.0
 23
0.0
 14
1.0
 24
1.0
 15
0.0
 25
0.0
 16
0.0
 26
0.0
 36
46.9660853561794625
 17
417.5991973876953125
 27
55.5123348236083984
 37
0.0
 40
7.7052369070690823
 41
1.583333333333333
 42
50.0
 43
0.0
 44
0.0
 50
0.0
 51
0.0
 71
     0
 72
   100
 73
     1
 74
     1
 75
     0
 76
     0
 77
     0
 78
     0
  0
ENDTAB
  0
TABLE
  2
LTYPE
 70
     2
  0
LTYPE
  2
CONTINUOUS
 70
     0
  3
Solid line
 72
    65
 73
     0
 40
0.0
  0
LTYPE
  2
PHANTOM2
 70
     0
  3
___ _ _ ___ _ _ ___ _ _ ___ _ _
 72
    65
 73
     6
 40
1.25
 49
0.625
 49
-0.125
 49
0.125
 49
-0.125
 49
0.125
 49
-0.125
  0
ENDTAB
  0
TABLE
  2
LAYER
 70
     2
  0
LAYER
  2
0
 70
     0
 62
   255
  6
CONTINUOUS
  0
LAYER
  2
DEFPOINTS
 70
     0
 62
     7
  6
CONTINUOUS
  0
ENDTAB
  0
TABLE
  2
STYLE
 70
     1
  0
STYLE
  2
STANDARD
 70
     0
 40
0.0
 41
0.8
 50
0.0
 71
     0
 42
0.2
  3
txt
  4

  0
ENDTAB
  0
TABLE
  2
VIEW
 70
     0
  0
ENDTAB
  0
TABLE
  2
UCS
 70
     0
  0
ENDTAB
  0
TABLE
  2
APPID
 70
    10
  0
APPID
  2
ACAD
 70
     0
  0
APPID
  2
ACAD_MLEADERVER
 70
     0
  0
APPID
  2
ACAD_EXEMPT_FROM_CAD_STANDARDS
 70
     0
  0
APPID
  2
ACAD_DSTYLE_DIMJAG
 70
     0
  0
APPID
  2
ACAD_DSTYLE_DIMTALN
 70
     0
  0
APPID
  2
ACAD_NAV_VCDISPLAY
 70
     0
  0
APPID
  2
ACAECLAYERSTANDARD
 70
     0
  0
APPID
  2
ACCMTRANSPARENCY
 70
     0
  0
APPID
  2
DCO15
 70
     0
  0
APPID
  2
ACDBATTR
 70
     0
  0
ENDTAB
  0
TABLE
  2
DIMSTYLE
 70
     1
  0
DIMSTYLE
  2
STANDARD
 70
     0
  3

  4

  5

  6

  7

 40
1.0
 41
0.1875
 42
0.0625
 43
0.38
 44
0.125
 45
0.0
 46
0.0
 47
0.01
 48
0.01
140
0.15625
141
0.09
142
0.0
143
25.3999999999999986
144
1.0
145
0.0
146
1.0
147
0.09
 71
     1
 72
     0
 73
     1
 74
     1
 75
     0
 76
     0
 77
     0
 78
     4
170
     0
171
     2
172
     0
173
     0
174
     0
175
     0
176
     0
177
     0
178
     0
  0
ENDTAB
  0
ENDSEC
  0
SECTION
  2
BLOCKS
  0
BLOCK
  8
0
  2
$MODEL_SPACE
 70
     0
 10
0.0
 20
0.0
 30
0.0
  3
$MODEL_SPACE
  1

  0
ENDBLK
  5
21
  8
0
  0
BLOCK
 67
     1
  8
0
  2
$PAPER_SPACE
 70
     0
 10
0.0
 20
0.0
 30
0.0
  3
$PAPER_SPACE
  1

  0
ENDBLK
  5
1D
 67
     1
  8
0
  0
ENDSEC
  0
SECTION
  2
ENTITIES
  0
ATTDEF
  5
829
  8
DEFPOINTS
 10
442.8506732063901268
 20
50.737496122174278
 30
0.0
 40
0.001
  1
K-73158W-ND
  3

  2
MODELNUMBER
 70
     0
1001
ACDBATTR
1070
     0
1070
     1
  0
ATTDEF
  5
82A
  8
DEFPOINTS
 10
442.8506732063901268
 20
50.7358294555076128
 30
0.0
 40
0.001
  1
COMPOSED
  3

  2
TRADENAME
 70
     0
1001
ACDBATTR
1070
     0
1070
     1
  0
ATTDEF
  5
82B
  8
DEFPOINTS
 10
442.8506732063901268
 20
50.7341627888409477
 30
0.0
 40
0.001
  1
BATHROOM SINK FAUCET
  3

  2
PRODUCT
 70
     0
1001
ACDBATTR
1070
     0
1070
     1
  0
LINE
  5
1D01
  8
0
 10
436.2269675248115277
 20
54.9817719915656582
 30
0.0
 11
436.2440050744115752
 21
55.4696635763656616
 31
0.0
  0
LINE
  5
1D02
  8
0
 10
441.8503744248114913
 20
50.8703995844656731
 30
0.0
 11
441.8503744248114913
 21
50.7326043088656533
 31
0.0
  0
LINE
  5
1D03
  8
0
 10
442.0078547397117177
 20
54.7157738788656616
 30
0.0
 11
442.0078547397117177
 21
50.92158068686566
 31
0.0
  0
LINE
  5
1D04
  8
0
 10
441.8503744248114913
 20
50.7326043088656533
 30
0.0
 11
443.858248440511602
 21
50.7326043088656533
 31
0.0
  0
LINE
  5
1D05
  8
0
 10
443.8385634011116281
 20
50.8900846238656683
 30
0.0
 11
441.8700594641115913
 21
50.8900846238656683
 31
0.0
  0
LINE
  5
1D06
  8
0
 10
442.6889571019614777
 20
58.3605330668656705
 30
0.0
 11
442.6889571019614777
 21
55.9117141692656716
 31
0.0
  0
LINE
  5
1D07
  8
0
 10
442.7657287555115886
 20
55.8723440904884825
 30
0.0
 11
442.7657287555115886
 21
55.5731315038614611
 31
0.0
  0
LINE
  5
1D08
  8
0
 10
442.9428941098116184
 20
55.8723440904859814
 30
0.0
 11
442.9428941098116184
 21
55.5731315038974429
 31
0.0
  0
LINE
  5
1D09
  8
0
 10
443.0196657633616155
 20
58.3605330668656705
 30
0.0
 11
443.0196657633616155
 21
55.9117141692656716
 31
0.0
  0
LINE
  5
1D0A
  8
0
 10
443.7007681255116154
 20
50.92158068686566
 30
0.0
 11
443.7007681255116154
 21
54.6588494309656596
 31
0.0
  0
LINE
  5
1D0B
  8
0
 10
443.7007681255116154
 20
54.7218839424656665
 30
0.0
 11
443.7007681255116154
 21
55.2103704964656501
 31
0.0
  0
LINE
  5
1D0C
  8
0
 10
443.858248440511602
 20
50.8703995844656731
 30
0.0
 11
443.858248440511602
 21
50.7326043088656533
 31
0.0
  0
LINE
  5
1D0D
  8
0
 10
436.2573452045115801
 20
54.9491959183656604
 30
0.0
 11
443.6681229641743016
 21
54.6904055829503193
 31
0.0
  0
LINE
  5
1D0E
  8
0
 10
436.27658114761158
 20
55.5000412560656571
 30
0.0
 11
443.6703213795499892
 21
55.2418464410221972
 31
0.0
  0
LINE
  5
1D0F
  8
0
 10
442.7086421413616222
 20
55.8920291298656622
 30
0.0
 11
442.9999807240615723
 21
55.8920291298656622
 31
0.0
  0
LINE
  5
1D10
  8
0
 10
442.9881697003614818
 20
58.3920291298656622
 30
0.0
 11
442.7204531649616115
 21
58.3920291298656622
 31
0.0
  0
ARC
  5
1D11
  8
0
 10
443.6692720625114816
 20
50.92158068686566
 30
0.0
 40
0.031496063
 50
270.0
 51
0.0
  0
ARC
  5
1D12
  8
0
 10
442.0393508027116241
 20
50.92158068686566
 30
0.0
 40
0.031496063
 50
180.0
 51
270.0
  0
ARC
  5
1D13
  8
0
 10
443.8385634011116281
 20
50.8703995844656731
 30
0.0
 40
0.0196850394
 50
0.0
 51
90.0
  0
ARC
  5
1D14
  8
0
 10
441.8700594641115913
 20
50.8703995844656731
 30
0.0
 40
0.0196850394
 50
90.0
 51
180.0
  0
ARC
  5
1D15
  8
0
 10
436.2754819508115816
 20
55.4685643796656507
 30
0.0
 40
0.031496063
 50
87.9999999999996163
 51
177.9999999999996021
  0
ARC
  5
1D16
  8
0
 10
436.2584444012114773
 20
54.9806727947656668
 30
0.0
 40
0.031496063
 50
177.9999999999996021
 51
267.9999999999996021
  0
ARC
  5
1D17
  8
0
 10
442.0392682540119722
 20
54.7158537453464007
 30
0.0
 40
0.0314136158273945
 50
87.9638149409584003
 51
180.1456698657891025
  0
ARC
  5
1D18
  8
0
 10
442.7086421413616222
 20
55.9117141692656716
 30
0.0
 40
0.0196850394
 50
180.0
 51
270.0
  0
ARC
  5
1D19
  8
0
 10
442.7460437159751905
 20
55.8723440904884825
 30
0.0
 40
0.0196850395863848
 50
0.0
 51
89.9916472622823989
  0
ARC
  5
1D1A
  8
0
 10
442.745526311140793
 20
55.5732899574475567
 30
0.0
 40
0.0202030657597822
 50
280.1788695803390965
 51
359.550621924406073
  0
ARC
  5
1D1B
  8
0
 10
443.6652887943151882
 20
54.6548096529946221
 30
0.0
 40
0.0357085808763096
 50
6.4958849717056424
 51
85.447678277233365
  0
ARC
  5
1D1C
  8
0
 10
443.6691902867535191
 20
54.7219654842830607
 30
0.0
 40
0.0315779440385541
 50
268.063057485663478
 51
359.8520484051244921
  0
ARC
  5
1D1D
  8
0
 10
443.6691831117860829
 20
55.2102818199717831
 30
0.0
 40
0.0315851382070595
 50
0.1608603224474434
 51
87.9347228575292945
  0
ARC
  5
1D1E
  8
0
 10
442.8543114326116097
 20
55.3920707118656708
 30
0.0
 40
0.2204724409
 50
348.0076811828242853
 51
40.2043091608320466
  0
ARC
  5
1D1F
  8
0
 10
442.8543114326116097
 20
55.3920707118656708
 30
0.0
 40
0.2204724409
 50
139.7956908391678894
 51
187.9923187997275988
  0
ARC
  5
1D20
  8
0
 10
442.9999807240615723
 20
55.9117141692656716
 30
0.0
 40
0.0196850394
 50
270.0
 51
0.0
  0
ARC
  5
1D21
  8
0
 10
442.9625791494539158
 20
55.8723440904859814
 30
0.0
 40
0.0196850395923729
 50
90.0084225166706631
 51
180.0
  0
ARC
  5
1D22
  8
0
 10
442.9631677897478994
 20
55.5732761815767802
 30
0.0
 40
0.0202741961564259
 50
180.4088690228610119
 51
258.5586208935116019
  0
ARC
  5
1D23
  8
0
 10
442.9881697003614818
 20
58.3605330668656705
 30
0.0
 40
0.031496063
 50
0.0
 51
90.0
  0
ARC
  5
1D24
  8
0
 10
442.7204531649616115
 20
58.3605330668656705
 30
0.0
 40
0.031496063
 50
90.0
 51
180.0
  0
LINE
  5
1D25
  8
0
 10
443.0851166877823175
 20
55.3457319669905985
 30
0.0
 11
442.6206523026822879
 21
55.3619514207905965
 31
0.0
  0
LINE
  5
1D26
  8
0
 10
442.360710604424014
 20
55.3611802657306526
 30
0.0
 11
443.3443389796238989
 21
55.3268312059306382
 31
0.0
  0
LINE
  5
1D27
  8
0
 10
442.3398043862953841
 20
55.3264783855663325
 30
0.0
 11
442.3403220864383911
 21
55.3414814214697515
 31
0.0
  0
LINE
  5
1D28
  8
0
 10
443.3627817257370225
 20
55.2907552304405598
 30
0.0
 11
443.3633370362286996
 21
55.3064707409305001
 31
0.0
  0
ARC
  5
1D29
  8
0
 10
443.3548866529962993
 20
55.2910342043070671
 30
0.0
 40
0.0079
 50
268.0000000395363031
 51
357.9762849274878249
  0
LINE
  5
1D2A
  8
0
 10
443.0924334599855001
 20
55.3356279405269333
 30
0.0
 11
443.0925569562472788
 21
55.3362251898728914
 31
0.0
  0
ARC
  5
1D2B
  8
0
 10
443.0019492279114957
 20
55.5436039330656826
 30
0.0
 40
0.0098425197000021
 50
0.0
 51
84.7314626566035685
  0
ARC
  5
1D2C
  8
0
 10
442.7066739471006258
 20
55.5436037735096377
 30
0.0
 40
0.0098428515069536
 50
95.2793570976307649
 51
180.121190710278313
  0
ARC
  5
1D2D
  8
0
 10
443.0848549901930937
 20
55.337862285983789
 30
0.0
 40
0.0078740310373684
 50
348.0000520414989182
 51
88.0953936938129374
  0
ARC
  5
1D2E
  8
0
 10
442.6203321700749029
 20
55.3540837323557184
 30
0.0
 40
0.0078741987652464
 50
87.6699465453781244
 51
192.4767752316938072
  0
ARC
  5
1D2F
  8
0
 10
443.3436639822431857
 20
55.3071577366197999
 30
0.0
 40
0.0196850454962346
 50
358.0000072549879064
 51
88.0349507452452258
  0
ARC
  5
1D30
  8
0
 10
442.3600143391474262
 20
55.3415003168374113
 30
0.0
 40
0.0196922617740288
 50
87.9737534019872243
 51
180.054977178255001
  0
LINE
  5
1D31
  8
0
 10
443.0117917475116087
 20
55.5436039330656826
 30
0.0
 11
443.0117917475116087
 21
55.5357714992656568
 31
0.0
  0
LINE
  5
1D32
  8
0
 10
442.6968311176115094
 20
55.5435829541528534
 30
0.0
 11
442.6968311176115094
 21
55.5357714992656568
 31
0.0
  0
LINE
  5
1D33
  8
0
 10
442.3474239812521205
 20
55.318310759942797
 30
0.0
 11
443.3546109469776866
 21
55.2831390167734327
 31
0.0
  0
LINE
  5
1D34
  8
0
 10
443.3617951709126146
 20
55.2572819884058077
 30
0.0
 11
443.3622600779344793
 21
55.2750360694655001
 31
0.0
  0
LINE
  5
1D35
  8
0
 10
443.3617951709126146
 20
55.2572819884058077
 30
0.0
 11
442.3387966866097827
 21
55.2930058826255504
 31
0.0
  0
LINE
  5
1D36
  8
0
 10
442.3387966866097827
 20
55.2930058826255504
 30
0.0
 11
442.339571374215609
 21
55.3107491452878008
 31
0.0
  0
ARC
  5
1D37
  8
0
 10
442.3474638551654721
 20
55.3104045521153296
 30
0.0
 40
0.0079
 50
88.0000000395427833
 51
177.4999999108100042
  0
ARC
  5
1D38
  8
0
 10
442.3476996872706195
 20
55.3262059474764527
 30
0.0
 40
0.0079
 50
178.0237153938984136
 51
268.0000000395427833
  0
ARC
  5
1D39
  8
0
 10
443.3543627850676785
 20
55.2752428673783527
 30
0.0
 40
0.0079
 50
358.4999998461270252
 51
88.0000000395427833
  0
ARC
  5
1D3A
  8
0
 10
443.3229299740115721
 20
55.2724271177656021
 30
0.0
 40
0.0196850393999345
 50
288.5012738837612005
 51
313.5729961376518986
  0
ARC
  5
1D3B
  8
0
 10
442.3786236807114847
 20
55.3054030201656985
 30
0.0
 40
0.0196850394000537
 50
222.427004029885012
 51
247.4990310127606961
  0
LINE
  5
1D3C
  8
0
 10
443.0028530054157159
 20
55.5534048707889312
 30
0.0
 11
442.7057682882700078
 21
55.5534048707889312
 31
0.0
  0
LINE
  5
1D3D
  8
0
 10
442.6889047761562779
 20
55.5357714992656568
 30
0.0
 11
443.0197180890668847
 21
55.5357714992656568
 31
0.0
  0
ARC
  5
1D3E
  8
0
 10
442.6889047761562779
 20
55.5318714992655416
 30
0.0
 40
0.0039
 50
90.0000000004168754
 51
139.7956908379767924
  0
ARC
  5
1D3F
  8
0
 10
443.0197180890668278
 20
55.5318714992655202
 30
0.0
 40
0.0039
 50
40.2043091620375321
 51
89.9999999995570619
  0
LINE
  5
1D40
  8
0
 10
437.3619835321114806
 20
54.7427501398656489
 30
0.0
 11
437.3678385736849918
 21
54.9104165944127516
 31
0.0
  0
LINE
  5
1D41
  8
0
 10
436.4369536482116132
 20
54.7636808048656505
 30
0.0
 11
437.3419138459115061
 21
54.7320788984656588
 31
0.0
  0
LINE
  5
1D42
  8
0
 10
437.3419138459115061
 20
54.7320788984656588
 30
0.0
 11
437.3619835321114806
 21
54.7427501398656489
 31
0.0
  0
LINE
  5
1D43
  8
0
 10
436.4176772389114944
 20
54.7757260422656529
 30
0.0
 11
436.4235322817003748
 21
54.9433925316170431
 31
0.0
  0
LINE
  5
1D44
  8
0
 10
436.4176772389114944
 20
54.7757260422656529
 30
0.0
 11
436.4369536482116132
 21
54.7636808048656505
 31
0.0
  0
LINE
  5
1D45
  8
0
 10
437.0284273553115213
 20
54.861208317565648
 30
0.0
 11
437.0247020060140244
 21
54.75452827043312
 31
0.0
  0
LINE
  5
1D46
  8
0
 10
436.7586841143115066
 20
54.8706279590656578
 30
0.0
 11
436.7549587650137823
 21
54.7639479119302166
 31
0.0
  0
LINE
  5
1D47
  8
0
 10
437.0284273553115213
 20
54.861208317565648
 30
0.0
 11
436.7586841143115066
 21
54.8706279590656578
 31
0.0
  0
LINE
  5
1D48
  8
0
 10
436.4176772389114944
 20
54.7757260422656529
 30
0.0
 11
436.7549587645481211
 21
54.7639479119302166
 31
0.0
  0
LINE
  5
1D49
  8
0
 10
437.0247020060139107
 20
54.75452827043312
 30
0.0
 11
437.3619835321190976
 21
54.7427501400813128
 31
0.0
  0
ARC
  5
1D4A
  8
0
 10
436.9175950772764736
 20
55.5543148485603311
 30
0.0
 40
0.8069265547346942
 50
258.3723672813206917
 51
277.627632744176708
  0
ARC
  5
1D4B
  8
0
 10
436.8777547816255264
 20
54.4134380388024681
 30
0.0
 40
0.4724409455210794
 50
71.4021578946467486
 51
104.5978421227170969
  0
ENDSEC
  0
EOF
