  0
SECTION
  2
HEADER
  9
$ACADVER
  1
AC1009
  9
$INSBASE
 10
2647.3684049001890344
 20
148.2636258800087035
 30
0.0
  9
$EXTMIN
 10
2640.3550028118870614
 20
138.5231531881462956
 30
-0.0015258207003583
  9
$EXTMAX
 10
2654.3277034453130909
 20
148.2741621739787092
 30
0.0000000349246037
  9
$LIMMIN
 10
0.0
 20
0.0
  9
$LIMMAX
 10
11.6929133858000007
 20
8.2677165353999982
  9
$ORTHOMODE
 70
     0
  9
$REGENMODE
 70
     1
  9
$FILLMODE
 70
     1
  9
$QTEXTMODE
 70
     0
  9
$MIRRTEXT
 70
     0
  9
$DRAGMODE
 70
     2
  9
$LTSCALE
 40
0.6431102362
  9
$OSMODE
 70
  4095
  9
$ATTMODE
 70
     1
  9
$TEXTSIZE
 40
0.2
  9
$TRACEWID
 40
0.05
  9
$TEXTSTYLE
  7
STANDARD
  9
$CLAYER
  8
0
  9
$CELTYPE
  6
BYLAYER
  9
$CECOLOR
 62
   256
  9
$DIMSCALE
 40
1.0
  9
$DIMASZ
 40
0.1875
  9
$DIMEXO
 40
0.0625
  9
$DIMDLI
 40
0.4443307087
  9
$DIMRND
 40
0.0
  9
$DIMDLE
 40
0.0
  9
$DIMEXE
 40
0.125
  9
$DIMTP
 40
0.01
  9
$DIMTM
 40
0.01
  9
$DIMTXT
 40
2.0
  9
$DIMCEN
 40
0.1052362205
  9
$DIMTSZ
 40
0.0
  9
$DIMTOL
 70
     1
  9
$DIMLIM
 70
     0
  9
$DIMTIH
 70
     1
  9
$DIMTOH
 70
     1
  9
$DIMSE1
 70
     0
  9
$DIMSE2
 70
     0
  9
$DIMTAD
 70
     0
  9
$DIMZIN
 70
     0
  9
$DIMBLK
  1

  9
$DIMASO
 70
     1
  9
$DIMSHO
 70
     1
  9
$DIMPOST
  1
\X
  9
$DIMAPOST
  1

  9
$DIMALT
 70
     1
  9
$DIMALTD
 70
     2
  9
$DIMALTF
 40
25.3999999999999986
  9
$DIMLFAC
 40
1.0
  9
$DIMTOFL
 70
     0
  9
$DIMTVP
 40
0.0
  9
$DIMTIX
 70
     0
  9
$DIMSOXD
 70
     0
  9
$DIMSAH
 70
     0
  9
$DIMBLK1
  1

  9
$DIMBLK2
  1

  9
$DIMSTYLE
  2
STANDARD
  9
$DIMCLRD
 70
     0
  9
$DIMCLRE
 70
     0
  9
$DIMCLRT
 70
     0
  9
$DIMTFAC
 40
1.0
  9
$DIMGAP
 40
0.09
  9
$LUNITS
 70
     2
  9
$LUPREC
 70
     4
  9
$SKETCHINC
 40
0.1
  9
$FILLETRAD
 40
0.0
  9
$AUNITS
 70
     0
  9
$AUPREC
 70
     0
  9
$MENU
  1
.
  9
$ELEVATION
 40
0.0
  9
$PELEVATION
 40
0.0
  9
$THICKNESS
 40
0.0
  9
$LIMCHECK
 70
     0
  9
$BLIPMODE
 70
     0
  9
$CHAMFERA
 40
0.0
  9
$CHAMFERB
 40
0.0
  9
$SKPOLY
 70
     0
  9
$TDCREATE
 40
2458060.468368056230247
  9
$TDUPDATE
 40
2459476.3894907408393919
  9
$TDINDWG
 40
0.6916274306
  9
$TDUSRTIMER
 40
0.6916274306
  9
$USRTIMER
 70
     1
  9
$ANGBASE
 50
0.0
  9
$ANGDIR
 70
     0
  9
$PDMODE
 70
     0
  9
$PDSIZE
 40
0.3125
  9
$PLINEWID
 40
0.0
  9
$COORDS
 70
     1
  9
$SPLFRAME
 70
     0
  9
$SPLINETYPE
 70
     6
  9
$SPLINESEGS
 70
     8
  9
$ATTDIA
 70
     1
  9
$ATTREQ
 70
     1
  9
$HANDLING
 70
     1
  9
$HANDSEED
  5
40E60
  9
$SURFTAB1
 70
     6
  9
$SURFTAB2
 70
     6
  9
$SURFTYPE
 70
     6
  9
$SURFU
 70
     6
  9
$SURFV
 70
     6
  9
$UCSNAME
  2

  9
$UCSORG
 10
0.0
 20
0.0
 30
0.0
  9
$UCSXDIR
 10
1.0
 20
0.0
 30
0.0
  9
$UCSYDIR
 10
0.0
 20
1.0
 30
0.0
  9
$PUCSNAME
  2

  9
$PUCSORG
 10
0.0
 20
0.0
 30
0.0
  9
$PUCSXDIR
 10
1.0
 20
0.0
 30
0.0
  9
$PUCSYDIR
 10
0.0
 20
1.0
 30
0.0
  9
$USERI1
 70
     0
  9
$USERI2
 70
     0
  9
$USERI3
 70
     0
  9
$USERI4
 70
     0
  9
$USERI5
 70
     0
  9
$USERR1
 40
0.0
  9
$USERR2
 40
0.0
  9
$USERR3
 40
0.0
  9
$USERR4
 40
0.0
  9
$USERR5
 40
0.0
  9
$WORLDVIEW
 70
     1
  9
$SHADEDGE
 70
     3
  9
$SHADEDIF
 70
    70
  9
$TILEMODE
 70
     1
  9
$MAXACTVP
 70
    64
  9
$PLIMCHECK
 70
     0
  9
$PEXTMIN
 10
1.0000000000000000E+20
 20
1.0000000000000000E+20
 30
1.0000000000000000E+20
  9
$PEXTMAX
 10
-1.0000000000000000E+20
 20
-1.0000000000000000E+20
 30
-1.0000000000000000E+20
  9
$PLIMMIN
 10
0.0
 20
0.0
  9
$PLIMMAX
 10
12.0
 20
9.0
  9
$UNITMODE
 70
     0
  9
$VISRETAIN
 70
     1
  9
$PLINEGEN
 70
     0
  9
$PSLTSCALE
 70
     1
  0
ENDSEC
  0
SECTION
  2
TABLES
  0
TABLE
  2
VPORT
 70
     1
  0
VPORT
  2
*ACTIVE
 70
     0
 10
0.0
 20
0.0
 11
1.0
 21
1.0
 12
-656.3517621057749238
 22
-51.8628538948252
 13
0.0
 23
0.0
 14
1.0
 24
1.0
 15
0.0
 25
0.0
 16
0.0
 26
0.0
 36
96.5995694866707311
 17
3303.693115234375
 27
195.2615115758877096
 37
0.0
 40
9.8359234327337077
 41
2.7718023255813948
 42
50.0
 43
0.0
 44
0.0
 50
0.0
 51
0.0
 71
     0
 72
   100
 73
     1
 74
     1
 75
     0
 76
     0
 77
     0
 78
     0
  0
ENDTAB
  0
TABLE
  2
LTYPE
 70
     2
  0
LTYPE
  2
CONTINUOUS
 70
     0
  3
Solid line
 72
    65
 73
     0
 40
0.0
  0
LTYPE
  2
PHANTOM2
 70
     0
  3
___ _ _ ___ _ _ ___ _ _ ___ _ _
 72
    65
 73
     6
 40
1.25
 49
0.625
 49
-0.125
 49
0.125
 49
-0.125
 49
0.125
 49
-0.125
  0
ENDTAB
  0
TABLE
  2
LAYER
 70
     2
  0
LAYER
  2
0
 70
     0
 62
   255
  6
CONTINUOUS
  0
LAYER
  2
DEFPOINTS
 70
     0
 62
     7
  6
CONTINUOUS
  0
ENDTAB
  0
TABLE
  2
STYLE
 70
     1
  0
STYLE
  2
STANDARD
 70
     0
 40
0.0
 41
0.8
 50
0.0
 71
     0
 42
0.2
  3
txt
  4

  0
ENDTAB
  0
TABLE
  2
VIEW
 70
     0
  0
ENDTAB
  0
TABLE
  2
UCS
 70
     0
  0
ENDTAB
  0
TABLE
  2
APPID
 70
     9
  0
APPID
  2
ACAD
 70
     0
  0
APPID
  2
ACAD_MLEADERVER
 70
     0
  0
APPID
  2
ACAD_EXEMPT_FROM_CAD_STANDARDS
 70
     0
  0
APPID
  2
ACAD_NAV_VCDISPLAY
 70
     0
  0
APPID
  2
ACAECLAYERSTANDARD
 70
     0
  0
APPID
  2
ACCMTRANSPARENCY
 70
     0
  0
APPID
  2
ACAD_DSTYLE_DIMJAG
 70
     0
  0
APPID
  2
ACAD_DSTYLE_DIMTALN
 70
     0
  0
APPID
  2
ACDBATTR
 70
     0
  0
ENDTAB
  0
TABLE
  2
DIMSTYLE
 70
     1
  0
DIMSTYLE
  2
STANDARD
 70
     0
  3

  4

  5

  6

  7

 40
1.0
 41
0.1875
 42
0.0625
 43
0.38
 44
0.125
 45
0.0
 46
0.0
 47
0.01
 48
0.01
140
0.15625
141
0.09
142
0.0
143
25.3999999999999986
144
1.0
145
0.0
146
1.0
147
0.09
 71
     1
 72
     0
 73
     1
 74
     1
 75
     0
 76
     0
 77
     0
 78
     4
170
     0
171
     2
172
     0
173
     0
174
     0
175
     0
176
     0
177
     0
178
     0
  0
ENDTAB
  0
ENDSEC
  0
SECTION
  2
BLOCKS
  0
BLOCK
  8
0
  2
$MODEL_SPACE
 70
     0
 10
0.0
 20
0.0
 30
0.0
  3
$MODEL_SPACE
  1

  0
ENDBLK
  5
21
  8
0
  0
BLOCK
 67
     1
  8
0
  2
$PAPER_SPACE
 70
     0
 10
0.0
 20
0.0
 30
0.0
  3
$PAPER_SPACE
  1

  0
ENDBLK
  5
1D
 67
     1
  8
0
  0
BLOCK
  8
0
  2
_FILLED
 70
     0
 10
0.0
 20
0.0
 30
0.0
  3
_FILLED
  1

  0
SOLID
  5
40309
  8
0
  6
BYBLOCK
 62
     0
 10
0.0
 20
0.0
 30
0.0
 11
-1.0
 21
0.1666666667
 31
0.0
 12
-1.0
 22
-0.1666666667
 32
0.0
 13
-1.0
 23
-0.1666666667
 33
0.0
  0
ENDBLK
  5
4030A
  8
0
  6
BYBLOCK
 62
     0
  0
ENDSEC
  0
SECTION
  2
ENTITIES
  0
ATTDEF
  5
40B4A
  8
DEFPOINTS
 10
2647.3690678477069014
 20
148.2676648034114066
 30
0.0
 40
0.001
  1
K-73110D
  3

  2
MODELNUMBER
 70
     0
1001
ACDBATTR
1070
     0
1070
     1
  0
ATTDEF
  5
40B4B
  8
DEFPOINTS
 10
2647.3690678477069014
 20
148.2659981367447131
 30
0.0
 40
0.001
  1
COMPOSED
  3

  2
TRADENAME
 70
     0
1001
ACDBATTR
1070
     0
1070
     1
  0
ATTDEF
  5
40B4C
  8
DEFPOINTS
 10
2647.3690678477069014
 20
148.2643314700779911
 30
0.0
 40
0.001
  1
EXPOSED SHOWER VALVE
  3

  2
PRODUCT
 70
     0
1001
ACDBATTR
1070
     0
1070
     1
  0
LINE
  5
40D1D
  8
0
 10
2645.7089615512891214
 20
145.3699250926086961
 30
0.0
 11
2649.0278482472890573
 21
145.3699250926086961
 31
0.0
  0
ARC
  5
40D1E
  8
0
 10
2647.3693909225808056
 20
144.4146965483415954
 30
0.0
 40
0.9552290531714385
 50
90.0591428113077654
 51
98.0773323690163323
  0
LINE
  5
40D1F
  8
0
 10
2646.5731293148887744
 20
138.5242088878086975
 30
0.0
 11
2648.1636804827890046
 21
138.5242088684086923
 31
0.0
  0
LINE
  5
40D20
  8
0
 10
2649.0416332475888339
 20
148.2636258800087035
 30
0.0
 11
2651.6006883656891659
 21
148.2636258800087035
 31
0.0
  0
LINE
  5
40D21
  8
0
 10
2651.6006883656891659
 20
148.2636258800087035
 30
0.0
 11
2651.6006883656891659
 21
147.0431534391086927
 31
0.0
  0
ARC
  5
40D22
  8
0
 10
2651.5613182869888078
 20
147.0431534391086927
 30
0.0
 40
0.0393700786999993
 50
270.0
 51
0.0
  0
LINE
  5
40D23
  8
0
 10
2651.5613182869888078
 20
147.0037833604087041
 30
0.0
 11
2649.0810033258021576
 21
147.0037833604087041
 31
0.0
  0
ARC
  5
40D24
  8
0
 10
2649.0810033258021576
 20
147.0431534386227099
 30
0.0
 40
0.0393700782139881
 50
179.9999992927423023
 51
270.0
  0
LINE
  5
40D25
  8
0
 10
2649.0416332475888339
 20
147.0431534391086927
 30
0.0
 11
2649.0416332626541589
 21
148.2636258800087035
 31
0.0
  0
LINE
  5
40D26
  8
0
 10
2651.2748039219891325
 20
147.0037833603086881
 30
0.0
 11
2651.2663832756888951
 21
146.0388728667086866
 31
0.0
  0
ARC
  5
40D27
  8
0
 10
2651.226825725892013
 20
146.0392180802155906
 30
0.0
 40
0.0395590560837395
 50
275.5781201985412281
 51
359.5000000004499157
  0
LINE
  5
40D28
  8
0
 10
2651.2345466333890727
 20
145.9998463525087118
 30
0.0
 11
2649.4077749798889272
 21
145.9998463524086958
 31
0.0
  0
ARC
  5
40D29
  8
0
 10
2649.4077749798898367
 20
145.9683502894069989
 30
0.0
 40
0.0314960630017254
 50
90.0000000031266296
 51
179.9999998149517069
  0
LINE
  5
40D2A
  8
0
 10
2649.3762789168890777
 20
145.9683502895086917
 30
0.0
 11
2649.3762789155921382
 21
145.5667754863086998
 31
0.0
  0
ARC
  5
40D2B
  8
0
 10
2648.1066332796008282
 20
145.5667754904092988
 30
0.0
 40
1.269645635990976
 50
356.270865556609408
 51
359.9999998149518206
  0
ARC
  5
40D2C
  8
0
 10
2649.2302244771772166
 20
145.4935423617598076
 30
0.0
 40
0.1436703829754323
 50
326.9021329890662173
 51
356.270865556609408
  0
ARC
  5
40D2D
  8
0
 10
2649.2751836292118242
 20
145.4724291132411906
 30
0.0
 40
0.0947259961640049
 50
293.4231229987757956
 51
322.747057141780715
  0
ARC
  5
40D2E
  8
0
 10
2649.2059113159411936
 20
145.6913931958335127
 30
0.0
 40
0.3240348872763971
 50
269.7048307283430972
 51
289.2680471514818237
  0
ARC
  5
40D2F
  8
0
 10
2649.2527161081329723
 20
154.7766659085316974
 30
0.0
 40
9.4094281617951552
 50
268.6306069029192827
 51
269.7048307283430972
  0
ARC
  5
40D30
  8
0
 10
2651.2345466335500532
 20
145.9683502895695142
 30
0.0
 40
0.0314960628391354
 50
359.9999998892740223
 51
90.000000292624847
  0
LINE
  5
40D31
  8
0
 10
2651.2660426963889222
 20
145.9683502895086917
 30
0.0
 11
2651.2660426963889222
 21
145.5667754863086998
 31
0.0
  0
ARC
  5
40D32
  8
0
 10
2649.771501900471776
 20
145.5204117322957984
 30
0.0
 40
1.495259772861087
 50
359.7076121995193034
 51
1.776864010444845
  0
ARC
  5
40D33
  8
0
 10
2651.5682933087259698
 20
145.5207635059688016
 30
0.0
 40
0.3016567340770504
 50
181.5163008260541062
 51
193.19435765732851
  0
ARC
  5
40D34
  8
0
 10
2651.3707442969857766
 20
145.4744493274505999
 30
0.0
 40
0.0987513000163824
 50
193.19435765732851
 51
225.0823638947952929
  0
ARC
  5
40D35
  8
0
 10
2651.3896796855287903
 20
145.5078736815383138
 30
0.0
 40
0.1361718734178942
 50
229.3747768105174032
 51
263.6841715804151818
  0
ARC
  5
40D36
  8
0
 10
2651.5563441309359405
 20
150.5139042597737955
 30
0.0
 40
5.144583716548393
 50
267.9765844961436869
 51
269.9943026768655159
  0
ARC
  5
40D37
  8
0
 10
2651.6083633327971256
 20
143.1181415664229064
 30
0.0
 40
2.251791815707096
 50
89.8445329454653034
 51
91.3367417528137651
  0
LINE
  5
40D38
  8
0
 10
2651.6144733641890525
 20
145.3699250926086961
 30
0.0
 11
2652.0613182869878983
 21
145.3699250926086961
 31
0.0
  0
ARC
  5
40D39
  8
0
 10
2652.0613182869878983
 20
145.3384290296087045
 30
0.0
 40
0.0314960630000005
 50
0.0
 51
90.0
  0
LINE
  5
40D3A
  8
0
 10
2652.0928143499891121
 20
145.3384290296087045
 30
0.0
 11
2652.0928143499891121
 21
143.5116573761087011
 31
0.0
  0
ARC
  5
40D3B
  8
0
 10
2652.0613182869878983
 20
143.5116573761087011
 30
0.0
 40
0.0314960630000005
 50
270.0
 51
0.0
  0
LINE
  5
40D3C
  8
0
 10
2652.0613182869878983
 20
143.4801613131087095
 30
0.0
 11
2648.3132867908889239
 21
143.4801613131087095
 31
0.0
  0
ARC
  5
40D3D
  8
0
 10
2652.1754915150750094
 20
143.5116561764291134
 30
0.0
 40
0.0314960626204323
 50
179.9999953049517103
 51
270.000000389523791
  0
ARC
  5
40D3E
  8
0
 10
2652.1754915152878311
 20
260.5825986323121128
 30
0.0
 40
117.1024385185033054
 50
270.0
 51
270.9999327561023961
  0
ARC
  5
40D3F
  8
0
 10
2654.218518906108784
 20
143.5297651131974987
 30
0.0
 40
0.0317769684241313
 50
270.9999327561023961
 51
359.5000671741269116
  0
LINE
  5
40D40
  8
0
 10
2654.2502946648892248
 20
143.5294878476086922
 30
0.0
 11
2654.2502946648892248
 21
145.3205303764248129
 31
0.0
  0
ARC
  5
40D41
  8
0
 10
2654.2187982902819385
 20
145.320598176208307
 30
0.0
 40
0.031496447580066
 50
359.8766640449405259
 51
89.4994392396012444
  0
ARC
  5
40D42
  8
0
 10
2653.4081977742389427
 20
52.539040988081382
 30
0.0
 40
92.8165945369299266
 50
89.4994392396012444
 51
89.6258169249402101
  0
ARC
  5
40D43
  8
0
 10
2654.0141468599458676
 20
145.3220500027032926
 30
0.0
 40
0.0316068713496022
 50
89.6258169249402101
 51
172.9459106026652933
  0
ARC
  5
40D44
  8
0
 10
2653.9378656263888843
 20
145.3257548729081066
 30
0.0
 40
0.0449139527603054
 50
339.7457920339213047
 51
0.2253523293303317
  0
ARC
  5
40D45
  8
0
 10
2653.9548583984760626
 20
145.3194844904242871
 30
0.0
 40
0.026801194833967
 50
299.7611609135589106
 51
339.7457920339227826
  0
ARC
  5
40D46
  8
0
 10
2653.9490098903861508
 20
145.3297126320626091
 30
0.0
 40
0.0385833817384252
 50
273.0786335870809012
 51
299.7611609135589106
  0
LINE
  5
40D47
  8
0
 10
2653.9510820664891071
 20
145.2911849351087028
 30
0.0
 11
2652.4432080507890532
 21
145.2911849351087028
 31
0.0
  0
ARC
  5
40D48
  8
0
 10
2652.4432080507890532
 20
145.3226809981088081
 30
0.0
 40
0.0314960630000698
 50
250.2649339299682936
 51
269.9999999999739089
  0
ARC
  5
40D49
  8
0
 10
2652.4432080507890532
 20
145.3226809981086092
 30
0.0
 40
0.0314960629999638
 50
219.275289459629704
 51
250.2649339299682936
  0
ARC
  5
40D4A
  8
0
 10
2652.4432080507890532
 20
145.3226809981086944
 30
0.0
 40
0.031496063000028
 50
179.9999861335209062
 51
219.2752894596308977
  0
LINE
  5
40D4B
  8
0
 10
2652.4117119877960249
 20
145.3226809981026122
 30
0.0
 11
2652.4117119877892037
 21
145.3366436260087085
 31
0.0
  0
ARC
  5
40D4C
  8
0
 10
2652.3802159248339194
 20
145.3366436260274952
 30
0.0
 40
0.0314960629542228
 50
359.9999959611640747
 51
89.5000000704380767
  0
LINE
  5
40D4D
  8
0
 10
2652.1757663667890483
 20
145.3699250926086961
 30
0.0
 11
2652.3804907762892071
 21
145.3681384897087128
 31
0.0
  0
ARC
  5
40D4E
  8
0
 10
2652.1754915151391288
 20
145.3384302291983943
 30
0.0
 40
0.0314960626850843
 50
89.4999997109942314
 51
180.0000005270003101
  0
LINE
  5
40D4F
  8
0
 10
2652.1439954524539644
 20
145.3384302289086918
 30
0.0
 11
2652.1439954524539644
 21
143.5116561790100036
 31
0.0
  0
LINE
  5
40D50
  8
0
 10
2652.1439954524539644
 20
143.6159880847087038
 30
0.0
 11
2652.0928143499891121
 21
143.6159880847087038
 31
0.0
  0
LINE
  5
40D51
  8
0
 10
2652.1439954524539644
 20
145.2340983210087018
 30
0.0
 11
2652.0928143499891121
 21
145.2340983210087018
 31
0.0
  0
CIRCLE
  5
40D52
  8
0
 10
2652.2621056884891004
 20
144.4250432028086948
 30
0.0
 40
0.0393700786999993
  0
ARC
  5
40D53
  8
0
 10
2647.3674188777958989
 20
144.4146965483415954
 30
0.0
 40
0.9552290531714385
 50
81.9226676309836961
 51
89.9408571886922346
  0
ARC
  5
40D54
  8
0
 10
2647.3689665878519008
 20
144.425447979002314
 30
0.0
 40
0.9443668161842085
 50
0.0488769589903991
 51
81.9239828056645365
  0
LINE
  5
40D55
  8
0
 10
2648.3133330604200637
 20
144.4262535841087072
 30
0.0
 11
2648.3133330604200637
 21
138.6907815274065001
 31
0.0
  0
ARC
  5
40D56
  8
0
 10
2646.9225669491597728
 20
138.7472477095448085
 30
0.0
 40
1.391911953126461
 50
354.7226192586164188
 51
357.6749950127635884
  0
ARC
  5
40D57
  8
0
 10
2648.197326693578816
 20
138.6424013022883912
 30
0.0
 40
0.1136408277021027
 50
309.1003299684512058
 51
348.2313882601346791
  0
ARC
  5
40D58
  8
0
 10
2648.1870987913521276
 20
138.6549865850685137
 30
0.0
 40
0.1298580816809528
 50
278.1334095384589773
 51
309.1003299684512058
  0
ARC
  5
40D59
  8
0
 10
2648.1665195790988037
 20
138.8643315770916047
 30
0.0
 40
0.3401345384073946
 50
269.5217481552131176
 51
276.5757928400063861
  0
LINE
  5
40D5A
  8
0
 10
2649.3675176913880023
 20
147.0037833604087041
 30
0.0
 11
2649.3759507390891486
 21
146.0388728667086866
 31
0.0
  0
ARC
  5
40D5B
  8
0
 10
2649.4153213363110808
 20
146.0392169547112076
 30
0.0
 40
0.0393721008099768
 50
180.500736330737908
 51
269.5001103266513951
  0
ARC
  5
40D5D
  8
0
 10
2647.3674188777958989
 20
144.4146965483415954
 30
0.0
 40
0.9552290531714385
 50
81.9226676309836961
 51
89.9408571886922346
  0
LINE
  5
40D5E
  8
0
 10
2645.6951765527887801
 20
148.2636258800087035
 30
0.0
 11
2643.1361214346889028
 21
148.2636258800087035
 31
0.0
  0
LINE
  5
40D5F
  8
0
 10
2643.1361214346889028
 20
148.2636258800087035
 30
0.0
 11
2643.1361214346889028
 21
147.0431534391086927
 31
0.0
  0
ARC
  5
40D60
  8
0
 10
2643.1754915133888062
 20
147.0431534391086927
 30
0.0
 40
0.0393700786999993
 50
180.0
 51
270.0
  0
LINE
  5
40D61
  8
0
 10
2643.1754915133888062
 20
147.0037833604087041
 30
0.0
 11
2645.6558064745750016
 21
147.0037833604087041
 31
0.0
  0
ARC
  5
40D62
  8
0
 10
2645.6558064745750016
 20
147.0431534386227099
 30
0.0
 40
0.0393700782139881
 50
270.0
 51
0.0000007072576545
  0
LINE
  5
40D63
  8
0
 10
2645.6951765527887801
 20
147.0431534391086927
 30
0.0
 11
2645.6951765377230004
 21
148.2636258800087035
 31
0.0
  0
LINE
  5
40D64
  8
0
 10
2643.4620058783889363
 20
147.0037833603086881
 30
0.0
 11
2643.4704265246891737
 21
146.0388728667086866
 31
0.0
  0
ARC
  5
40D65
  8
0
 10
2643.5099840744851463
 20
146.0392180802155906
 30
0.0
 40
0.0395590560837395
 50
180.4999999995501128
 51
264.4218798014587719
  0
LINE
  5
40D66
  8
0
 10
2643.5022631669880866
 20
145.9998463525087118
 30
0.0
 11
2645.3290348204891416
 21
145.9998463524086958
 31
0.0
  0
ARC
  5
40D67
  8
0
 10
2645.3290348204868678
 20
145.9683502894069989
 30
0.0
 40
0.0314960630017254
 50
0.0000001850482336
 51
89.9999999968733846
  0
LINE
  5
40D68
  8
0
 10
2645.3605308834880816
 20
145.9683502895086917
 30
0.0
 11
2645.3605308847859305
 21
145.5667754863086998
 31
0.0
  0
ARC
  5
40D69
  8
0
 10
2646.6301765207767858
 20
145.5667754904092988
 30
0.0
 40
1.269645635990976
 50
180.0000001850482079
 51
183.729134443390592
  0
ARC
  5
40D6A
  8
0
 10
2645.5065853231999426
 20
145.4935423617598076
 30
0.0
 40
0.1436703829754323
 50
183.729134443390592
 51
213.0978670109338111
  0
ARC
  5
40D6B
  8
0
 10
2645.4616261711657899
 20
145.4724291132411906
 30
0.0
 40
0.0947259961640049
 50
217.2529428582193134
 51
246.5768770012242044
  0
ARC
  5
40D6C
  8
0
 10
2645.5308984844368752
 20
145.6913931958335127
 30
0.0
 40
0.3240348872763971
 50
250.7319528485182047
 51
270.2951692716569028
  0
ARC
  5
40D6D
  8
0
 10
2645.4840936922450965
 20
154.7766659085316974
 30
0.0
 40
9.4094281617951552
 50
270.2951692716569028
 51
271.3693930970807173
  0
ARC
  5
40D6E
  8
0
 10
2643.5022631668280155
 20
145.9683502895695142
 30
0.0
 40
0.0314960628391354
 50
89.9999997073751246
 51
180.0000001107260061
  0
LINE
  5
40D6F
  8
0
 10
2643.4707671039891466
 20
145.9683502895086917
 30
0.0
 11
2643.4707671039891466
 21
145.5667754863086998
 31
0.0
  0
ARC
  5
40D70
  8
0
 10
2644.965307899905838
 20
145.5204117322957984
 30
0.0
 40
1.495259772861087
 50
178.2231359895550895
 51
180.2923878004806966
  0
ARC
  5
40D71
  8
0
 10
2643.1685164916511894
 20
145.5207635059688016
 30
0.0
 40
0.3016567340770504
 50
346.8056423426713764
 51
358.4836991739459222
  0
ARC
  5
40D72
  8
0
 10
2643.3660655033909279
 20
145.4744493274505999
 30
0.0
 40
0.0987513000163824
 50
314.9176361052046786
 51
346.8056423426713764
  0
ARC
  5
40D73
  8
0
 10
2643.3471301148488237
 20
145.5078736815383138
 30
0.0
 40
0.1361718734178942
 50
276.3158284195847045
 51
310.6252231894825968
  0
ARC
  5
40D74
  8
0
 10
2643.1804656694412188
 20
150.5139042597737955
 30
0.0
 40
5.144583716548393
 50
270.0056973231344841
 51
272.0234155038563131
  0
ARC
  5
40D75
  8
0
 10
2643.1284464675809431
 20
143.1181415664229064
 30
0.0
 40
2.251791815707096
 50
88.6632582471862634
 51
90.1554670545346966
  0
LINE
  5
40D76
  8
0
 10
2643.1223364361890162
 20
145.3699250926086961
 30
0.0
 11
2642.6754915133888062
 21
145.3699250926086961
 31
0.0
  0
ARC
  5
40D77
  8
0
 10
2642.6754915133888062
 20
145.3384290296087045
 30
0.0
 40
0.0314960630000005
 50
90.0
 51
180.0
  0
LINE
  5
40D78
  8
0
 10
2642.6439954503880472
 20
145.3384290296087045
 30
0.0
 11
2642.6439954503880472
 21
143.5116573761087011
 31
0.0
  0
ARC
  5
40D79
  8
0
 10
2642.6754915133888062
 20
143.5116573761087011
 30
0.0
 40
0.0314960630000005
 50
180.0
 51
270.0
  0
LINE
  5
40D7A
  8
0
 10
2642.6754915133888062
 20
143.4801613131087095
 30
0.0
 11
2646.4235230094891449
 21
143.4801613131087095
 31
0.0
  0
ARC
  5
40D7B
  8
0
 10
2642.5613182853030594
 20
143.5116561764291134
 30
0.0
 40
0.0314960626204323
 50
269.999999610476209
 51
0.0000046950483097
  0
ARC
  5
40D7C
  8
0
 10
2642.5613182850888734
 20
260.5825986323121128
 30
0.0
 40
117.1024385185033054
 50
269.0000672438976039
 51
270.0
  0
ARC
  5
40D7D
  8
0
 10
2640.51829089426883
 20
143.5297651131974987
 30
0.0
 40
0.0317769684241313
 50
180.4999328258730884
 51
269.0000672438976039
  0
LINE
  5
40D7E
  8
0
 10
2640.486515135488844
 20
143.5294878476086922
 30
0.0
 11
2640.486515135488844
 21
145.3205303764248129
 31
0.0
  0
ARC
  5
40D7F
  8
0
 10
2640.5180115100961302
 20
145.320598176208307
 30
0.0
 40
0.031496447580066
 50
90.5005607603987841
 51
180.1233359550593889
  0
ARC
  5
40D80
  8
0
 10
2641.3286120261382166
 20
52.539040988081382
 30
0.0
 40
92.8165945369299266
 50
90.3741830750598041
 51
90.5005607603987841
  0
ARC
  5
40D81
  8
0
 10
2640.7226629404322011
 20
145.3220500027032926
 30
0.0
 40
0.0316068713496022
 50
7.0540893973346934
 51
90.3741830750598041
  0
ARC
  5
40D82
  8
0
 10
2640.7989441739878202
 20
145.3257548729081066
 30
0.0
 40
0.0449139527603054
 50
179.7746476706695944
 51
200.2542079660786953
  0
ARC
  5
40D83
  8
0
 10
2640.7819514019010967
 20
145.3194844904242871
 30
0.0
 40
0.026801194833967
 50
200.254207966077189
 51
240.2388390864410042
  0
ARC
  5
40D84
  8
0
 10
2640.7877999099910085
 20
145.3297126320626091
 30
0.0
 40
0.0385833817384252
 50
240.2388390864410042
 51
266.9213664129189851
  0
LINE
  5
40D85
  8
0
 10
2640.7857277338880522
 20
145.2911849351087028
 30
0.0
 11
2642.2936017495890155
 21
145.2911849351087028
 31
0.0
  0
ARC
  5
40D86
  8
0
 10
2642.2936017495890155
 20
145.3226809981088081
 30
0.0
 40
0.0314960630000698
 50
270.0000000000259774
 51
289.735066070031678
  0
ARC
  5
40D87
  8
0
 10
2642.2936017495890155
 20
145.3226809981086092
 30
0.0
 40
0.0314960629999638
 50
289.735066070031678
 51
320.7247105403703245
  0
ARC
  5
40D88
  8
0
 10
2642.2936017495890155
 20
145.3226809981086944
 30
0.0
 40
0.031496063000028
 50
320.7247105403690739
 51
0.0000138664790976
  0
LINE
  5
40D89
  8
0
 10
2642.3250978125811343
 20
145.3226809981026122
 30
0.0
 11
2642.3250978125888651
 21
145.3366436260087085
 31
0.0
  0
ARC
  5
40D8A
  8
0
 10
2642.3565938755427851
 20
145.3366436260274952
 30
0.0
 40
0.0314960629542228
 50
90.4999999295619233
 51
180.0000040388358116
  0
LINE
  5
40D8B
  8
0
 10
2642.5610434335890204
 20
145.3699250926086961
 30
0.0
 11
2642.3563190240879521
 21
145.3681384897087128
 31
0.0
  0
ARC
  5
40D8C
  8
0
 10
2642.5613182852380305
 20
145.3384302291983943
 30
0.0
 40
0.0314960626850843
 50
359.9999994729997184
 51
90.5000002890057829
  0
LINE
  5
40D8D
  8
0
 10
2642.5928143479231949
 20
145.3384302289086918
 30
0.0
 11
2642.5928143479231949
 21
143.5116561790100036
 31
0.0
  0
LINE
  5
40D8E
  8
0
 10
2642.5928143479231949
 20
143.6159880847087038
 30
0.0
 11
2642.6439954503880472
 21
143.6159880847087038
 31
0.0
  0
LINE
  5
40D8F
  8
0
 10
2642.5928143479231949
 20
145.2340983210087018
 30
0.0
 11
2642.6439954503880472
 21
145.2340983210087018
 31
0.0
  0
CIRCLE
  5
40D90
  8
0
 10
2642.4747041118889683
 20
144.4250432028086948
 30
0.0
 40
0.0393700786999993
  0
ARC
  5
40D91
  8
0
 10
2647.3693909225808056
 20
144.4146965483415954
 30
0.0
 40
0.9552290531714385
 50
90.0591428113077654
 51
98.0773323690163323
  0
ARC
  5
40D92
  8
0
 10
2647.3678432125261679
 20
144.425447979002314
 30
0.0
 40
0.9443668161842085
 50
98.0760171943354635
 51
179.9511230410095948
  0
LINE
  5
40D93
  8
0
 10
2646.4234767399580051
 20
144.4262535841087072
 30
0.0
 11
2646.4234767399580051
 21
138.6907815274065001
 31
0.0
  0
ARC
  5
40D94
  8
0
 10
2647.8142428512178412
 20
138.7472477095448085
 30
0.0
 40
1.391911953126461
 50
182.3250049872347915
 51
185.2773807413819043
  0
ARC
  5
40D95
  8
0
 10
2646.5394831067978885
 20
138.6424013022883912
 30
0.0
 40
0.1136408277021027
 50
191.7686117398637009
 51
230.8996700315487089
  0
ARC
  5
40D96
  8
0
 10
2646.5497110090250317
 20
138.6549865850685137
 30
0.0
 40
0.1298580816809528
 50
230.8996700315487089
 51
261.8665904615410227
  0
ARC
  5
40D97
  8
0
 10
2646.5702902212788103
 20
138.8643315770916047
 30
0.0
 40
0.3401345384073946
 50
263.4242071599936139
 51
270.4782518447868824
  0
LINE
  5
40D98
  8
0
 10
2645.3692921089900665
 20
147.0037833604087041
 30
0.0
 11
2645.3608590612880107
 21
146.0388728667086866
 31
0.0
  0
ARC
  5
40D99
  8
0
 10
2645.3214884640669879
 20
146.0392169547112076
 30
0.0
 40
0.0393721008099768
 50
270.4998896733486049
 51
359.4992636692621204
  0
ENDSEC
  0
EOF
