  0
SECTION
  2
HEADER
  9
$ACADVER
  1
AC1009
  9
$INSBASE
 10
3767.9479407516391802
 20
99.8562022067537356
 30
0.0
  9
$EXTMIN
 10
3758.7813734080059476
 20
99.8562022067537356
 30
0.0
  9
$EXTMAX
 10
3770.6054210666889048
 20
135.7236715185534877
 30
0.0
  9
$LIMMIN
 10
0.0
 20
0.0
  9
$LIMMAX
 10
11.6929133858000007
 20
8.2677165353999982
  9
$ORTHOMODE
 70
     0
  9
$REGENMODE
 70
     1
  9
$FILLMODE
 70
     1
  9
$QTEXTMODE
 70
     0
  9
$MIRRTEXT
 70
     0
  9
$DRAGMODE
 70
     2
  9
$LTSCALE
 40
0.6431102362
  9
$OSMODE
 70
  4095
  9
$ATTMODE
 70
     1
  9
$TEXTSIZE
 40
0.2
  9
$TRACEWID
 40
0.05
  9
$TEXTSTYLE
  7
STANDARD
  9
$CLAYER
  8
0
  9
$CELTYPE
  6
BYLAYER
  9
$CECOLOR
 62
   256
  9
$DIMSCALE
 40
1.0
  9
$DIMASZ
 40
0.1875
  9
$DIMEXO
 40
0.0625
  9
$DIMDLI
 40
0.4443307087
  9
$DIMRND
 40
0.0
  9
$DIMDLE
 40
0.0
  9
$DIMEXE
 40
0.125
  9
$DIMTP
 40
0.01
  9
$DIMTM
 40
0.01
  9
$DIMTXT
 40
2.0
  9
$DIMCEN
 40
0.1052362205
  9
$DIMTSZ
 40
0.0
  9
$DIMTOL
 70
     1
  9
$DIMLIM
 70
     0
  9
$DIMTIH
 70
     1
  9
$DIMTOH
 70
     1
  9
$DIMSE1
 70
     0
  9
$DIMSE2
 70
     0
  9
$DIMTAD
 70
     0
  9
$DIMZIN
 70
     0
  9
$DIMBLK
  1

  9
$DIMASO
 70
     1
  9
$DIMSHO
 70
     1
  9
$DIMPOST
  1
\X
  9
$DIMAPOST
  1

  9
$DIMALT
 70
     1
  9
$DIMALTD
 70
     2
  9
$DIMALTF
 40
25.3999999999999986
  9
$DIMLFAC
 40
1.0
  9
$DIMTOFL
 70
     0
  9
$DIMTVP
 40
0.0
  9
$DIMTIX
 70
     0
  9
$DIMSOXD
 70
     0
  9
$DIMSAH
 70
     0
  9
$DIMBLK1
  1

  9
$DIMBLK2
  1

  9
$DIMSTYLE
  2
STANDARD
  9
$DIMCLRD
 70
     0
  9
$DIMCLRE
 70
     0
  9
$DIMCLRT
 70
     0
  9
$DIMTFAC
 40
1.0
  9
$DIMGAP
 40
0.09
  9
$LUNITS
 70
     2
  9
$LUPREC
 70
     4
  9
$SKETCHINC
 40
0.1
  9
$FILLETRAD
 40
0.0
  9
$AUNITS
 70
     0
  9
$AUPREC
 70
     0
  9
$MENU
  1
.
  9
$ELEVATION
 40
0.0
  9
$PELEVATION
 40
0.0
  9
$THICKNESS
 40
0.0
  9
$LIMCHECK
 70
     0
  9
$BLIPMODE
 70
     0
  9
$CHAMFERA
 40
0.0
  9
$CHAMFERB
 40
0.0
  9
$SKPOLY
 70
     0
  9
$TDCREATE
 40
2458060.468368056230247
  9
$TDUPDATE
 40
2459559.6881828708574176
  9
$TDINDWG
 40
0.3879700231
  9
$TDUSRTIMER
 40
0.3879700231
  9
$USRTIMER
 70
     1
  9
$ANGBASE
 50
0.0
  9
$ANGDIR
 70
     0
  9
$PDMODE
 70
     0
  9
$PDSIZE
 40
0.3125
  9
$PLINEWID
 40
0.0
  9
$COORDS
 70
     1
  9
$SPLFRAME
 70
     0
  9
$SPLINETYPE
 70
     6
  9
$SPLINESEGS
 70
     8
  9
$ATTDIA
 70
     1
  9
$ATTREQ
 70
     1
  9
$HANDLING
 70
     1
  9
$HANDSEED
  5
15449
  9
$SURFTAB1
 70
     6
  9
$SURFTAB2
 70
     6
  9
$SURFTYPE
 70
     6
  9
$SURFU
 70
     6
  9
$SURFV
 70
     6
  9
$UCSNAME
  2

  9
$UCSORG
 10
0.0
 20
0.0
 30
0.0
  9
$UCSXDIR
 10
1.0
 20
0.0
 30
0.0
  9
$UCSYDIR
 10
0.0
 20
1.0
 30
0.0
  9
$PUCSNAME
  2

  9
$PUCSORG
 10
0.0
 20
0.0
 30
0.0
  9
$PUCSXDIR
 10
1.0
 20
0.0
 30
0.0
  9
$PUCSYDIR
 10
0.0
 20
1.0
 30
0.0
  9
$USERI1
 70
     0
  9
$USERI2
 70
     0
  9
$USERI3
 70
     0
  9
$USERI4
 70
     0
  9
$USERI5
 70
     0
  9
$USERR1
 40
0.0
  9
$USERR2
 40
0.0
  9
$USERR3
 40
0.0
  9
$USERR4
 40
0.0
  9
$USERR5
 40
0.0
  9
$WORLDVIEW
 70
     1
  9
$SHADEDGE
 70
     3
  9
$SHADEDIF
 70
    70
  9
$TILEMODE
 70
     1
  9
$MAXACTVP
 70
    64
  9
$PLIMCHECK
 70
     0
  9
$PEXTMIN
 10
1.0000000000000000E+20
 20
1.0000000000000000E+20
 30
1.0000000000000000E+20
  9
$PEXTMAX
 10
-1.0000000000000000E+20
 20
-1.0000000000000000E+20
 30
-1.0000000000000000E+20
  9
$PLIMMIN
 10
0.0
 20
0.0
  9
$PLIMMAX
 10
12.0
 20
9.0
  9
$UNITMODE
 70
     0
  9
$VISRETAIN
 70
     1
  9
$PLINEGEN
 70
     0
  9
$PSLTSCALE
 70
     1
  0
ENDSEC
  0
SECTION
  2
TABLES
  0
TABLE
  2
VPORT
 70
     1
  0
VPORT
  2
*ACTIVE
 70
     0
 10
0.0
 20
0.0
 11
1.0
 21
1.0
 12
-500.3270075166254856
 22
15.5753776197143896
 13
0.0
 23
0.0
 14
1.0
 24
1.0
 15
0.0
 25
0.0
 16
0.0
 26
0.0
 36
122.0237731519760018
 17
4265.00634765625
 27
104.3040122985839986
 37
0.0
 40
40.3574717374257332
 41
2.344785276073619
 42
50.0
 43
0.0
 44
0.0
 50
0.0
 51
0.0
 71
     0
 72
   100
 73
     1
 74
     1
 75
     0
 76
     0
 77
     0
 78
     0
  0
ENDTAB
  0
TABLE
  2
LTYPE
 70
     2
  0
LTYPE
  2
CONTINUOUS
 70
     0
  3
Solid line
 72
    65
 73
     0
 40
0.0
  0
LTYPE
  2
PHANTOM2
 70
     0
  3
___ _ _ ___ _ _ ___ _ _ ___ _ _
 72
    65
 73
     6
 40
1.25
 49
0.625
 49
-0.125
 49
0.125
 49
-0.125
 49
0.125
 49
-0.125
  0
ENDTAB
  0
TABLE
  2
LAYER
 70
     2
  0
LAYER
  2
0
 70
     0
 62
   255
  6
CONTINUOUS
  0
LAYER
  2
DEFPOINTS
 70
     0
 62
     7
  6
CONTINUOUS
  0
ENDTAB
  0
TABLE
  2
STYLE
 70
     1
  0
STYLE
  2
STANDARD
 70
     0
 40
0.0
 41
0.8
 50
0.0
 71
     0
 42
0.2
  3
txt
  4

  0
ENDTAB
  0
TABLE
  2
VIEW
 70
     0
  0
ENDTAB
  0
TABLE
  2
UCS
 70
     0
  0
ENDTAB
  0
TABLE
  2
APPID
 70
     9
  0
APPID
  2
ACAD
 70
     0
  0
APPID
  2
ACAD_MLEADERVER
 70
     0
  0
APPID
  2
ACAD_EXEMPT_FROM_CAD_STANDARDS
 70
     0
  0
APPID
  2
ACAD_NAV_VCDISPLAY
 70
     0
  0
APPID
  2
ACAECLAYERSTANDARD
 70
     0
  0
APPID
  2
ACCMTRANSPARENCY
 70
     0
  0
APPID
  2
ACAD_DSTYLE_DIMJAG
 70
     0
  0
APPID
  2
ACAD_DSTYLE_DIMTALN
 70
     0
  0
APPID
  2
ACDBATTR
 70
     0
  0
ENDTAB
  0
TABLE
  2
DIMSTYLE
 70
     1
  0
DIMSTYLE
  2
STANDARD
 70
     0
  3

  4

  5

  6

  7

 40
1.0
 41
0.1875
 42
0.0625
 43
0.38
 44
0.125
 45
0.0
 46
0.0
 47
0.01
 48
0.01
140
0.15625
141
0.09
142
0.0
143
25.3999999999999986
144
1.0
145
0.0
146
1.0
147
0.09
 71
     1
 72
     0
 73
     1
 74
     1
 75
     0
 76
     0
 77
     0
 78
     4
170
     0
171
     2
172
     0
173
     0
174
     0
175
     0
176
     0
177
     0
178
     0
  0
ENDTAB
  0
ENDSEC
  0
SECTION
  2
BLOCKS
  0
BLOCK
  8
0
  2
$MODEL_SPACE
 70
     0
 10
0.0
 20
0.0
 30
0.0
  3
$MODEL_SPACE
  1

  0
ENDBLK
  5
21
  8
0
  0
BLOCK
 67
     1
  8
0
  2
$PAPER_SPACE
 70
     0
 10
0.0
 20
0.0
 30
0.0
  3
$PAPER_SPACE
  1

  0
ENDBLK
  5
1D
 67
     1
  8
0
  0
ENDSEC
  0
SECTION
  2
ENTITIES
  0
ATTDEF
  5
13C7F
  8
DEFPOINTS
 10
3767.9485473647678191
 20
99.8604899597617219
 30
0.0
 40
0.001
  1
K-73087T-B4
  3

  2
MODELNUMBER
 70
     0
1001
ACDBATTR
1070
     0
1070
     1
  0
ATTDEF
  5
13C80
  8
DEFPOINTS
 10
3767.9485473647678191
 20
99.8588232930950568
 30
0.0
 40
0.001
  1
COMPOSED
  3

  2
TRADENAME
 70
     0
1001
ACDBATTR
1070
     0
1070
     1
  0
ATTDEF
  5
13C81
  8
DEFPOINTS
 10
3767.9485473647678191
 20
99.8571566264283916
 30
0.0
 40
0.001
  1
BATH FILLER
  3

  2
PRODUCT
 70
     0
1001
ACDBATTR
1070
     0
1070
     1
  0
LINE
  5
15209
  8
0
 10
3765.5188068933889554
 20
99.8562022067537356
 30
0.0
 11
3770.3770746098889504
 21
99.8562022067537356
 31
0.0
  0
LINE
  5
1520A
  8
0
 10
3765.5384919327889293
 20
101.0373045689537008
 30
0.0
 11
3770.3573895705890209
 21
101.0373045689537008
 31
0.0
  0
ARC
  5
1520B
  8
0
 10
3765.5384919327889293
 20
101.0058085060536968
 30
0.0
 40
0.0314960630000023
 50
89.9999999999739515
 51
179.9999999999934914
  0
LINE
  5
1520C
  8
0
 10
3765.5069958697890797
 20
101.0058085060536968
 30
0.0
 11
3765.5069958697890797
 21
99.8680132304537551
 31
0.0
  0
LINE
  5
1520D
  8
0
 10
3770.3770746098889504
 20
99.8562022067537356
 30
0.0
 11
3770.3888856335888704
 21
99.8680132304537551
 31
0.0
  0
LINE
  5
1520E
  8
0
 10
3770.3888856335888704
 20
99.8680132304537551
 30
0.0
 11
3770.3888856335888704
 21
101.0058085060536968
 31
0.0
  0
ARC
  5
1520F
  8
0
 10
3770.3573895706890653
 20
101.0058085060536968
 30
0.0
 40
0.031496062899997
 50
0.0000000000056996
 51
90.0000001819167323
  0
LINE
  5
15210
  8
0
 10
3765.5069958697890797
 20
99.8680132304537551
 30
0.0
 11
3765.5188068933889554
 21
99.8562022067537356
 31
0.0
  0
LINE
  5
15211
  8
0
 10
3767.0030588618888032
 20
101.0373045689537008
 30
0.0
 11
3767.0030588618888032
 21
125.2383390061536943
 31
0.0
  0
LINE
  5
15212
  8
0
 10
3767.0030588618888032
 20
126.1908478760536951
 30
0.0
 11
3767.0030588618888032
 21
134.8541424566537046
 31
0.0
  0
LINE
  5
15213
  8
0
 10
3768.8928226413891025
 20
101.0373045689537008
 30
0.0
 11
3768.8928226413891025
 21
125.2383415160251019
 31
0.0
  0
LINE
  5
15214
  8
0
 10
3768.8928226413891025
 20
134.0958493562768012
 30
0.0
 11
3768.8928226413891025
 21
134.7903573068549008
 31
0.0
  0
ARC
  5
15215
  8
0
 10
3767.0345549248891075
 20
125.2383390061536943
 30
0.0
 40
0.0314960629999916
 50
97.1807621973281357
 51
180.0000000000163141
  0
LINE
  5
15216
  8
0
 10
3767.030617913515016
 20
125.2695880369537065
 30
0.0
 11
3768.8652635896892207
 21
125.2695880369537065
 31
0.0
  0
ARC
  5
15217
  8
0
 10
3768.8613265785361364
 20
125.2383390061739021
 30
0.0
 40
0.0314960629522081
 50
0.0045657549875084
 51
82.8192381987675645
  0
LINE
  5
15218
  8
0
 10
3767.0030588618888032
 20
125.2813990571537062
 30
0.0
 11
3768.8928226413891025
 21
125.2813990571537062
 31
0.0
  0
LINE
  5
15219
  8
0
 10
3768.8416415390888687
 20
125.2813990571537062
 30
0.0
 11
3768.8416415390888687
 21
125.2695880369537065
 31
0.0
  0
LINE
  5
1521A
  8
0
 10
3767.0542399653891152
 20
125.2813990571537062
 30
0.0
 11
3767.0542399653891152
 21
125.2695880369537065
 31
0.0
  0
ARC
  5
1521B
  8
0
 10
3767.0345549248891075
 20
126.1908478760536951
 30
0.0
 40
0.0314960629999916
 50
179.9999999999870113
 51
270.0
  0
LINE
  5
1521C
  8
0
 10
3767.0181774220891384
 20
126.1475407894537
 30
0.0
 11
3767.0030588618888032
 21
125.2813990571537062
 31
0.0
  0
LINE
  5
1521D
  8
0
 10
3767.0345549248891075
 20
126.1593518130537035
 30
0.0
 11
3768.8613265784888426
 21
126.1593518130537035
 31
0.0
  0
ARC
  5
1521E
  8
0
 10
3768.8613258143559506
 20
126.1908497207324018
 30
0.0
 40
0.0314979076879023
 50
270.0013899830477726
 51
359.9966444659949047
  0
LINE
  5
1521F
  8
0
 10
3768.8777040812888117
 20
126.1475407894537
 30
0.0
 11
3768.8928226413891025
 21
125.2813990571537062
 31
0.0
  0
LINE
  5
15220
  8
0
 10
3768.8777040812888117
 20
126.1475407894537
 30
0.0
 11
3767.0181774220891384
 21
126.1475407894537
 31
0.0
  0
LINE
  5
15221
  8
0
 10
3767.0542399642890814
 20
126.1593518130537035
 30
0.0
 11
3767.0542399642890814
 21
126.1475407894537
 31
0.0
  0
LINE
  5
15222
  8
0
 10
3768.8416415390888687
 20
126.1593518130537035
 30
0.0
 11
3768.8416415390888687
 21
126.1475407894537
 31
0.0
  0
ARC
  5
15223
  8
0
 10
3768.0283629174427915
 20
132.9257125284163124
 30
0.0
 40
1.022284591076988
 50
160.7115346182324913
 51
179.7033526404838994
  0
ARC
  5
15224
  8
0
 10
3768.081536842163132
 20
132.8433905070936873
 30
0.0
 40
1.1013097844561941
 50
135.8914687668628005
 51
157.5813722727093023
  0
ARC
  5
15225
  8
0
 10
3767.9479407516892024
 20
132.931005356353694
 30
0.0
 40
0.9448818898000348
 50
105.1520309969952933
 51
134.0674072266018015
  0
ARC
  5
15226
  8
0
 10
3767.9479683958388705
 20
132.9305878436487092
 30
0.0
 40
0.9452921172092627
 50
90.001675559467671
 51
105.1470337526762933
  0
ARC
  5
15227
  8
0
 10
3767.034738632878998
 20
134.8539596342417894
 30
0.0
 40
0.0316802985159503
 50
90.2045576257721251
 51
179.6693525238659106
  0
ARC
  5
15228
  8
0
 10
3768.8612228137349121
 20
134.790254047794491
 30
0.0
 40
0.0315999963630786
 50
0.187225300581899
 51
86.8340180237469923
  0
ARC
  5
15229
  8
0
 10
-1300.3669277408600919
 20
-144882.4155034068098757
 30
0.0
 40
145105.8103886097087525
 50
87.9979810018149919
 51
88.0019521856404765
  0
ARC
  5
1522A
  8
0
 10
3758.8126800842101147
 20
135.2041006529321976
 30
0.0
 40
0.0313066762051613
 50
177.6523375964202103
 51
268.3476622795515141
  0
LINE
  5
1522B
  8
0
 10
3758.7813996847908129
 20
135.2053830675039876
 30
0.0
 11
3758.7984538587038514
 21
135.6932740715363082
 31
0.0
  0
ARC
  5
1522C
  8
0
 10
3758.8299328506741404
 20
135.6921732858509131
 30
0.0
 40
0.0314982327209315
 50
90.0019557362017082
 51
177.9972457555201117
  0
ARC
  5
1522D
  8
0
 10
3454.4393697737500588
 20
-8725.1429413223013398
 30
0.0
 40
8866.0933192017291731
 50
87.9676570559266366
 51
88.0325356592621944
  0
ARC
  5
1522E
  8
0
 10
3768.8621766207152177
 20
135.3418081576604948
 30
0.0
 40
0.0315273331153962
 50
359.9018681195198042
 51
87.9677595420140364
  0
LINE
  5
1522F
  8
0
 10
3768.8937039075890425
 20
135.3417541600537106
 30
0.0
 11
3768.8924350854849763
 21
134.853314644522186
 31
0.0
  0
ARC
  5
15230
  8
0
 10
3768.8606664453118356
 20
134.8536713981808077
 30
0.0
 40
0.0317706432365753
 50
269.0058742663997009
 51
359.356610176323386
  0
LINE
  5
15231
  8
0
 10
3768.499121853988072
 20
135.5963596871536936
 30
0.0
 11
3768.499121853988072
 21
135.3862305837355962
 31
0.0
  0
LINE
  5
15232
  8
0
 10
3767.3967596492889243
 20
135.5963596871536936
 30
0.0
 11
3767.3967596492889243
 21
135.4252336865355915
 31
0.0
  0
LINE
  5
15233
  8
0
 10
3759.2524536346891182
 20
135.1574182398537118
 30
0.0
 11
3759.2513544379889936
 21
135.1259413633536894
 31
0.0
  0
LINE
  5
15234
  8
0
 10
3759.2513544379889936
 20
135.1259413633536894
 30
0.0
 11
3760.1169685400891467
 21
135.0957134528536869
 31
0.0
  0
LINE
  5
15235
  8
0
 10
3760.1169685400891467
 20
135.0957134528536869
 30
0.0
 11
3760.1180677368338365
 21
135.1271903292752086
 31
0.0
  0
LINE
  5
15236
  8
0
 10
3760.050866772217887
 20
135.0980209661788081
 30
0.0
 11
3760.0371765951049383
 21
135.0669833919760094
 31
0.0
  0
LINE
  5
15237
  8
0
 10
3760.0371765951049383
 20
135.0669833919760094
 30
0.0
 11
3759.3289479061058955
 21
135.0917152827414895
 31
0.0
  0
LINE
  5
15238
  8
0
 10
3759.3289479061058955
 20
135.0917152827414895
 30
0.0
 11
3759.3174561492778594
 21
135.1236322294928129
 31
0.0
  0
ARC
  5
15239
  8
0
 10
3759.5502847041097993
 20
135.1425402753303047
 30
0.0
 40
0.1968323278543796
 50
195.2956053377810974
 51
219.8612897051876018
  0
LINE
  5
1523A
  8
0
 10
3759.3991965331888423
 20
135.0163843008537015
 30
0.0
 11
3759.9618438615270861
 21
134.9967362090536938
 31
0.0
  0
ARC
  5
1523B
  8
0
 10
3759.8199559256390785
 20
135.1331056384447891
 30
0.0
 40
0.1967963607973157
 50
316.1361628698210211
 51
340.7065935683289126
  0
ARC
  5
1523C
  8
0
 10
3769.6361793292940092
 20
134.1365588012201044
 30
0.0
 40
0.74447056648355
 50
183.1346348268023974
 51
197.2443342200330108
  0
ARC
  5
1523D
  8
0
 10
3769.0936139574469053
 20
133.9681465987275999
 30
0.0
 40
0.1763685926484891
 50
197.2443342200330108
 51
230.2325867620207021
  0
ARC
  5
1523E
  8
0
 10
3769.0450861258868827
 20
133.9307140811365002
 30
0.0
 40
0.1173170231413355
 50
236.7697356469464864
 51
265.9354312632901269
  0
ARC
  5
1523F
  8
0
 10
3769.0860314470619414
 20
134.284463691985394
 30
0.0
 40
0.4733418315487374
 50
264.0263949960742025
 51
268.4152783171757051
  0
ARC
  5
15240
  8
0
 10
3767.9202126065779339
 20
132.9235269825479122
 30
0.0
 40
0.9696833968513944
 50
0.4418732454089858
 51
44.9120653756946027
  0
ARC
  5
15241
  8
0
 10
3767.9676312348460669
 20
132.9664568693241051
 30
0.0
 40
0.9057977759116665
 50
45.1066344727298585
 51
76.7566418597210856
  0
ARC
  5
15242
  8
0
 10
3767.9479106572748606
 20
132.9305102512018095
 30
0.0
 40
0.9453697097309305
 50
76.0923042024076182
 51
89.9981760755791527
  0
ARC
  5
15243
  8
0
 10
3769.8164716241471979
 20
132.0107344800383089
 30
0.0
 40
0.9288033858853573
 50
164.517015914044805
 51
173.9603532820524947
  0
ARC
  5
15244
  8
0
 10
3769.1102439364231032
 20
132.2107467128606118
 30
0.0
 40
0.1948569608953428
 50
130.6379667669785931
 51
165.759351379121
  0
ARC
  5
15245
  8
0
 10
3769.0481436520058196
 20
132.2668920761180971
 30
0.0
 40
0.1123045092980884
 50
92.5954882977930254
 51
125.2435058279582023
  0
ARC
  5
15246
  8
0
 10
3769.0693060634180256
 20
131.9274542469568985
 30
0.0
 40
0.4523892395799156
 50
89.5396558396450075
 51
93.326222558814834
  0
LINE
  5
15247
  8
0
 10
3769.0729407552889825
 20
132.3798288849536959
 30
0.0
 11
3770.5739250036881458
 21
132.3798242540536876
 31
0.0
  0
ARC
  5
15248
  8
0
 10
3770.5739250036881458
 20
132.4113203170537076
 30
0.0
 40
0.0314960630000005
 50
269.9999989526108948
 51
359.9999999999968168
  0
LINE
  5
15249
  8
0
 10
3770.6054210666889048
 20
132.4113203170537076
 30
0.0
 11
3770.6054210666889048
 21
133.7273615905536985
 31
0.0
  0
ARC
  5
1524A
  8
0
 10
3770.5739249866460341
 20
133.7273615905536985
 30
0.0
 40
0.0314960800438087
 50
359.9999999999959073
 51
87.9969166588944631
  0
LINE
  5
1524B
  8
0
 10
3770.5750258778971329
 20
133.7588384248383022
 30
0.0
 11
3769.0729411385891581
 21
133.8113029018537077
 31
0.0
  0
LINE
  5
1524C
  8
0
 10
3769.5817990193891092
 20
133.7935296285538129
 30
0.0
 11
3769.5817990193891092
 21
133.797147088653702
 31
0.0
  0
LINE
  5
1524D
  8
0
 10
3769.5817990193891092
 20
133.797147088653702
 30
0.0
 11
3769.6014840587890831
 21
133.8168321280537043
 31
0.0
  0
LINE
  5
1524E
  8
0
 10
3769.6014840587890831
 20
133.8168321280537043
 30
0.0
 11
3770.231405318589168
 21
133.8168321280537043
 31
0.0
  0
LINE
  5
1524F
  8
0
 10
3770.231405318589168
 20
133.8168321280537043
 30
0.0
 11
3770.2510903579891419
 21
133.797147088653702
 31
0.0
  0
LINE
  5
15250
  8
0
 10
3770.2510903579891419
 20
133.797147088653702
 30
0.0
 11
3770.2510903579891419
 21
133.7701527716218095
 31
0.0
  0
LINE
  5
15251
  8
0
 10
3770.2510903579891419
 20
133.797147088653702
 30
0.0
 11
3769.5817990193891092
 21
133.797147088653702
 31
0.0
  0
LINE
  5
15252
  8
0
 10
3769.6172320902887805
 20
133.9821864587536879
 30
0.0
 11
3770.2156572870890159
 21
133.9821864587536879
 31
0.0
  0
ARC
  5
15253
  8
0
 10
3770.2156572870890159
 20
133.9920289784537033
 30
0.0
 40
0.0098425197000029
 50
270.0
 51
359.9999999999797069
  0
LINE
  5
15254
  8
0
 10
3770.2254998067887755
 20
133.9920289784537033
 30
0.0
 11
3770.2254998067887755
 21
134.2085644115537093
 31
0.0
  0
ARC
  5
15255
  8
0
 10
3770.2353423264889898
 20
134.2085644115537093
 30
0.0
 40
0.0098425197000012
 50
90.0000000004950493
 51
179.9999999999585043
  0
LINE
  5
15256
  8
0
 10
3770.2432163421890436
 20
134.2184069311537087
 30
0.0
 11
3769.589673035089163
 21
134.2184069312536963
 31
0.0
  0
ARC
  5
15257
  8
0
 10
3769.589673035090982
 20
134.2282494509551896
 30
0.0
 40
0.0098425197015075
 50
180.0000005909045058
 51
269.9999999912454882
  0
LINE
  5
15258
  8
0
 10
3769.5798305153889487
 20
134.2282494508536956
 30
0.0
 11
3769.5798305140688171
 21
134.356202206753693
 31
0.0
  0
ARC
  5
15259
  8
0
 10
3769.5995155532668832
 20
134.3562022069567092
 30
0.0
 40
0.0196850391969861
 50
89.999995277147633
 51
180.00000059090371
  0
LINE
  5
1525A
  8
0
 10
3769.599515554888967
 20
134.3758872461536953
 30
0.0
 11
3770.2333738224888293
 21
134.3758871939052142
 31
0.0
  0
ARC
  5
1525B
  8
0
 10
3770.2333738208672003
 20
134.3562021528825028
 30
0.0
 40
0.0196850410227008
 50
0.0001567988412495
 51
89.999995277147633
  0
LINE
  5
1525C
  8
0
 10
3770.2530588618888032
 20
134.356202206753693
 30
0.0
 11
3770.2530592120519941
 21
134.2282494508542072
 31
0.0
  0
ARC
  5
1525D
  8
0
 10
3770.2432167192791894
 20
134.2282494239186974
 30
0.0
 40
0.0098424927721878
 50
269.9978048552508767
 51
0.0001567988485775
  0
ARC
  5
1525E
  8
0
 10
3769.5975470508888066
 20
134.2085644115537093
 30
0.0
 40
0.0098425197000047
 50
0.0000000000203555
 51
90.0
  0
LINE
  5
1525F
  8
0
 10
3769.6073895705890209
 20
134.2085644115537093
 30
0.0
 11
3769.6073895705899304
 21
133.9920289784537033
 31
0.0
  0
ARC
  5
15260
  8
0
 10
3769.6172320902887805
 20
133.9920289784537033
 30
0.0
 40
0.0098425197000012
 50
180.0000000000308944
 51
269.9999999995570761
  0
LINE
  5
15261
  8
0
 10
3769.6506966571892008
 20
133.9821864587536879
 30
0.0
 11
3769.6506966571892008
 21
133.8168321280537043
 31
0.0
  0
LINE
  5
15262
  8
0
 10
3770.1821927201881408
 20
133.9821864587536879
 30
0.0
 11
3770.1821927201881408
 21
133.8168321280537043
 31
0.0
  0
LINE
  5
15263
  8
0
 10
3769.3652635862890747
 20
132.3798242540536876
 30
0.0
 11
3769.3652635862890747
 21
132.0766746477536913
 31
0.0
  0
LINE
  5
15264
  8
0
 10
3769.3652635862890747
 20
132.0766746477536913
 30
0.0
 11
3769.4636887831888998
 21
131.9782494508536956
 31
0.0
  0
LINE
  5
15265
  8
0
 10
3769.4636887831888998
 20
131.9782494508536956
 30
0.0
 11
3770.3692005941888965
 21
131.9782494508536956
 31
0.0
  0
LINE
  5
15266
  8
0
 10
3770.3692005941888965
 20
131.9782494508536956
 30
0.0
 11
3770.4676257910891763
 21
132.0766746477536913
 31
0.0
  0
LINE
  5
15267
  8
0
 10
3770.4676257910891763
 20
132.0766746477536913
 30
0.0
 11
3770.4676257910891763
 21
132.3798245820125032
 31
0.0
  0
LINE
  5
15268
  8
0
 10
3769.4640332895892243
 20
131.8962722881537104
 30
0.0
 11
3769.4640332895892243
 21
131.5273750560536996
 31
0.0
  0
LINE
  5
15269
  8
0
 10
3769.4640332895892243
 20
131.5273750560536996
 30
0.0
 11
3770.3688560876889824
 21
131.5273750560536996
 31
0.0
  0
LINE
  5
1526A
  8
0
 10
3770.3688560876889824
 20
131.5273750560536996
 30
0.0
 11
3770.3688560876889824
 21
131.8962722881537104
 31
0.0
  0
LINE
  5
1526B
  8
0
 10
3770.3688560876889824
 20
131.8962722881537104
 30
0.0
 11
3769.4640332895892243
 21
131.8962722881537104
 31
0.0
  0
LINE
  5
1526C
  8
0
 10
3769.4659632626890016
 20
131.8962722881537104
 30
0.0
 11
3769.4659632626890016
 21
131.5273750560536996
 31
0.0
  0
LINE
  5
1526D
  8
0
 10
3769.4709089897892227
 20
131.8962722881537104
 30
0.0
 11
3769.4709089897892227
 21
131.5273750560536996
 31
0.0
  0
LINE
  5
1526E
  8
0
 10
3769.4776137926892261
 20
131.8962722881537104
 30
0.0
 11
3769.4776137926892261
 21
131.5273750560536996
 31
0.0
  0
LINE
  5
1526F
  8
0
 10
3769.4864565355887862
 20
131.8962722881537104
 30
0.0
 11
3769.4864565355887862
 21
131.5273750560536996
 31
0.0
  0
LINE
  5
15270
  8
0
 10
3769.4973941375887989
 20
131.8962722881537104
 30
0.0
 11
3769.4973941375887989
 21
131.5273750560536996
 31
0.0
  0
LINE
  5
15271
  8
0
 10
3769.5103733116889089
 20
131.8962722881537104
 30
0.0
 11
3769.5103733116889089
 21
131.5273750560536996
 31
0.0
  0
LINE
  5
15272
  8
0
 10
3769.5233623207891469
 20
131.8962722881537104
 30
0.0
 11
3769.5233623207891469
 21
131.5273750560536996
 31
0.0
  0
LINE
  5
15273
  8
0
 10
3769.5399922583887928
 20
131.8962722881537104
 30
0.0
 11
3769.5399922583887928
 21
131.5273750560536996
 31
0.0
  0
LINE
  5
15274
  8
0
 10
3769.5608800983891342
 20
131.8962722881537104
 30
0.0
 11
3769.5608800983891342
 21
131.5273750560536996
 31
0.0
  0
LINE
  5
15275
  8
0
 10
3769.5812986664891469
 20
131.8962722881537104
 30
0.0
 11
3769.5812986664891469
 21
131.5273750560536996
 31
0.0
  0
LINE
  5
15276
  8
0
 10
3769.9164446886888982
 20
131.5273750560536996
 30
0.0
 11
3769.9164446886888982
 21
131.8962722881537104
 31
0.0
  0
LINE
  5
15277
  8
0
 10
3769.9022478920887806
 20
131.8962722881537104
 30
0.0
 11
3769.9022478920887806
 21
131.5273750560536996
 31
0.0
  0
LINE
  5
15278
  8
0
 10
3769.8868257419890142
 20
131.8962722881537104
 30
0.0
 11
3769.8868257419890142
 21
131.5273750560536996
 31
0.0
  0
LINE
  5
15279
  8
0
 10
3769.8719545730891696
 20
131.8962722881537104
 30
0.0
 11
3769.8719545730891696
 21
131.5273750560536996
 31
0.0
  0
LINE
  5
1527A
  8
0
 10
3769.8553825918888833
 20
131.8962722881537104
 30
0.0
 11
3769.8553825918888833
 21
131.5273750560536996
 31
0.0
  0
LINE
  5
1527B
  8
0
 10
3769.8418780055890238
 20
131.8962722881537104
 30
0.0
 11
3769.8418780055890238
 21
131.5273750560536996
 31
0.0
  0
LINE
  5
1527C
  8
0
 10
3769.8242369301888175
 20
131.8962722881537104
 30
0.0
 11
3769.8242369301888175
 21
131.5273750560536996
 31
0.0
  0
LINE
  5
1527D
  8
0
 10
3769.8121647193888748
 20
131.8962722881537104
 30
0.0
 11
3769.8121647193888748
 21
131.5273750560536996
 31
0.0
  0
LINE
  5
1527E
  8
0
 10
3769.7935404954891965
 20
131.8962722881537104
 30
0.0
 11
3769.7935404954891965
 21
131.5273750560536996
 31
0.0
  0
LINE
  5
1527F
  8
0
 10
3769.7829594747890951
 20
131.8962722881537104
 30
0.0
 11
3769.7829594747890951
 21
131.5273750560536996
 31
0.0
  0
LINE
  5
15280
  8
0
 10
3769.763442837589082
 20
131.8962722881537104
 30
0.0
 11
3769.763442837589082
 21
131.5273750560536996
 31
0.0
  0
LINE
  5
15281
  8
0
 10
3769.7340905893888703
 20
131.8962722881537104
 30
0.0
 11
3769.7340905893888703
 21
131.5273750560536996
 31
0.0
  0
LINE
  5
15282
  8
0
 10
3769.7056267519888024
 20
131.8962722881537104
 30
0.0
 11
3769.7056267519888024
 21
131.5273750560536996
 31
0.0
  0
LINE
  5
15283
  8
0
 10
3769.6781899983889161
 20
131.8962722881537104
 30
0.0
 11
3769.6781899983889161
 21
131.5273750560536996
 31
0.0
  0
LINE
  5
15284
  8
0
 10
3769.6519139976890074
 20
131.8962722881537104
 30
0.0
 11
3769.6519139976890074
 21
131.5273750560536996
 31
0.0
  0
LINE
  5
15285
  8
0
 10
3769.6269267638890597
 20
131.8962722881537104
 30
0.0
 11
3769.6269267638890597
 21
131.5273750560536996
 31
0.0
  0
LINE
  5
15286
  8
0
 10
3769.6033500323887893
 20
131.8962722881537104
 30
0.0
 11
3769.6033500323887893
 21
131.5273750560536996
 31
0.0
  0
LINE
  5
15287
  8
0
 10
3769.4814446886889527
 20
131.9782494508536956
 30
0.0
 11
3769.4814446886889527
 21
131.8962722881537104
 31
0.0
  0
LINE
  5
15288
  8
0
 10
3769.4814446886889527
 20
131.5273750560536996
 30
0.0
 11
3769.4814446886889527
 21
131.445397893353686
 31
0.0
  0
LINE
  5
15289
  8
0
 10
3769.4814446886889527
 20
131.445397893353686
 30
0.0
 11
3770.3514446886888436
 21
131.445397893353686
 31
0.0
  0
LINE
  5
1528A
  8
0
 10
3770.3514446886888436
 20
131.445397893353686
 30
0.0
 11
3770.3514446886888436
 21
131.5273750560536996
 31
0.0
  0
LINE
  5
1528B
  8
0
 10
3770.3514446886888436
 20
131.9782494508536956
 30
0.0
 11
3770.3514446886888436
 21
131.8962722881537104
 31
0.0
  0
LINE
  5
1528C
  8
0
 10
3770.3688560877890268
 20
131.8962722881537104
 30
0.0
 11
3770.3688560877890268
 21
131.5273750560536996
 31
0.0
  0
LINE
  5
1528D
  8
0
 10
3770.3669261146887948
 20
131.8962722881537104
 30
0.0
 11
3770.3669261146887948
 21
131.5273750560536996
 31
0.0
  0
LINE
  5
1528E
  8
0
 10
3770.3619803875890284
 20
131.8962722881537104
 30
0.0
 11
3770.3619803875890284
 21
131.5273750560536996
 31
0.0
  0
LINE
  5
1528F
  8
0
 10
3770.355275584689025
 20
131.8962722881537104
 30
0.0
 11
3770.355275584689025
 21
131.5273750560536996
 31
0.0
  0
LINE
  5
15290
  8
0
 10
3770.3464328417890101
 20
131.8962722881537104
 30
0.0
 11
3770.3464328417890101
 21
131.5273750560536996
 31
0.0
  0
LINE
  5
15291
  8
0
 10
3770.3354952397889974
 20
131.8962722881537104
 30
0.0
 11
3770.3354952397889974
 21
131.5273750560536996
 31
0.0
  0
LINE
  5
15292
  8
0
 10
3770.3225160656888875
 20
131.8962722881537104
 30
0.0
 11
3770.3225160656888875
 21
131.5273750560536996
 31
0.0
  0
LINE
  5
15293
  8
0
 10
3770.3095270565891042
 20
131.8962722881537104
 30
0.0
 11
3770.3095270565891042
 21
131.5273750560536996
 31
0.0
  0
LINE
  5
15294
  8
0
 10
3770.292897118988094
 20
131.8962722881537104
 30
0.0
 11
3770.292897118988094
 21
131.5273750560536996
 31
0.0
  0
LINE
  5
15295
  8
0
 10
3770.2720092789891169
 20
131.8962722881537104
 30
0.0
 11
3770.2720092789891169
 21
131.5273750560536996
 31
0.0
  0
LINE
  5
15296
  8
0
 10
3770.2515907108891042
 20
131.8962722881537104
 30
0.0
 11
3770.2515907108891042
 21
131.5273750560536996
 31
0.0
  0
LINE
  5
15297
  8
0
 10
3769.9306414852881062
 20
131.8962722881537104
 30
0.0
 11
3769.9306414852881062
 21
131.5273750560536996
 31
0.0
  0
LINE
  5
15298
  8
0
 10
3769.9460636353887821
 20
131.8962722881537104
 30
0.0
 11
3769.9460636353887821
 21
131.5273750560536996
 31
0.0
  0
LINE
  5
15299
  8
0
 10
3769.960934804288172
 20
131.8962722881537104
 30
0.0
 11
3769.960934804288172
 21
131.5273750560536996
 31
0.0
  0
LINE
  5
1529A
  8
0
 10
3769.977506785488913
 20
131.8962722881537104
 30
0.0
 11
3769.977506785488913
 21
131.5273750560536996
 31
0.0
  0
LINE
  5
1529B
  8
0
 10
3769.9910113717892273
 20
131.8962722881537104
 30
0.0
 11
3769.9910113717892273
 21
131.5273750560536996
 31
0.0
  0
LINE
  5
1529C
  8
0
 10
3770.0086524471880693
 20
131.8962722881537104
 30
0.0
 11
3770.0086524471880693
 21
131.5273750560536996
 31
0.0
  0
LINE
  5
1529D
  8
0
 10
3770.0207246579889215
 20
131.8962722881537104
 30
0.0
 11
3770.0207246579889215
 21
131.5273750560536996
 31
0.0
  0
LINE
  5
1529E
  8
0
 10
3770.0393488818890546
 20
131.8962722881537104
 30
0.0
 11
3770.0393488818890546
 21
131.5273750560536996
 31
0.0
  0
LINE
  5
1529F
  8
0
 10
3770.049929902589156
 20
131.8962722881537104
 30
0.0
 11
3770.049929902589156
 21
131.5273750560536996
 31
0.0
  0
LINE
  5
152A0
  8
0
 10
3770.069446539789169
 20
131.8962722881537104
 30
0.0
 11
3770.069446539789169
 21
131.5273750560536996
 31
0.0
  0
LINE
  5
152A1
  8
0
 10
3770.0987987879889261
 20
131.8962722881537104
 30
0.0
 11
3770.0987987879889261
 21
131.5273750560536996
 31
0.0
  0
LINE
  5
152A2
  8
0
 10
3770.1272626253889939
 20
131.8962722881537104
 30
0.0
 11
3770.1272626253889939
 21
131.5273750560536996
 31
0.0
  0
LINE
  5
152A3
  8
0
 10
3770.1546993789888802
 20
131.8962722881537104
 30
0.0
 11
3770.1546993789888802
 21
131.5273750560536996
 31
0.0
  0
LINE
  5
152A4
  8
0
 10
3770.180975379688789
 20
131.8962722881537104
 30
0.0
 11
3770.180975379688789
 21
131.5273750560536996
 31
0.0
  0
LINE
  5
152A5
  8
0
 10
3770.2059626134891914
 20
131.8962722881537104
 30
0.0
 11
3770.2059626134891914
 21
131.5273750560536996
 31
0.0
  0
LINE
  5
152A6
  8
0
 10
3770.2295393449890071
 20
131.8962722881537104
 30
0.0
 11
3770.2295393449890071
 21
131.5273750560536996
 31
0.0
  0
LINE
  5
152A7
  8
0
 10
3769.6218215946892087
 20
131.445397893353686
 30
0.0
 11
3769.6218215946892087
 21
130.830569173253707
 31
0.0
  0
LINE
  5
152A8
  8
0
 10
3769.6218215946892087
 20
130.830569173253707
 30
0.0
 11
3770.2110677826890424
 21
130.830569173253707
 31
0.0
  0
LINE
  5
152A9
  8
0
 10
3770.2110677826890424
 20
130.830569173253707
 30
0.0
 11
3770.2110677826890424
 21
131.445397893353686
 31
0.0
  0
LINE
  5
152AA
  8
0
 10
3769.6408541374889865
 20
130.830569173253707
 30
0.0
 11
3769.6408541374889865
 21
103.8685208299998948
 31
0.0
  0
LINE
  5
152AB
  8
0
 10
3770.1920352398888099
 20
130.830569173253707
 30
0.0
 11
3770.1920352398888099
 21
103.9099624897247054
 31
0.0
  0
ARC
  5
152AC
  8
0
 10
3769.1356775625718001
 20
104.1864476321895978
 30
0.0
 40
1.4918878081927069
 50
260.6314945243171906
 51
268.7585802435334017
  0
ARC
  5
152AD
  8
0
 10
3768.9888761829929535
 20
104.2728907071153941
 30
0.0
 40
1.582127887965652
 50
274.1494259534425737
 51
294.2668749769218266
  0
ARC
  5
152AE
  8
0
 10
3769.0869426808772005
 20
103.7577807136815977
 30
0.0
 40
1.0791809654558291
 50
300.7741157570512769
 51
344.9051176770100255
  0
ARC
  5
152AF
  8
0
 10
3768.5478797169630525
 20
103.9284081903392973
 30
0.0
 40
1.6442589903782889
 50
344.0562989189181167
 51
359.35722841091291
  0
ARC
  5
152B0
  8
0
 10
3768.7145550157251819
 20
103.9076839985910965
 30
0.0
 40
0.9271266454774361
 50
335.2020532370831916
 51
357.5790231803068195
  0
ARC
  5
152B1
  8
0
 10
3769.1283378101938979
 20
103.7165074993305041
 30
0.0
 40
0.4713145626322168
 50
301.9122446970866918
 51
335.2020532370831916
  0
ARC
  5
152B2
  8
0
 10
3769.1371462189599697
 20
103.7023629376983962
 30
0.0
 40
0.4546515290320026
 50
276.5655166126738891
 51
301.9122446970866918
  0
ARC
  5
152B3
  8
0
 10
3769.1094695761880757
 20
103.9428326625870938
 30
0.0
 40
0.6967087229824919
 50
262.1957919402327093
 51
276.5655166126738891
  0
ARC
  5
152B4
  8
0
 10
3769.1029512511481698
 20
103.8952737071666945
 30
0.0
 40
0.6487051522610394
 50
251.0998402045665898
 51
262.1957919402327093
  0
LINE
  5
152B5
  8
0
 10
3767.0060920278660888
 20
132.9310052700201084
 30
0.0
 11
3767.0060920278660888
 21
131.1596215759537074
 31
0.0
  0
ARC
  5
152B6
  8
0
 10
3767.202936680176208
 20
131.1596181311332998
 30
0.0
 40
0.1968405505875093
 50
180.0001853466939963
 51
269.9994873588208861
  0
LINE
  5
152B7
  8
0
 10
3767.2029349189888308
 20
130.9627775805537055
 30
0.0
 11
3768.6929465792891278
 21
130.9627775805537055
 31
0.0
  0
ARC
  5
152B8
  8
0
 10
3768.6928918702737974
 20
131.159675185267389
 30
0.0
 40
0.1968976123143027
 50
270.0159199273937247
 51
359.984398622722324
  0
LINE
  5
152B9
  8
0
 10
3768.8897894752881257
 20
131.1596215709537034
 30
0.0
 11
3768.8898671665688198
 21
132.9310052454461868
 31
0.0
  0
LINE
  5
152BA
  8
0
 10
3768.8928237219911352
 20
132.1084600267159033
 30
0.0
 11
3768.8928237219911352
 21
126.1908478760362016
 31
0.0
  0
LINE
  5
152BB
  8
0
 10
3767.3967596492889243
 20
135.5963596871536936
 30
0.0
 11
3768.499121853988072
 21
135.5963596871536936
 31
0.0
  0
ENDSEC
  0
EOF
