  0
SECTION
  2
HEADER
  9
$ACADVER
  1
AC1009
  9
$INSBASE
 10
3745.7785779151640781
 20
155.5642258968748877
 30
0.0
  9
$EXTMIN
 10
3741.0935385451139155
 20
155.5642258968748877
 30
0.0
  9
$EXTMAX
 10
3749.4813338207140987
 20
191.4316952086749097
 30
0.0
  9
$LIMMIN
 10
0.0
 20
0.0
  9
$LIMMAX
 10
11.6929133858000007
 20
8.2677165353999982
  9
$ORTHOMODE
 70
     0
  9
$REGENMODE
 70
     1
  9
$FILLMODE
 70
     1
  9
$QTEXTMODE
 70
     0
  9
$MIRRTEXT
 70
     0
  9
$DRAGMODE
 70
     2
  9
$LTSCALE
 40
0.6431102362
  9
$OSMODE
 70
  4095
  9
$ATTMODE
 70
     1
  9
$TEXTSIZE
 40
0.2
  9
$TRACEWID
 40
0.05
  9
$TEXTSTYLE
  7
STANDARD
  9
$CLAYER
  8
0
  9
$CELTYPE
  6
BYLAYER
  9
$CECOLOR
 62
   256
  9
$DIMSCALE
 40
1.0
  9
$DIMASZ
 40
0.1875
  9
$DIMEXO
 40
0.0625
  9
$DIMDLI
 40
0.4443307087
  9
$DIMRND
 40
0.0
  9
$DIMDLE
 40
0.0
  9
$DIMEXE
 40
0.125
  9
$DIMTP
 40
0.01
  9
$DIMTM
 40
0.01
  9
$DIMTXT
 40
2.0
  9
$DIMCEN
 40
0.1052362205
  9
$DIMTSZ
 40
0.0
  9
$DIMTOL
 70
     1
  9
$DIMLIM
 70
     0
  9
$DIMTIH
 70
     1
  9
$DIMTOH
 70
     1
  9
$DIMSE1
 70
     0
  9
$DIMSE2
 70
     0
  9
$DIMTAD
 70
     0
  9
$DIMZIN
 70
     0
  9
$DIMBLK
  1

  9
$DIMASO
 70
     1
  9
$DIMSHO
 70
     1
  9
$DIMPOST
  1
\X
  9
$DIMAPOST
  1

  9
$DIMALT
 70
     1
  9
$DIMALTD
 70
     2
  9
$DIMALTF
 40
25.3999999999999986
  9
$DIMLFAC
 40
1.0
  9
$DIMTOFL
 70
     0
  9
$DIMTVP
 40
0.0
  9
$DIMTIX
 70
     0
  9
$DIMSOXD
 70
     0
  9
$DIMSAH
 70
     0
  9
$DIMBLK1
  1

  9
$DIMBLK2
  1

  9
$DIMSTYLE
  2
STANDARD
  9
$DIMCLRD
 70
     0
  9
$DIMCLRE
 70
     0
  9
$DIMCLRT
 70
     0
  9
$DIMTFAC
 40
1.0
  9
$DIMGAP
 40
0.09
  9
$LUNITS
 70
     2
  9
$LUPREC
 70
     4
  9
$SKETCHINC
 40
0.1
  9
$FILLETRAD
 40
0.0
  9
$AUNITS
 70
     0
  9
$AUPREC
 70
     0
  9
$MENU
  1
.
  9
$ELEVATION
 40
0.0
  9
$PELEVATION
 40
0.0
  9
$THICKNESS
 40
0.0
  9
$LIMCHECK
 70
     0
  9
$BLIPMODE
 70
     0
  9
$CHAMFERA
 40
0.0
  9
$CHAMFERB
 40
0.0
  9
$SKPOLY
 70
     0
  9
$TDCREATE
 40
2458060.468368056230247
  9
$TDUPDATE
 40
2459559.6888657407835126
  9
$TDINDWG
 40
0.391384375
  9
$TDUSRTIMER
 40
0.391384375
  9
$USRTIMER
 70
     1
  9
$ANGBASE
 50
0.0
  9
$ANGDIR
 70
     0
  9
$PDMODE
 70
     0
  9
$PDSIZE
 40
0.3125
  9
$PLINEWID
 40
0.0
  9
$COORDS
 70
     1
  9
$SPLFRAME
 70
     0
  9
$SPLINETYPE
 70
     6
  9
$SPLINESEGS
 70
     8
  9
$ATTDIA
 70
     1
  9
$ATTREQ
 70
     1
  9
$HANDLING
 70
     1
  9
$HANDSEED
  5
16B09
  9
$SURFTAB1
 70
     6
  9
$SURFTAB2
 70
     6
  9
$SURFTYPE
 70
     6
  9
$SURFU
 70
     6
  9
$SURFV
 70
     6
  9
$UCSNAME
  2

  9
$UCSORG
 10
0.0
 20
0.0
 30
0.0
  9
$UCSXDIR
 10
1.0
 20
0.0
 30
0.0
  9
$UCSYDIR
 10
0.0
 20
1.0
 30
0.0
  9
$PUCSNAME
  2

  9
$PUCSORG
 10
0.0
 20
0.0
 30
0.0
  9
$PUCSXDIR
 10
1.0
 20
0.0
 30
0.0
  9
$PUCSYDIR
 10
0.0
 20
1.0
 30
0.0
  9
$USERI1
 70
     0
  9
$USERI2
 70
     0
  9
$USERI3
 70
     0
  9
$USERI4
 70
     0
  9
$USERI5
 70
     0
  9
$USERR1
 40
0.0
  9
$USERR2
 40
0.0
  9
$USERR3
 40
0.0
  9
$USERR4
 40
0.0
  9
$USERR5
 40
0.0
  9
$WORLDVIEW
 70
     1
  9
$SHADEDGE
 70
     3
  9
$SHADEDIF
 70
    70
  9
$TILEMODE
 70
     1
  9
$MAXACTVP
 70
    64
  9
$PLIMCHECK
 70
     0
  9
$PEXTMIN
 10
1.0000000000000000E+20
 20
1.0000000000000000E+20
 30
1.0000000000000000E+20
  9
$PEXTMAX
 10
-1.0000000000000000E+20
 20
-1.0000000000000000E+20
 30
-1.0000000000000000E+20
  9
$PLIMMIN
 10
0.0
 20
0.0
  9
$PLIMMAX
 10
12.0
 20
9.0
  9
$UNITMODE
 70
     0
  9
$VISRETAIN
 70
     1
  9
$PLINEGEN
 70
     0
  9
$PSLTSCALE
 70
     1
  0
ENDSEC
  0
SECTION
  2
TABLES
  0
TABLE
  2
VPORT
 70
     1
  0
VPORT
  2
*ACTIVE
 70
     0
 10
0.0
 20
0.0
 11
1.0
 21
1.0
 12
-519.7015186959288258
 22
72.0010217304496649
 13
0.0
 23
0.0
 14
1.0
 24
1.0
 15
0.0
 25
0.0
 16
0.0
 26
0.0
 36
122.0237731519760018
 17
4265.00634765625
 27
104.3040122985839986
 37
0.0
 40
40.3705395163562031
 41
2.344785276073619
 42
50.0
 43
0.0
 44
0.0
 50
0.0
 51
0.0
 71
     0
 72
   100
 73
     1
 74
     1
 75
     0
 76
     0
 77
     0
 78
     0
  0
ENDTAB
  0
TABLE
  2
LTYPE
 70
     2
  0
LTYPE
  2
CONTINUOUS
 70
     0
  3
Solid line
 72
    65
 73
     0
 40
0.0
  0
LTYPE
  2
PHANTOM2
 70
     0
  3
___ _ _ ___ _ _ ___ _ _ ___ _ _
 72
    65
 73
     6
 40
1.25
 49
0.625
 49
-0.125
 49
0.125
 49
-0.125
 49
0.125
 49
-0.125
  0
ENDTAB
  0
TABLE
  2
LAYER
 70
     2
  0
LAYER
  2
0
 70
     0
 62
   255
  6
CONTINUOUS
  0
LAYER
  2
DEFPOINTS
 70
     0
 62
     7
  6
CONTINUOUS
  0
ENDTAB
  0
TABLE
  2
STYLE
 70
     1
  0
STYLE
  2
STANDARD
 70
     0
 40
0.0
 41
0.8
 50
0.0
 71
     0
 42
0.2
  3
txt
  4

  0
ENDTAB
  0
TABLE
  2
VIEW
 70
     0
  0
ENDTAB
  0
TABLE
  2
UCS
 70
     0
  0
ENDTAB
  0
TABLE
  2
APPID
 70
     9
  0
APPID
  2
ACAD
 70
     0
  0
APPID
  2
ACAD_MLEADERVER
 70
     0
  0
APPID
  2
ACAD_EXEMPT_FROM_CAD_STANDARDS
 70
     0
  0
APPID
  2
ACAD_NAV_VCDISPLAY
 70
     0
  0
APPID
  2
ACAECLAYERSTANDARD
 70
     0
  0
APPID
  2
ACCMTRANSPARENCY
 70
     0
  0
APPID
  2
ACAD_DSTYLE_DIMJAG
 70
     0
  0
APPID
  2
ACAD_DSTYLE_DIMTALN
 70
     0
  0
APPID
  2
ACDBATTR
 70
     0
  0
ENDTAB
  0
TABLE
  2
DIMSTYLE
 70
     1
  0
DIMSTYLE
  2
STANDARD
 70
     0
  3

  4

  5

  6

  7

 40
1.0
 41
0.1875
 42
0.0625
 43
0.38
 44
0.125
 45
0.0
 46
0.0
 47
0.01
 48
0.01
140
0.15625
141
0.09
142
0.0
143
25.3999999999999986
144
1.0
145
0.0
146
1.0
147
0.09
 71
     1
 72
     0
 73
     1
 74
     1
 75
     0
 76
     0
 77
     0
 78
     4
170
     0
171
     2
172
     0
173
     0
174
     0
175
     0
176
     0
177
     0
178
     0
  0
ENDTAB
  0
ENDSEC
  0
SECTION
  2
BLOCKS
  0
BLOCK
  8
0
  2
$MODEL_SPACE
 70
     0
 10
0.0
 20
0.0
 30
0.0
  3
$MODEL_SPACE
  1

  0
ENDBLK
  5
21
  8
0
  0
BLOCK
 67
     1
  8
0
  2
$PAPER_SPACE
 70
     0
 10
0.0
 20
0.0
 30
0.0
  3
$PAPER_SPACE
  1

  0
ENDBLK
  5
1D
 67
     1
  8
0
  0
ENDSEC
  0
SECTION
  2
ENTITIES
  0
ATTDEF
  5
14E34
  8
DEFPOINTS
 10
3745.7792885876369837
 20
155.5685251753110094
 30
0.0
 40
0.001
  1
K-73087T-B4
  3

  2
MODELNUMBER
 70
     0
1001
ACDBATTR
1070
     0
1070
     1
  0
ATTDEF
  5
14E35
  8
DEFPOINTS
 10
3745.7792885876369837
 20
155.5668585086442874
 30
0.0
 40
0.001
  1
COMPOSED
  3

  2
TRADENAME
 70
     0
1001
ACDBATTR
1070
     0
1070
     1
  0
ATTDEF
  5
14E36
  8
DEFPOINTS
 10
3745.7792885876369837
 20
155.5651918419775939
 30
0.0
 40
0.001
  1
BATH FILLER
  3

  2
PRODUCT
 70
     0
1001
ACDBATTR
1070
     0
1070
     1
  0
LINE
  5
162E2
  8
0
 10
3743.3494440569138533
 20
155.5642258968748877
 30
0.0
 11
3748.2077117734138483
 21
155.5642258968748877
 31
0.0
  0
LINE
  5
162E3
  8
0
 10
3743.3691290963138272
 20
156.7453282590749097
 30
0.0
 11
3748.1880267341130093
 21
156.7453282590749097
 31
0.0
  0
LINE
  5
162E4
  8
0
 10
3743.3494440569138533
 20
155.5642258968748877
 30
0.0
 11
3743.3376330333139776
 21
155.576036920574893
 31
0.0
  0
LINE
  5
162E5
  8
0
 10
3743.3376330333139776
 20
155.576036920574893
 30
0.0
 11
3743.3376330333139776
 21
156.713832196174792
 31
0.0
  0
ARC
  5
162E6
  8
0
 10
3743.3691290963138272
 20
156.713832196174792
 30
0.0
 40
0.0314960629999988
 50
90.0
 51
180.0
  0
LINE
  5
162E7
  8
0
 10
3744.8336960254141559
 20
180.946362696274889
 30
0.0
 11
3744.8336960254141559
 21
156.7453282590749097
 31
0.0
  0
LINE
  5
162E8
  8
0
 10
3744.8336960254141559
 20
181.898871566174904
 30
0.0
 11
3744.8336960254141559
 21
190.5302754872745084
 31
0.0
  0
LINE
  5
162E9
  8
0
 10
3744.8336960254141559
 20
190.5891572060533861
 30
0.0
 11
3744.8336960254141559
 21
191.3960771578774995
 31
0.0
  0
LINE
  5
162EA
  8
0
 10
3746.7234598049140004
 20
180.9463626962927094
 30
0.0
 11
3746.7234598049140004
 21
156.7453282590749097
 31
0.0
  0
LINE
  5
162EB
  8
0
 10
3746.7234598049140004
 20
181.898871566174904
 30
0.0
 11
3746.7234598049140004
 21
187.3636946239170982
 31
0.0
  0
LINE
  5
162EC
  8
0
 10
3746.7234598049140004
 20
189.9069435555873042
 30
0.0
 11
3746.7234598049140004
 21
190.5307336572637098
 31
0.0
  0
LINE
  5
162ED
  8
0
 10
3746.7234598049140004
 20
190.5907707452695092
 30
0.0
 11
3746.7234598049140004
 21
191.3960771578749132
 31
0.0
  0
ARC
  5
162EE
  8
0
 10
3744.8651920884140054
 20
180.946362696274889
 30
0.0
 40
0.0314960629999952
 50
97.180762048506466
 51
180.0000000000113971
  0
LINE
  5
162EF
  8
0
 10
3744.8612550771199494
 20
180.9776117270851046
 30
0.0
 11
3746.6959007532068426
 21
180.9776117270851046
 31
0.0
  0
ARC
  5
162F0
  8
0
 10
3746.6919637419450737
 20
180.9463626962927094
 30
0.0
 40
0.0314960629692192
 50
359.9999999676264792
 51
82.8192379881273553
  0
ARC
  5
162F1
  8
0
 10
3744.8651920884140054
 20
181.898871566174904
 30
0.0
 40
0.0314960630000059
 50
180.0
 51
269.9999999999739089
  0
LINE
  5
162F2
  8
0
 10
3744.8651920884140054
 20
181.8673755031749124
 30
0.0
 11
3746.6919637419141509
 21
181.8673755031749124
 31
0.0
  0
ARC
  5
162F3
  8
0
 10
3746.6919637419141509
 20
181.898871566174904
 30
0.0
 40
0.0314960630000067
 50
270.0
 51
359.9999999999869829
  0
LINE
  5
162F4
  8
0
 10
3746.7083412448141644
 20
181.8555644795748947
 30
0.0
 11
3741.0935385506140847
 21
181.8555644795748947
 31
0.0
  0
LINE
  5
162F5
  8
0
 10
3741.1919637419141509
 20
181.8555644795748947
 30
0.0
 11
3741.2182104611138129
 21
181.225643219774895
 31
0.0
  0
LINE
  5
162F6
  8
0
 10
3741.2182104611138129
 20
181.225643219774895
 30
0.0
 11
3741.2600469778139995
 21
181.225643219774895
 31
0.0
  0
ARC
  5
162F7
  8
0
 10
3741.2950621389140906
 20
181.8319165669749111
 30
0.0
 40
0.0196850393999999
 50
91.145259176803421
 51
178.5434272820463093
  0
LINE
  5
162F8
  8
0
 10
3741.2753834601708149
 20
181.8324169459428958
 30
0.0
 11
3741.2549619795190665
 21
181.0292901501931908
 31
0.0
  0
ARC
  5
162F9
  8
0
 10
3741.2746381965648652
 20
181.0287898338199
 30
0.0
 40
0.0196825769075731
 50
178.543427282044604
 51
270.4203763095466115
  0
LINE
  5
162FA
  8
0
 10
3741.2747826053659992
 20
181.009107786674889
 30
0.0
 11
3744.9272040397140699
 21
181.0091077850748889
 31
0.0
  0
ARC
  5
162FB
  8
0
 10
3744.940446855198843
 20
181.1168483009417116
 30
0.0
 40
0.10855129777878
 50
262.9928271140819902
 51
306.0968015909866153
  0
LINE
  5
162FC
  8
0
 10
3744.8330086087680684
 20
181.0091077851161003
 30
0.0
 11
3744.8336960254141559
 21
180.9894227472748867
 31
0.0
  0
LINE
  5
162FD
  8
0
 10
3744.8336960254141559
 20
180.9894227472748867
 30
0.0
 11
3746.7234598049140004
 21
180.9894227472748867
 31
0.0
  0
LINE
  5
162FE
  8
0
 10
3746.7234598049140004
 20
180.9894227472748867
 30
0.0
 11
3746.7083412448141644
 21
181.8555644795748947
 31
0.0
  0
LINE
  5
162FF
  8
0
 10
3746.6722787026142214
 20
180.9776117270747875
 30
0.0
 11
3746.6722787026142214
 21
180.9894227472748867
 31
0.0
  0
LINE
  5
16300
  8
0
 10
3744.8848771278139793
 20
180.9894227472748867
 30
0.0
 11
3744.8848771278139793
 21
180.9776117270749012
 31
0.0
  0
ARC
  5
16301
  8
0
 10
3747.8595131095689794
 20
190.0874027259432069
 30
0.0
 40
1.1502967544007281
 50
189.0258774411495892
 51
195.1547904137873104
  0
ARC
  5
16302
  8
0
 10
3746.9850952319611679
 20
189.8667393790900064
 30
0.0
 40
0.2490903993481477
 50
198.7472162171615082
 51
232.4758340717698957
  0
ARC
  5
16303
  8
0
 10
3747.0980830656690159
 20
190.0626424104993077
 30
0.0
 40
0.4742126645994987
 50
236.0682598751234877
 51
269.3633242223938851
  0
ARC
  5
16304
  8
0
 10
3747.2727821394910279
 20
192.9600022805902029
 30
0.0
 40
3.3763430783832509
 50
266.9445278766456227
 51
270.6996616028076232
  0
LINE
  5
16305
  8
0
 10
3747.314010986014182
 20
189.58391093627489
 30
0.0
 11
3748.6683416947139449
 21
189.58391093627489
 31
0.0
  0
LINE
  5
16306
  8
0
 10
3748.6683416947139449
 20
189.58391093627489
 30
0.0
 11
3748.6683416947139449
 21
187.6941471567747897
 31
0.0
  0
LINE
  5
16307
  8
0
 10
3748.6683416947139449
 20
187.6941471567747897
 30
0.0
 11
3748.6144534523141374
 21
187.6944214597249072
 31
0.0
  0
ARC
  5
16308
  8
0
 10
3748.5187090704389448
 20
186.7549008348458131
 30
0.0
 40
0.9443865687491241
 50
84.1812067271034863
 51
95.9806983670590483
  0
LINE
  5
16309
  8
0
 10
3748.4203101986140609
 20
187.6941471567747897
 30
0.0
 11
3747.314010986014182
 21
187.6941471567747897
 31
0.0
  0
ARC
  5
1630A
  8
0
 10
3747.2702351622479
 20
183.9853329396389938
 30
0.0
 40
3.7090725552320301
 50
89.3237586640912156
 51
92.8503829891658228
  0
ARC
  5
1630B
  8
0
 10
3747.1211084577212205
 20
186.9804675605396937
 30
0.0
 40
0.7102277490906
 50
92.8503829891658228
 51
107.3098229745477994
  0
ARC
  5
1630C
  8
0
 10
3746.9893534338862082
 20
187.4032289466927068
 30
0.0
 40
0.2674111099185049
 50
107.3098229745477994
 51
125.9472572236330024
  0
ARC
  5
1630D
  8
0
 10
3746.9799211259860385
 20
187.4162365682906
 30
0.0
 40
0.2513435447033375
 50
125.9472572236330024
 51
150.3332942403590096
  0
ARC
  5
1630E
  8
0
 10
3747.0366997996829923
 20
187.4045318502651867
 30
0.0
 40
0.306997105457163
 50
153.6819711083118989
 51
173.4103750655496867
  0
ARC
  5
1630F
  8
0
 10
3747.2601285459149949
 20
187.3438242889145045
 30
0.0
 40
0.5370364678314202
 50
169.7092819085274868
 51
177.8795736867218125
  0
LINE
  5
16310
  8
0
 10
3744.9457535505639498
 20
191.4316952086749097
 30
0.0
 11
3746.6114022797628422
 21
191.4316952086749097
 31
0.0
  0
ARC
  5
16311
  8
0
 10
3744.8655905914270079
 20
191.3960331717846941
 30
0.0
 40
0.0318945963437306
 50
158.6480821248078996
 51
179.9209829121234918
  0
ARC
  5
16312
  8
0
 10
3744.8650791676100198
 20
191.3962331016525127
 30
0.0
 40
0.0313454822635447
 50
129.7558461747345859
 51
158.6480821248109123
  0
ARC
  5
16313
  8
0
 10
3744.866796768263157
 20
191.3941683399062867
 30
0.0
 40
0.0340312583291671
 50
102.4403853080907965
 51
129.7558461747325111
  0
ARC
  5
16314
  8
0
 10
3744.9892785304709832
 20
188.9769465342612875
 30
0.0
 40
2.4551345133029461
 50
91.0158010834568643
 51
92.5319127521715359
  0
ARC
  5
16315
  8
0
 10
3744.8884350173070743
 20
191.2574936093157874
 30
0.0
 40
0.1723589273796919
 50
92.5319127521715359
 51
99.6759687677783148
  0
ARC
  5
16316
  8
0
 10
3744.8728665144080878
 20
190.5965272481082025
 30
0.0
 40
0.0398578063616301
 50
190.655790288739297
 51
214.1270296823689137
  0
ARC
  5
16317
  8
0
 10
3744.8669458798508458
 20
190.5925146024009109
 30
0.0
 40
0.032705517278704
 50
214.1270296823716137
 51
250.0361113953148049
  0
ARC
  5
16318
  8
0
 10
3744.8674333415337969
 20
190.5299335786326083
 30
0.0
 40
0.0337390486012141
 50
153.429535524019002
 51
179.4193595163218049
  0
ARC
  5
16319
  8
0
 10
3744.8677583985718229
 20
190.529771011722687
 30
0.0
 40
0.0341024905882853
 50
114.7912942040258031
 51
153.4295355240350034
  0
ARC
  5
1631A
  8
0
 10
3744.8833595516921378
 20
190.4959935450058026
 30
0.0
 40
0.0713088507498018
 50
104.760617799917398
 51
114.7912942040258031
  0
ARC
  5
1631B
  8
0
 10
3745.1563171802599754
 20
188.3680991518490941
 30
0.0
 40
2.2160559503960471
 50
90.9877890119836934
 51
97.5488319948394462
  0
ARC
  5
1631C
  8
0
 10
3745.7613039400998787
 20
169.8441533367239913
 30
0.0
 40
20.7496435253998683
 50
89.6861574934008274
 51
91.7763186807273712
  0
ARC
  5
1631D
  8
0
 10
3745.837619031281065
 20
171.8744121300395875
 30
0.0
 40
18.7191106939689895
 50
88.1840508674548715
 51
89.8857020300558389
  0
ARC
  5
1631E
  8
0
 10
3746.2965781268089813
 20
186.2130506522441067
 30
0.0
 40
4.3731315687423509
 50
85.6333136858570185
 51
88.2410657300586649
  0
ARC
  5
1631F
  8
0
 10
3746.6034718389228146
 20
190.1601989501558876
 30
0.0
 40
0.4141105438485186
 50
77.1807698105468774
 51
86.3901254976930346
  0
ARC
  5
16320
  8
0
 10
3746.6853035228509725
 20
190.525075398239693
 30
0.0
 40
0.0401890899130857
 50
39.6371058299861616
 51
75.51933492884163
  0
ARC
  5
16321
  8
0
 10
3746.6906710861057945
 20
190.5303096397715876
 30
0.0
 40
0.0327221124169803
 50
14.6016939724263803
 51
38.5745507539676922
  0
ARC
  5
16322
  8
0
 10
3746.6864265228991826
 20
190.5294099427563879
 30
0.0
 40
0.0370569318326148
 50
2.0471039927292352
 51
14.2933776082822401
  0
ARC
  5
16323
  8
0
 10
3746.6860409111141053
 20
190.5981597227286954
 30
0.0
 40
0.0394872257134291
 50
293.1057495035057059
 51
317.1177986957573012
  0
ARC
  5
16324
  8
0
 10
3746.6928087772730578
 20
190.5918745501431033
 30
0.0
 40
0.0302510248292177
 50
317.1177986957549138
 51
343.2370033498806947
  0
ARC
  5
16325
  8
0
 10
3746.671843949851791
 20
190.5981894336763105
 30
0.0
 40
0.0521462695832645
 50
343.2370033498822863
 51
351.820956395625501
  0
ARC
  5
16326
  8
0
 10
3746.6915652389011484
 20
191.3960331717846941
 30
0.0
 40
0.0318945963437306
 50
0.0790170878764155
 51
21.3519178751921395
  0
ARC
  5
16327
  8
0
 10
3746.6920766627181365
 20
191.3962331016525127
 30
0.0
 40
0.0313454822635447
 50
21.3519178751890983
 51
50.2441538252654283
  0
ARC
  5
16328
  8
0
 10
3746.6903590620640898
 20
191.3941683399062867
 30
0.0
 40
0.0340312583291671
 50
50.2441538252675102
 51
77.5596146919087772
  0
ARC
  5
16329
  8
0
 10
3746.5678772998558088
 20
188.9769465342612875
 30
0.0
 40
2.4551345133029461
 50
87.4680872478285067
 51
88.9841989165431357
  0
ARC
  5
1632A
  8
0
 10
3746.6687208130201725
 20
191.2574936093157874
 30
0.0
 40
0.1723589273796919
 50
80.3240312322216852
 51
87.4680872478285067
  0
ARC
  5
1632B
  8
0
 10
3744.8656607151010576
 20
190.9088809800460922
 30
0.0
 40
0.0321756963362607
 50
186.5653721563313923
 51
269.1654794209575812
  0
ARC
  5
1632C
  8
0
 10
3746.5231198703590962
 20
188.1008413395366858
 30
0.0
 40
2.7809989201875789
 50
86.5190264065906547
 51
88.456098005236143
  0
LINE
  5
1632D
  8
0
 10
3746.5980480804719264
 20
190.8808306843748142
 30
0.0
 11
3744.9591077499558196
 21
190.8808306843748142
 31
0.0
  0
ARC
  5
1632E
  8
0
 10
3746.69197399871382
 20
190.9081958354749133
 30
0.0
 40
0.0314864743000086
 50
270.0000208447606269
 51
359.6267523203338783
  0
ARC
  5
1632F
  8
0
 10
3744.9446039631598069
 20
190.138349113971401
 30
0.0
 40
0.7426232168605117
 50
88.880914856526303
 51
96.1420946077510905
  0
LINE
  5
16330
  8
0
 10
3748.8120424821140659
 20
189.5839036505749107
 30
0.0
 11
3748.8120424821140659
 21
187.6941544424749111
 31
0.0
  0
LINE
  5
16331
  8
0
 10
3748.8120424821140659
 20
187.6941544424749111
 30
0.0
 11
3749.0475758258139649
 21
187.6962109517749013
 31
0.0
  0
ARC
  5
16332
  8
0
 10
3749.0482632995372114
 20
187.6174741404936128
 30
0.0
 40
0.0787398124893866
 50
359.9989893399779248
 51
90.5002532017517041
  0
LINE
  5
16333
  8
0
 10
3749.127003112013881
 20
187.6174727515748941
 30
0.0
 11
3749.127003112013881
 21
186.7022972076752012
 31
0.0
  0
LINE
  5
16334
  8
0
 10
3749.4813338207140987
 20
189.5468404590749003
 30
0.0
 11
3749.4813338207140987
 21
186.7048328623747864
 31
0.0
  0
LINE
  5
16335
  8
0
 10
3748.8120424821140659
 20
189.5839036505749107
 30
0.0
 11
3749.4501125790138758
 21
189.5783352969748989
 31
0.0
  0
ARC
  5
16336
  8
0
 10
3749.4498377272248035
 20
189.5468404027606937
 30
0.0
 40
0.031496093488961
 50
359.9998861475968965
 51
89.4999999799713208
  0
ARC
  5
16337
  8
0
 10
3749.1584992657381008
 20
186.7022974243996032
 30
0.0
 40
0.0314961537247736
 50
180.0003942517354858
 51
269.9999310110351871
  0
LINE
  5
16338
  8
0
 10
3749.1584992278139907
 20
186.6708012706747866
 30
0.0
 11
3749.4431059773141897
 21
186.6732836974748864
 31
0.0
  0
ARC
  5
16339
  8
0
 10
3749.4447236351638821
 20
186.710258347712994
 30
0.0
 40
0.0370100199561466
 50
267.4948809912899037
 51
351.5703446781305956
  0
LINE
  5
1633A
  8
0
 10
3744.8848771278139793
 20
181.8673755031749124
 30
0.0
 11
3744.8848771278139793
 21
181.8555644795748947
 31
0.0
  0
LINE
  5
1633B
  8
0
 10
3745.0043999882141179
 20
181.0291363791484969
 30
0.0
 11
3745.0043999882141179
 21
181.8555644795748947
 31
0.0
  0
LINE
  5
1633C
  8
0
 10
3741.0935385506140847
 20
181.8555644795748947
 30
0.0
 11
3741.0935385451139155
 21
191.3043833772748883
 31
0.0
  0
LINE
  5
1633D
  8
0
 10
3741.0935385451139155
 20
191.3043833772748883
 30
0.0
 11
3742.1959007498139727
 21
191.3043833772748883
 31
0.0
  0
LINE
  5
1633E
  8
0
 10
3742.1959007498139727
 20
191.3043833772748883
 30
0.0
 11
3742.1959007498139727
 21
181.8555644795748947
 31
0.0
  0
ARC
  5
1633F
  8
0
 10
3741.6801602292880489
 20
445.331474618019115
 30
0.0
 40
263.4801589459037245
 50
269.9161718809531862
 51
270.0171185207449867
  0
ARC
  5
16340
  8
0
 10
3741.751932969392783
 20
205.1077408427213982
 30
0.0
 40
23.2564144486718298
 50
270.0171185207449867
 51
271.0938498330074822
  0
LINE
  5
16341
  8
0
 10
3741.2598446218971731
 20
181.221312511074899
 30
0.0
 11
3741.2466881514142187
 21
181.221312511074899
 31
0.0
  0
ARC
  5
16342
  8
0
 10
3741.2466881514142187
 20
181.1862731409748903
 30
0.0
 40
0.0350393700999998
 50
90.0
 51
270.0
  0
LINE
  5
16343
  8
0
 10
3741.2466881514142187
 20
181.1512337708747964
 30
0.0
 11
3741.2580626969938749
 21
181.1512337708747964
 31
0.0
  0
LINE
  5
16344
  8
0
 10
3741.2579525780411132
 20
181.1469030622749017
 30
0.0
 11
3741.2214913010138844
 21
181.1469030622749017
 31
0.0
  0
LINE
  5
16345
  8
0
 10
3741.2214913010138844
 20
181.1469030622749017
 30
0.0
 11
3741.2399972440512101
 21
180.702760428074896
 31
0.0
  0
ARC
  5
16346
  8
0
 10
3741.2694992048791391
 20
180.7039896764391074
 30
0.0
 40
0.0295275590642261
 50
182.385944023319297
 51
270.0000000665708058
  0
LINE
  5
16347
  8
0
 10
3741.2694992049141547
 20
180.674462117374901
 30
0.0
 11
3742.0199400900141882
 21
180.6744621182469075
 31
0.0
  0
ARC
  5
16348
  8
0
 10
3742.0199400899791726
 20
180.7039896773547127
 30
0.0
 40
0.0295275591077431
 50
270.0000000665967832
 51
357.6140542619633038
  0
LINE
  5
16349
  8
0
 10
3742.0494420508148323
 20
180.7027604281057052
 30
0.0
 11
3742.0622065332358943
 21
181.009107786674889
 31
0.0
  0
LINE
  5
1634A
  8
0
 10
3741.2510188601140726
 20
181.1469030622749017
 30
0.0
 11
3741.2510188601140726
 21
181.1512337709748977
 31
0.0
  0
LINE
  5
1634B
  8
0
 10
3741.2510188601140726
 20
181.221312511074899
 30
0.0
 11
3741.2510188601140726
 21
181.225643219774895
 31
0.0
  0
LINE
  5
1634C
  8
0
 10
3741.4813612579141591
 20
180.8713125110749047
 30
0.0
 11
3741.8080776601141224
 21
180.8713125110749047
 31
0.0
  0
LINE
  5
1634D
  8
0
 10
3741.8080776601141224
 20
180.8713125110749047
 30
0.0
 11
3741.7894687955131303
 21
180.7027662142749023
 31
0.0
  0
ARC
  5
1634E
  8
0
 10
3741.7699468498080932
 20
180.7077064900429093
 30
0.0
 40
0.0201373456246091
 50
295.3294067017479847
 51
345.7987199157968234
  0
ARC
  5
1634F
  8
0
 10
3741.7301563677228842
 20
180.7849405002046979
 30
0.0
 40
0.107009475454005
 50
276.3917218203625907
 51
296.8945228001430792
  0
ARC
  5
16350
  8
0
 10
3741.6695024337191171
 20
181.2810275614355078
 30
0.0
 40
0.6067862003519086
 50
271.5455729019877253
 51
276.8685588097973778
  0
LINE
  5
16351
  8
0
 10
3741.4813612579141591
 20
180.8713125110749047
 30
0.0
 11
3741.4999701225137869
 21
180.7027662142749023
 31
0.0
  0
ARC
  5
16352
  8
0
 10
3741.5194920682201882
 20
180.7077064900429093
 30
0.0
 40
0.0201373456246091
 50
194.201280084203205
 51
244.6705932982521006
  0
ARC
  5
16353
  8
0
 10
3741.5592825503049426
 20
180.7849405002046979
 30
0.0
 40
0.107009475454005
 50
243.1054771998568924
 51
263.6082781796372956
  0
ARC
  5
16354
  8
0
 10
3741.6199364843091644
 20
181.2810275614355078
 30
0.0
 40
0.6067862003519086
 50
263.1314411902025086
 51
268.4544270980122747
  0
LINE
  5
16355
  8
0
 10
3748.2077117735138927
 20
155.5642258968748877
 30
0.0
 11
3748.2195227971142231
 21
155.576036920574893
 31
0.0
  0
LINE
  5
16356
  8
0
 10
3748.2195227971142231
 20
155.576036920574893
 30
0.0
 11
3748.2195227971142231
 21
156.713832196174792
 31
0.0
  0
ARC
  5
16357
  8
0
 10
3748.1880267341130093
 20
156.713832196174792
 30
0.0
 40
0.0314960629999988
 50
0.0
 51
90.0
  0
ARC
  5
16358
  8
0
 10
3744.187511276522855
 20
161.480685983155098
 30
0.0
 40
3.07283892610667
 50
275.022584966594593
 51
282.1392989084035889
  0
ARC
  5
16359
  8
0
 10
3744.0754832540810639
 20
162.7553847967697038
 30
0.0
 40
4.3524511108106161
 50
257.3757522534450004
 51
275.022584966594593
  0
ARC
  5
1635A
  8
0
 10
3743.8139106872690718
 20
161.5874982613781015
 30
0.0
 40
3.1556306701187178
 50
226.3565613431250085
 51
257.3757522534450004
  0
ARC
  5
1635B
  8
0
 10
3742.5188825739041931
 20
160.0404807327583967
 30
0.0
 40
1.149782191754857
 50
180.4049289563473053
 51
219.8366011606998995
  0
LINE
  5
1635C
  8
0
 10
3741.3691290963138272
 20
160.0323548946749099
 30
0.0
 11
3741.3691290723259044
 21
180.6744621174906911
 31
0.0
  0
LINE
  5
1635D
  8
0
 10
3741.9203101986140609
 20
180.6744621181312027
 30
0.0
 11
3741.9203101986140609
 21
160.0323548946749099
 31
0.0
  0
ARC
  5
1635E
  8
0
 10
3742.5071410031200685
 20
160.0323522898191868
 30
0.0
 40
0.5868308045111404
 50
179.9997456724630922
 51
225.1805441586419079
  0
ARC
  5
1635F
  8
0
 10
3743.4899736940051298
 20
161.0473606112738025
 30
0.0
 40
1.9996661489789429
 50
225.7048953096818877
 51
256.3231088792093146
  0
ARC
  5
16360
  8
0
 10
3744.0849012337371278
 20
162.8146988455922042
 30
0.0
 40
3.8608832353691591
 50
253.9453800746346985
 51
268.4432778040948051
  0
ARC
  5
16361
  8
0
 10
3744.0760169199461416
 20
162.4877886093021004
 30
0.0
 40
3.5338522985714529
 50
268.4432778040948051
 51
278.6443391297893868
  0
ARC
  5
16362
  8
0
 10
3744.3283643672962171
 20
160.8279076602252076
 30
0.0
 40
1.8548990534534611
 50
278.6443391297893868
 51
285.8089657588271848
  0
CIRCLE
  5
16363
  8
0
 10
3741.6447196475141936
 20
186.5150132984749121
 30
0.0
 40
0.2773491570825661
  0
CIRCLE
  5
16364
  8
0
 10
3741.6447196475141936
 20
186.5150132984749121
 30
0.0
 40
0.2952755905999993
  0
LINE
  5
16365
  8
0
 10
3741.6247530302098312
 20
186.809576608550401
 30
0.0
 11
3741.6247530302098312
 21
186.7916428144847032
 31
0.0
  0
LINE
  5
16366
  8
0
 10
3741.6646862673910618
 20
186.809577678092694
 30
0.0
 11
3741.6646862673910618
 21
186.7916428142989105
 31
0.0
  0
ARC
  5
16367
  8
0
 10
3741.6447213922751871
 20
186.5151105718861118
 30
0.0
 40
0.2896599826686676
 50
86.0490707911991564
 51
93.9516211066029427
  0
LINE
  5
16368
  8
0
 10
3741.6247530302098312
 20
186.2204499883993094
 30
0.0
 11
3741.6247530302098312
 21
186.2383837824650072
 31
0.0
  0
LINE
  5
16369
  8
0
 10
3741.6646862673910618
 20
186.220448918856988
 30
0.0
 11
3741.6646862673910618
 21
186.2383837826508
 31
0.0
  0
ARC
  5
1636A
  8
0
 10
3741.6447213922751871
 20
186.5149160250637124
 30
0.0
 40
0.2896599826686676
 50
266.0483788933971141
 51
273.950929208800801
  0
CIRCLE
  5
1636B
  8
0
 10
3741.6447196475141936
 20
185.7276117236748973
 30
0.0
 40
0.2773491570825661
  0
CIRCLE
  5
1636C
  8
0
 10
3741.6447196475141936
 20
185.7276117236748973
 30
0.0
 40
0.2952755905999993
  0
LINE
  5
1636D
  8
0
 10
3741.6247530302098312
 20
185.4330484135992947
 30
0.0
 11
3741.6247530302098312
 21
185.4509822076649925
 31
0.0
  0
LINE
  5
1636E
  8
0
 10
3741.6646862673910618
 20
185.4330473440570017
 30
0.0
 11
3741.6646862673910618
 21
185.4509822078508137
 31
0.0
  0
ARC
  5
1636F
  8
0
 10
3741.6447213922751871
 20
185.7275144502636977
 30
0.0
 40
0.2896599826686676
 50
266.0483788933971141
 51
273.950929208800801
  0
LINE
  5
16370
  8
0
 10
3741.6247530302098312
 20
186.0221750337503863
 30
0.0
 11
3741.6247530302098312
 21
186.0042412396846885
 31
0.0
  0
LINE
  5
16371
  8
0
 10
3741.6646862673910618
 20
186.0221761032927077
 30
0.0
 11
3741.6646862673910618
 21
186.0042412394990095
 31
0.0
  0
ARC
  5
16372
  8
0
 10
3741.6447213922751871
 20
185.727708997086097
 30
0.0
 40
0.2896599826686676
 50
86.0490707911991564
 51
93.9516211066029427
  0
ARC
  5
16374
  8
0
 10
3745.5007421293939842
 20
190.7192909432336023
 30
0.0
 40
0.0061274392241961
 50
234.9197271092162111
 51
259.6136060593162256
  0
ARC
  5
16375
  8
0
 10
3745.5321750463981516
 20
190.8907847951572876
 30
0.0
 40
0.1804781476225405
 50
259.6136060593162256
 51
265.6482451021236102
  0
ARC
  5
16376
  8
0
 10
3745.6084878185370144
 20
191.8935960373081002
 30
0.0
 40
1.1861888548219759
 50
265.6482451021236102
 51
267.4903074185126002
  0
ARC
  5
16377
  8
0
 10
3745.6745629049028139
 20
193.4011121666596011
 30
0.0
 40
2.695152339235376
 50
267.4903074185126002
 51
268.3748872411513275
  0
ARC
  5
16378
  8
0
 10
3745.7387589774989465
 20
195.6638336897999864
 30
0.0
 40
4.9587843382625652
 50
268.3748872411513275
 51
269.0570181010123179
  0
ARC
  5
16379
  8
0
 10
3745.7704341392359311
 20
197.5882494380171863
 30
0.0
 40
6.883460749469811
 50
269.0570181010123179
 51
269.6581786379105097
  0
ARC
  5
1637A
  8
0
 10
3745.7801330459838027
 20
199.2139518990186104
 30
0.0
 40
8.5091921419507361
 50
269.6581786379105097
 51
269.9895286851374863
  0
ARC
  5
1637B
  8
0
 10
3745.7779247893931824
 20
182.9415505370672008
 30
0.0
 40
7.782857481312905
 50
89.9951918234196597
 51
90.5639999455682272
  0
ARC
  5
1637C
  8
0
 10
3745.7632129317407816
 20
184.4360544511627893
 30
0.0
 40
6.2882811573993607
 50
90.5639999455682272
 51
91.2664830117615793
  0
ARC
  5
1637D
  8
0
 10
3745.6976244005918488
 20
187.4028008822905917
 30
0.0
 40
3.3208098025203912
 50
91.2664830117615793
 51
92.5004675258115157
  0
ARC
  5
1637E
  8
0
 10
3745.5886478374391118
 20
189.8983072565526982
 30
0.0
 40
0.8229251063625479
 50
92.5004675258115157
 51
95.6857889217375259
  0
ARC
  5
1637F
  8
0
 10
3745.5122142582981724
 20
190.6659995945043136
 30
0.0
 40
0.0514371817844728
 50
95.6857889217376538
 51
105.3521318113673004
  0
ARC
  5
16380
  8
0
 10
3745.4996644268148884
 20
190.711710601729294
 30
0.0
 40
0.0040347087285733
 50
105.3521318113400014
 51
124.1051443419169971
  0
ARC
  5
16381
  8
0
 10
3745.4978635986572044
 20
190.7143698994565
 30
0.0
 40
0.0008230352623661
 50
124.1051443419792975
 51
159.2387828586601017
  0
ARC
  5
16382
  8
0
 10
3745.4975030156501816
 20
190.7145827189143006
 30
0.0
 40
0.0004165545242376
 50
169.0780537023983925
 51
227.303882157186905
  0
LINE
  5
16383
  8
0
 10
3745.7746409072601637
 20
190.7055853205993969
 30
0.0
 11
3745.7746409073138238
 21
190.707577912974898
 31
0.0
  0
LINE
  5
16384
  8
0
 10
3745.7746409073138238
 20
190.707577912974898
 30
0.0
 11
3745.7342560018510085
 21
190.7077494198368015
 31
0.0
  0
LINE
  5
16385
  8
0
 10
3745.7342560018510085
 20
190.7077494198368015
 30
0.0
 11
3745.7194720447050713
 21
190.7058238582542913
 31
0.0
  0
LINE
  5
16386
  8
0
 10
3745.7194720447050713
 20
190.7058238582542913
 30
0.0
 11
3745.7746409072601637
 21
190.7055853205993969
 31
0.0
  0
LINE
  5
16387
  8
0
 10
3745.7746409073138238
 20
190.7077840531748905
 30
0.0
 11
3745.7746409073138238
 21
190.7097769224749015
 31
0.0
  0
LINE
  5
16388
  8
0
 10
3745.7746409073138238
 20
190.7097769224749015
 30
0.0
 11
3745.7131179534139847
 21
190.7103522415748103
 31
0.0
  0
LINE
  5
16389
  8
0
 10
3745.7131179534139847
 20
190.7103522415748103
 30
0.0
 11
3745.6845664050138112
 21
190.7086263661749115
 31
0.0
  0
LINE
  5
1638A
  8
0
 10
3745.6845664050138112
 20
190.7086263661749115
 30
0.0
 11
3745.7746409073138238
 21
190.7077840531748905
 31
0.0
  0
LINE
  5
1638B
  8
0
 10
3745.7190445715141323
 20
190.7078916662748895
 30
0.0
 11
3745.7042606144168531
 21
190.7059661047127861
 31
0.0
  0
LINE
  5
1638C
  8
0
 10
3745.7042606144168531
 20
190.7059661047127861
 30
0.0
 11
3745.6530654838129522
 21
190.7067222078748898
 31
0.0
  0
LINE
  5
1638D
  8
0
 10
3745.6530654838129522
 20
190.7067222078748898
 30
0.0
 11
3745.6811179338969851
 21
190.7084179139914966
 31
0.0
  0
LINE
  5
1638E
  8
0
 10
3745.6811179338969851
 20
190.7084179139914966
 30
0.0
 11
3745.7190445715141323
 21
190.7078916662748895
 31
0.0
  0
LINE
  5
1638F
  8
0
 10
3745.6018862438140786
 20
190.7080288698749087
 30
0.0
 11
3745.6422767658577868
 21
190.7094384787274066
 31
0.0
  0
LINE
  5
16390
  8
0
 10
3745.6422767658577868
 20
190.7094384787274066
 30
0.0
 11
3745.6747939657830102
 21
190.7085852430307114
 31
0.0
  0
LINE
  5
16391
  8
0
 10
3745.6747939657830102
 20
190.7085852430307114
 30
0.0
 11
3745.646246386113944
 21
190.7068596074749109
 31
0.0
  0
LINE
  5
16392
  8
0
 10
3745.646246386113944
 20
190.7068596074749109
 30
0.0
 11
3745.6018862438140786
 21
190.7080288698749087
 31
0.0
  0
LINE
  5
16393
  8
0
 10
3745.5907507040142264
 20
190.7106407152749057
 30
0.0
 11
3745.5572469991129765
 21
190.7099656412748914
 31
0.0
  0
LINE
  5
16394
  8
0
 10
3745.5572469991129765
 20
190.7099656412748914
 30
0.0
 11
3745.5907507040142264
 21
190.7084174945748885
 31
0.0
  0
LINE
  5
16395
  8
0
 10
3745.5907507040142264
 20
190.7084174945748885
 30
0.0
 11
3745.6311412260138241
 21
190.7098271034749075
 31
0.0
  0
LINE
  5
16396
  8
0
 10
3745.5316448335138375
 20
190.7119903086748991
 30
0.0
 11
3745.5868193127139421
 21
190.7125062612749105
 31
0.0
  0
LINE
  5
16397
  8
0
 10
3745.5868193127139421
 20
190.7125062612749105
 30
0.0
 11
3745.6027558509140363
 21
190.7111999205748134
 31
0.0
  0
LINE
  5
16398
  8
0
 10
3745.6027558509140363
 20
190.7111999205748134
 30
0.0
 11
3745.5533099912140642
 21
190.7102036243749126
 31
0.0
  0
LINE
  5
16399
  8
0
 10
3745.5533099912140642
 20
190.7102036243749126
 30
0.0
 11
3745.5316448335138375
 21
190.7119903086748991
 31
0.0
  0
LINE
  5
1639A
  8
0
 10
3745.577829115413806
 20
190.7144465454749138
 30
0.0
 11
3745.5207339547141601
 21
190.7144465454749138
 31
0.0
  0
ARC
  5
1639B
  8
0
 10
3745.5232464204409553
 20
190.7170686286258956
 30
0.0
 40
0.003631501628988
 50
226.2230211377768114
 51
259.6081107163514048
  0
ARC
  5
1639C
  8
0
 10
3745.5333431970511811
 20
190.7551711798176086
 30
0.0
 40
0.0430391043545961
 50
255.5334174349501097
 51
262.2897788774147898
  0
LINE
  5
1639D
  8
0
 10
3745.5275689431141473
 20
190.7125211798748978
 30
0.0
 11
3745.5827434222069314
 21
190.7130371325748115
 31
0.0
  0
ARC
  5
1639E
  8
0
 10
3745.5879130608968808
 20
190.7482996078433928
 30
0.0
 40
0.0356394069278915
 50
256.7856663143249989
 51
261.6595935354566222
  0
ARC
  5
1639F
  8
0
 10
3745.581672689746938
 20
190.721723556988394
 30
0.0
 40
0.008340529457761
 50
245.0940770975900023
 51
256.7856663143512037
  0
ARC
  5
163A0
  8
0
 10
3745.5784935020869852
 20
190.714876436972105
 30
0.0
 40
0.0007913383295675
 50
212.9048926412380069
 51
245.0940770974470979
  0
ARC
  5
163A1
  8
0
 10
3745.5846104562929213
 20
190.7150629793081009
 30
0.0
 40
0.0010700556872987
 50
215.175048375661504
 51
256.6472761617844753
  0
ARC
  5
163A2
  8
0
 10
3745.607204010823807
 20
190.8102491153346989
 30
0.0
 40
0.0989008749522569
 50
256.6472761617844753
 51
259.8213833159771866
  0
ARC
  5
163A3
  8
0
 10
3745.6240145892897999
 20
190.9977419300552128
 30
0.0
 40
0.2868934914170687
 50
263.1358852993985238
 51
266.7742816546596032
  0
LINE
  5
163A4
  8
0
 10
3745.6078711874138207
 20
190.7113029906749091
 30
0.0
 11
3745.6573239198141891
 21
190.7122994252748924
 31
0.0
  0
ARC
  5
163A5
  8
0
 10
3745.6435776648932006
 20
190.7190824517462033
 30
0.0
 40
0.0053844677436206
 50
239.4265288574029
 51
263.306464203824703
  0
ARC
  5
163A6
  8
0
 10
3745.6532015955158386
 20
190.7707579212599001
 30
0.0
 40
0.057937409508854
 50
259.8083337642008814
 51
264.2335026625697765
  0
ARC
  5
163A7
  8
0
 10
3745.6721590988768185
 20
190.9545813227015003
 30
0.0
 40
0.2427356594303075
 50
264.1409743546944924
 51
266.4960929204111153
  0
LINE
  5
163A8
  8
0
 10
3745.6408388940139957
 20
190.7144465454749138
 30
0.0
 11
3745.5837357972141035
 21
190.7144465454749138
 31
0.0
  0
ARC
  5
163A9
  8
0
 10
3745.6489165059851985
 20
190.7178977509803133
 30
0.0
 40
0.0040765055575113
 50
237.8447181072131116
 51
261.0081080334082912
  0
ARC
  5
163AA
  8
0
 10
3745.6350743867801611
 20
190.6304219339685062
 30
0.0
 40
0.0844877243887125
 50
79.4106331717095912
 51
81.0081080334082486
  0
ARC
  5
163AB
  8
0
 10
3745.6732563243540426
 20
190.8981620026241046
 30
0.0
 40
0.1860755934317384
 50
263.0065741961656158
 51
266.735573682207189
  0
ARC
  5
163AC
  8
0
 10
3745.7312967499310616
 20
191.9396323016599979
 30
0.0
 40
1.2291617811539881
 50
266.7989409236191136
 51
268.9723981616235164
  0
LINE
  5
163AD
  8
0
 10
3745.7092528716138986
 20
190.7106682046749029
 30
0.0
 11
3745.7407758364120127
 21
190.7125736954747026
 31
0.0
  0
LINE
  5
163AE
  8
0
 10
3745.7407758364120127
 20
190.7125736954747026
 30
0.0
 11
3745.7209029609939535
 21
190.7132685031774031
 31
0.0
  0
ARC
  5
163AF
  8
0
 10
3745.7245417147851185
 20
190.8173440631726976
 30
0.0
 40
0.1041391507429909
 50
263.2948019367241841
 51
267.9976053224726229
  0
ARC
  5
163B0
  8
0
 10
3745.7142082245950405
 20
190.729448072429193
 30
0.0
 40
0.0156378162430937
 50
253.5993680485447044
 51
263.2948019367501047
  0
LINE
  5
163B1
  8
0
 10
3745.7097928553139354
 20
190.7144465454749138
 30
0.0
 11
3745.6467469258141136
 21
190.7144465454749138
 31
0.0
  0
LINE
  5
163B2
  8
0
 10
3745.6118081952140528
 20
190.7110650075748879
 30
0.0
 11
3745.6612609277140109
 21
190.7120614422748872
 31
0.0
  0
LINE
  5
163B3
  8
0
 10
3745.6612609277140109
 20
190.7120614422748872
 30
0.0
 11
3745.7062988557399876
 21
190.7104896411703976
 31
0.0
  0
LINE
  5
163B4
  8
0
 10
3745.7062988557399876
 20
190.7104896411703976
 30
0.0
 11
3745.6777473074130285
 21
190.7087637657749042
 31
0.0
  0
LINE
  5
163B5
  8
0
 10
3745.6777473074130285
 20
190.7087637657749042
 30
0.0
 11
3745.6118081952140528
 21
190.7110650075748879
 31
0.0
  0
LINE
  5
163B6
  8
0
 10
3745.5907507040142264
 20
190.7106407152679139
 30
0.0
 11
3745.6066928587138136
 21
190.7109619374749059
 31
0.0
  0
LINE
  5
163B7
  8
0
 10
3745.6066928587138136
 20
190.7109619374749059
 30
0.0
 11
3745.6311412260138241
 21
190.7098271034749075
 31
0.0
  0
LINE
  5
163B8
  8
0
 10
3745.7157089411130073
 20
190.7144465454749138
 30
0.0
 11
3745.7513015245140195
 21
190.7144465454749138
 31
0.0
  0
LINE
  5
163B9
  8
0
 10
3745.7513015245140195
 20
190.7144465454749138
 30
0.0
 11
3745.7615301710138738
 21
190.7138282472747903
 31
0.0
  0
LINE
  5
163BA
  8
0
 10
3745.7615301710138738
 20
190.7138282472747903
 30
0.0
 11
3745.7437338793138224
 21
190.7127525023749115
 31
0.0
  0
LINE
  5
163BB
  8
0
 10
3745.7437338793138224
 20
190.7127525023749115
 30
0.0
 11
3745.7300472485908358
 21
190.7131824030797134
 31
0.0
  0
ARC
  5
163BC
  8
0
 10
3745.7356674880629726
 20
190.8921124242444876
 30
0.0
 40
0.1790182660113864
 50
264.5861164822288174
 51
268.2009158592160816
  0
ARC
  5
163BD
  8
0
 10
3745.7205284971169021
 20
190.73237177704479
 30
0.0
 40
0.0185618438444179
 50
254.9507901031620918
 51
264.5861164822288742
  0
LINE
  5
163BE
  8
0
 10
3745.7160719693138162
 20
190.7105308050749102
 30
0.0
 11
3745.7475949341142041
 21
190.7124362958749089
 31
0.0
  0
LINE
  5
163BF
  8
0
 10
3745.7475949341142041
 20
190.7124362958749089
 30
0.0
 11
3745.7785779152141004
 21
190.7121794521420099
 31
0.0
  0
LINE
  5
163C0
  8
0
 10
3745.7785779152141004
 20
190.7099810586749129
 30
0.0
 11
3745.7160719693138162
 21
190.7105308050749102
 31
0.0
  0
LINE
  5
163C1
  8
0
 10
3745.7505529774070965
 20
190.7126151027987078
 30
0.0
 11
3745.7785779151581664
 21
190.7123855515434059
 31
0.0
  0
LINE
  5
163C2
  8
0
 10
3745.7785779152141004
 20
190.7136221478756966
 30
0.0
 11
3745.7683492687237958
 21
190.7136908476799135
 31
0.0
  0
LINE
  5
163C3
  8
0
 10
3745.7683492687237958
 20
190.7136908476799135
 30
0.0
 11
3745.7505529774070965
 21
190.7126151027987078
 31
0.0
  0
LINE
  5
163C4
  8
0
 10
3745.7042606144168531
 20
190.7059661047127861
 30
0.0
 11
3745.7042901729969344
 21
190.7080963896308106
 31
0.0
  0
LINE
  5
163C5
  8
0
 10
3745.6811179338969851
 20
190.7084179139914966
 30
0.0
 11
3745.681086777802193
 21
190.706308360137001
 31
0.0
  0
LINE
  5
163C6
  8
0
 10
3745.646246386113944
 20
190.7068596074749109
 30
0.0
 11
3745.6463112766450649
 21
190.709332615103591
 31
0.0
  0
LINE
  5
163C7
  8
0
 10
3745.5907507040142264
 20
190.7084174945748885
 30
0.0
 11
3745.5907059259989182
 21
190.7106398130252103
 31
0.0
  0
LINE
  5
163C8
  8
0
 10
3745.5275689431141473
 20
190.7144465454749138
 30
0.0
 11
3745.5275689431141473
 21
190.7125211798748978
 31
0.0
  0
LINE
  5
163C9
  8
0
 10
3745.5533099912140642
 20
190.7121929058747867
 30
0.0
 11
3745.5533099912140642
 21
190.7102036243749126
 31
0.0
  0
LINE
  5
163CA
  8
0
 10
3745.6078711874138207
 20
190.7144465454749138
 30
0.0
 11
3745.6078711874138207
 21
190.7113029906749091
 31
0.0
  0
LINE
  5
163CB
  8
0
 10
3745.6777473074130285
 20
190.7087637657749042
 30
0.0
 11
3745.6777473074130285
 21
190.7114860758902068
 31
0.0
  0
LINE
  5
163CC
  8
0
 10
3745.7437338793138224
 20
190.7144465454749138
 30
0.0
 11
3745.7437338793138224
 21
190.7127525023749115
 31
0.0
  0
ARC
  5
163CD
  8
0
 10
3745.6976244005918488
 20
194.0263670077590916
 30
0.0
 40
3.3208098025203912
 50
267.499532474188527
 51
268.7335169882384207
  0
LINE
  5
163CE
  8
0
 10
3745.7746409072601637
 20
190.7235825694502864
 30
0.0
 11
3745.7746409073138238
 21
190.7215899770748138
 31
0.0
  0
LINE
  5
163CF
  8
0
 10
3745.7746409073138238
 20
190.7215899770748138
 30
0.0
 11
3745.7342560018510085
 21
190.7214184702129103
 31
0.0
  0
LINE
  5
163D0
  8
0
 10
3745.7342560018510085
 20
190.7214184702129103
 30
0.0
 11
3745.7194720447050713
 21
190.7233440317953921
 31
0.0
  0
LINE
  5
163D1
  8
0
 10
3745.7194720447050713
 20
190.7233440317953921
 30
0.0
 11
3745.7746409072601637
 21
190.7235825694502864
 31
0.0
  0
LINE
  5
163D2
  8
0
 10
3745.7746409073138238
 20
190.7213838368749066
 30
0.0
 11
3745.7746409073138238
 21
190.7193909675748955
 31
0.0
  0
LINE
  5
163D3
  8
0
 10
3745.7746409073138238
 20
190.7193909675748955
 30
0.0
 11
3745.7131179534139847
 21
190.7188156484749015
 31
0.0
  0
LINE
  5
163D4
  8
0
 10
3745.7131179534139847
 20
190.7188156484749015
 30
0.0
 11
3745.6845664050138112
 21
190.720541523874914
 31
0.0
  0
LINE
  5
163D5
  8
0
 10
3745.6845664050138112
 20
190.720541523874914
 30
0.0
 11
3745.7746409073138238
 21
190.7213838368749066
 31
0.0
  0
LINE
  5
163D6
  8
0
 10
3745.7190445715141323
 20
190.7212762237749075
 30
0.0
 11
3745.7042606144168531
 21
190.723201785337011
 31
0.0
  0
LINE
  5
163D7
  8
0
 10
3745.7042606144168531
 20
190.723201785337011
 30
0.0
 11
3745.6530654838129522
 21
190.7224456821749072
 31
0.0
  0
LINE
  5
163D8
  8
0
 10
3745.6530654838129522
 20
190.7224456821749072
 30
0.0
 11
3745.6811179338969851
 21
190.7207499760581868
 31
0.0
  0
LINE
  5
163D9
  8
0
 10
3745.6811179338969851
 20
190.7207499760581868
 30
0.0
 11
3745.7190445715141323
 21
190.7212762237749075
 31
0.0
  0
LINE
  5
163DA
  8
0
 10
3745.6018862438140786
 20
190.7211390201748884
 30
0.0
 11
3745.6422767658577868
 21
190.7197294113223052
 31
0.0
  0
LINE
  5
163DB
  8
0
 10
3745.6422767658577868
 20
190.7197294113223052
 30
0.0
 11
3745.6747939657830102
 21
190.7205826470191141
 31
0.0
  0
LINE
  5
163DC
  8
0
 10
3745.6747939657830102
 20
190.7205826470191141
 30
0.0
 11
3745.646246386113944
 21
190.7223082825748861
 31
0.0
  0
LINE
  5
163DD
  8
0
 10
3745.646246386113944
 20
190.7223082825748861
 30
0.0
 11
3745.6018862438140786
 21
190.7211390201748884
 31
0.0
  0
LINE
  5
163DE
  8
0
 10
3745.5907507040142264
 20
190.7185271747748914
 30
0.0
 11
3745.5572469991129765
 21
190.719202248774792
 31
0.0
  0
LINE
  5
163DF
  8
0
 10
3745.5572469991129765
 20
190.719202248774792
 30
0.0
 11
3745.5907507040142264
 21
190.7207503954749086
 31
0.0
  0
LINE
  5
163E0
  8
0
 10
3745.5907507040142264
 20
190.7207503954749086
 30
0.0
 11
3745.6311412260138241
 21
190.7193407865748895
 31
0.0
  0
LINE
  5
163E1
  8
0
 10
3745.5316448335138375
 20
190.717177581374898
 30
0.0
 11
3745.5868193127139421
 21
190.7166616287748866
 31
0.0
  0
LINE
  5
163E2
  8
0
 10
3745.5868193127139421
 20
190.7166616287748866
 30
0.0
 11
3745.6027558509140363
 21
190.7179679694748984
 31
0.0
  0
LINE
  5
163E3
  8
0
 10
3745.6027558509140363
 20
190.7179679694748984
 30
0.0
 11
3745.5533099912140642
 21
190.7189642656749129
 31
0.0
  0
LINE
  5
163E4
  8
0
 10
3745.5533099912140642
 20
190.7189642656749129
 30
0.0
 11
3745.5316448335138375
 21
190.717177581374898
 31
0.0
  0
LINE
  5
163E5
  8
0
 10
3745.577829115413806
 20
190.7147213445749117
 30
0.0
 11
3745.5207339547141601
 21
190.7147213445749117
 31
0.0
  0
ARC
  5
163E6
  8
0
 10
3745.5232464204409553
 20
190.7120992614237878
 30
0.0
 40
0.003631501628988
 50
100.3918892836484957
 51
133.7769788622231886
  0
ARC
  5
163E7
  8
0
 10
3745.5333431970511811
 20
190.6739967102321032
 30
0.0
 40
0.0430391043545961
 50
97.7102211225852244
 51
104.4665825650499045
  0
LINE
  5
163E8
  8
0
 10
3745.5275689431141473
 20
190.7166467101748992
 30
0.0
 11
3745.5827434222069314
 21
190.7161307574749003
 31
0.0
  0
ARC
  5
163E9
  8
0
 10
3745.5879130608968808
 20
190.6808682822062906
 30
0.0
 40
0.0356394069278915
 50
98.3404064645434346
 51
103.2143336856749016
  0
ARC
  5
163EA
  8
0
 10
3745.581672689746938
 20
190.7074443330612894
 30
0.0
 40
0.008340529457761
 50
103.2143336856487963
 51
114.9059229024099977
  0
ARC
  5
163EB
  8
0
 10
3745.5784935020869852
 20
190.7142914530776068
 30
0.0
 40
0.0007913383295675
 50
114.9059229025528026
 51
147.0951073587619931
  0
ARC
  5
163EC
  8
0
 10
3745.5846104562929213
 20
190.7141049107416961
 30
0.0
 40
0.0010700556872987
 50
103.3527238382154962
 51
144.8249516243384107
  0
ARC
  5
163ED
  8
0
 10
3745.607204010823807
 20
190.6189187747150982
 30
0.0
 40
0.0989008749522569
 50
100.1786166840227992
 51
103.3527238382154962
  0
ARC
  5
163EE
  8
0
 10
3745.6240145892897999
 20
190.431425959994499
 30
0.0
 40
0.2868934914170687
 50
93.2257183453404537
 51
96.8641147006014478
  0
LINE
  5
163EF
  8
0
 10
3745.6078711874138207
 20
190.717864899374888
 30
0.0
 11
3745.6573239198141891
 21
190.7168684647749046
 31
0.0
  0
ARC
  5
163F0
  8
0
 10
3745.6435776648932006
 20
190.7100854383035085
 30
0.0
 40
0.0053844677436206
 50
96.6935357961752118
 51
120.5734711425971
  0
ARC
  5
163F1
  8
0
 10
3745.6532015955158386
 20
190.6584099687898117
 30
0.0
 40
0.057937409508854
 50
95.7664973374301809
 51
100.1916662357990049
  0
ARC
  5
163F2
  8
0
 10
3745.6721590988768185
 20
190.4745865673482967
 30
0.0
 40
0.2427356594303075
 50
93.5039070795888705
 51
95.8590256453055218
  0
LINE
  5
163F3
  8
0
 10
3745.6408388940139957
 20
190.7147213445749117
 30
0.0
 11
3745.5837357972141035
 21
190.7147213445749117
 31
0.0
  0
ARC
  5
163F4
  8
0
 10
3745.6489165059851985
 20
190.7112701390693985
 30
0.0
 40
0.0040765055575113
 50
98.9918919665917656
 51
122.1552818927868032
  0
ARC
  5
163F5
  8
0
 10
3745.6350743867801611
 20
190.7987459560812056
 30
0.0
 40
0.0844877243887125
 50
278.9918919665917088
 51
280.5893668282903946
  0
ARC
  5
163F6
  8
0
 10
3745.6732563243540426
 20
190.5310058874256072
 30
0.0
 40
0.1860755934317384
 50
93.2644263177927684
 51
96.9934258038343984
  0
ARC
  5
163F7
  8
0
 10
3745.7312967499310616
 20
189.4895355883897992
 30
0.0
 40
1.2291617811539881
 50
91.0276018383765262
 51
93.2010590763808437
  0
LINE
  5
163F8
  8
0
 10
3745.7092528716138986
 20
190.7184996853748942
 30
0.0
 11
3745.7407758364120127
 21
190.7165941945750092
 31
0.0
  0
LINE
  5
163F9
  8
0
 10
3745.7407758364120127
 20
190.7165941945750092
 30
0.0
 11
3745.7209029609939535
 21
190.7158993868723087
 31
0.0
  0
ARC
  5
163FA
  8
0
 10
3745.7245417147851185
 20
190.6118238268770995
 30
0.0
 40
0.1041391507429909
 50
92.0023946775273771
 51
96.7051980632757875
  0
ARC
  5
163FB
  8
0
 10
3745.7142082245950405
 20
190.6997198176204904
 30
0.0
 40
0.0156378162430937
 50
96.7051980632499095
 51
106.4006319514552956
  0
LINE
  5
163FC
  8
0
 10
3745.7097928553139354
 20
190.7147213445749117
 30
0.0
 11
3745.6467469258141136
 21
190.7147213445749117
 31
0.0
  0
LINE
  5
163FD
  8
0
 10
3745.6118081952140528
 20
190.7181028824749092
 30
0.0
 11
3745.6612609277140109
 21
190.7171064477749098
 31
0.0
  0
LINE
  5
163FE
  8
0
 10
3745.6612609277140109
 20
190.7171064477749098
 30
0.0
 11
3745.7062988557399876
 21
190.7186782488793142
 31
0.0
  0
LINE
  5
163FF
  8
0
 10
3745.7062988557399876
 20
190.7186782488793142
 30
0.0
 11
3745.6777473074130285
 21
190.7204041242748929
 31
0.0
  0
LINE
  5
16400
  8
0
 10
3745.6777473074130285
 20
190.7204041242748929
 30
0.0
 11
3745.6118081952140528
 21
190.7181028824749092
 31
0.0
  0
LINE
  5
16401
  8
0
 10
3745.5907507040142264
 20
190.7185271747819115
 30
0.0
 11
3745.6066928587138136
 21
190.7182059525748912
 31
0.0
  0
LINE
  5
16402
  8
0
 10
3745.6066928587138136
 20
190.7182059525748912
 30
0.0
 11
3745.6311412260138241
 21
190.7193407865748895
 31
0.0
  0
LINE
  5
16403
  8
0
 10
3745.7157089411130073
 20
190.7147213445749117
 30
0.0
 11
3745.7513015245140195
 21
190.7147213445749117
 31
0.0
  0
LINE
  5
16404
  8
0
 10
3745.7513015245140195
 20
190.7147213445749117
 30
0.0
 11
3745.7615301710138738
 21
190.715339642774893
 31
0.0
  0
LINE
  5
16405
  8
0
 10
3745.7615301710138738
 20
190.715339642774893
 30
0.0
 11
3745.7437338793138224
 21
190.716415387674914
 31
0.0
  0
LINE
  5
16406
  8
0
 10
3745.7437338793138224
 20
190.716415387674914
 30
0.0
 11
3745.7300472485908358
 21
190.7159854869699984
 31
0.0
  0
ARC
  5
16407
  8
0
 10
3745.7356674880629726
 20
190.5370554658053095
 30
0.0
 40
0.1790182660113864
 50
91.7990841407839184
 51
95.4138835177712252
  0
ARC
  5
16408
  8
0
 10
3745.7205284971169021
 20
190.6967961130048934
 30
0.0
 40
0.0185618438444179
 50
95.4138835177710547
 51
105.0492098968377945
  0
LINE
  5
16409
  8
0
 10
3745.7160719693138162
 20
190.7186370849748869
 30
0.0
 11
3745.7475949341142041
 21
190.7167315941748029
 31
0.0
  0
LINE
  5
1640A
  8
0
 10
3745.7475949341142041
 20
190.7167315941748029
 30
0.0
 11
3745.7785779152141004
 21
190.7169884379077018
 31
0.0
  0
LINE
  5
1640B
  8
0
 10
3745.7785779152141004
 20
190.7191868313749126
 30
0.0
 11
3745.7160719693138162
 21
190.7186370849748869
 31
0.0
  0
LINE
  5
1640C
  8
0
 10
3745.7505529774070965
 20
190.7165527872510893
 30
0.0
 11
3745.7785779151581664
 21
190.7167823385063059
 31
0.0
  0
LINE
  5
1640D
  8
0
 10
3745.7785779152141004
 20
190.7155457421739868
 30
0.0
 11
3745.7683492687237958
 21
190.7154770423697983
 31
0.0
  0
LINE
  5
1640E
  8
0
 10
3745.7683492687237958
 20
190.7154770423697983
 30
0.0
 11
3745.7505529774070965
 21
190.7165527872510893
 31
0.0
  0
LINE
  5
1640F
  8
0
 10
3745.7042606144168531
 20
190.723201785337011
 30
0.0
 11
3745.7042901729969344
 21
190.7210715004189865
 31
0.0
  0
LINE
  5
16410
  8
0
 10
3745.6811179338969851
 20
190.7207499760581868
 30
0.0
 11
3745.681086777802193
 21
190.7228595299127107
 31
0.0
  0
LINE
  5
16411
  8
0
 10
3745.646246386113944
 20
190.7223082825748861
 30
0.0
 11
3745.6463112766450649
 21
190.7198352749460923
 31
0.0
  0
LINE
  5
16412
  8
0
 10
3745.5907507040142264
 20
190.7207503954749086
 30
0.0
 11
3745.5907059259989182
 21
190.7185280770245868
 31
0.0
  0
LINE
  5
16413
  8
0
 10
3745.5275689431141473
 20
190.7147213445749117
 30
0.0
 11
3745.5275689431141473
 21
190.7166467101748992
 31
0.0
  0
LINE
  5
16414
  8
0
 10
3745.5533099912140642
 20
190.7169749841748967
 30
0.0
 11
3745.5533099912140642
 21
190.7189642656749129
 31
0.0
  0
LINE
  5
16415
  8
0
 10
3745.6078711874138207
 20
190.7147213445749117
 30
0.0
 11
3745.6078711874138207
 21
190.717864899374888
 31
0.0
  0
LINE
  5
16416
  8
0
 10
3745.6777473074130285
 20
190.7204041242748929
 30
0.0
 11
3745.6777473074130285
 21
190.7176818141595049
 31
0.0
  0
LINE
  5
16417
  8
0
 10
3745.7437338793138224
 20
190.7147213445749117
 30
0.0
 11
3745.7437338793138224
 21
190.716415387674914
 31
0.0
  0
ARC
  5
16418
  8
0
 10
3745.7775850151579107
 20
177.8470229408574994
 30
0.0
 40
13.0199304224766497
 50
89.9956306231327545
 51
90.8059012420069109
  0
ARC
  5
16419
  8
0
 10
3745.6970049267320064
 20
183.575509587785092
 30
0.0
 40
7.2908770613463521
 50
90.8059012420069109
 51
92.4675467776753663
  0
ARC
  5
1641A
  8
0
 10
3745.4259030689740939
 20
189.8665302666198897
 30
0.0
 40
0.9940177331727547
 50
92.4675467776753663
 51
95.7905606096296651
  0
ARC
  5
1641B
  8
0
 10
3745.3453735058069469
 20
190.660630276693098
 30
0.0
 40
0.1958449219707674
 50
95.7905606096296651
 51
101.2581692517899938
  0
ARC
  5
1641C
  8
0
 10
3745.310546410230927
 20
190.8355875346964865
 30
0.0
 40
0.0174549875171941
 50
101.2581692517903065
 51
114.5727294086488968
  0
ARC
  5
1641D
  8
0
 10
3745.3044170837538331
 20
190.848991997315693
 30
0.0
 40
0.0027156435298545
 50
114.5727294086503036
 51
137.5210181885454119
  0
ARC
  5
1641E
  8
0
 10
3745.3029608451911372
 20
190.850325411686697
 30
0.0
 40
0.0007411500160818
 50
137.5210181886569956
 51
225.5074672401424039
  0
LINE
  5
1641F
  8
0
 10
3745.3455114611870158
 20
190.8572918137438137
 30
0.0
 11
3745.3455070490140315
 21
190.8188510982747914
 31
0.0
  0
ARC
  5
16420
  8
0
 10
3745.2466553579038191
 20
190.0616744795871966
 30
0.0
 40
0.787620379694414
 50
82.7897740630519934
 51
84.7631032384378358
  0
ARC
  5
16421
  8
0
 10
3745.3253591571801735
 20
190.9203568887473068
 30
0.0
 40
0.0746613421468307
 50
254.1747723555704113
 51
264.7631032384377932
  0
ARC
  5
16422
  8
0
 10
3745.3071138074387818
 20
190.8559873826278874
 30
0.0
 40
0.0077559903040059
 50
232.9565048058153991
 51
254.1747723555708092
  0
ARC
  5
16423
  8
0
 10
3745.3462416663010117
 20
190.8189029489425934
 30
0.0
 40
0.0007364448721859
 50
184.0373481840609031
 51
221.2773307491692094
  0
ARC
  5
16424
  8
0
 10
3745.3472993630780365
 20
190.8198314170593903
 30
0.0
 40
0.0021438451411743
 50
221.2773307491704031
 51
243.8978184852709035
  0
ARC
  5
16425
  8
0
 10
3745.352167705741067
 20
190.8297679832031974
 30
0.0
 40
0.0132089301843336
 50
243.8978184852686866
 51
252.9950565272498864
  0
ARC
  5
16426
  8
0
 10
3745.3598790373798693
 20
190.854982831303289
 30
0.0
 40
0.0395765846185418
 50
252.9950565272752101
 51
262.763202137920473
  0
ARC
  5
16427
  8
0
 10
3745.6897794849792263
 20
193.4529939078431084
 30
0.0
 40
2.658449597795931
 50
262.763202137920473
 51
263.0984467168615879
  0
ARC
  5
16428
  8
0
 10
3745.4713286850510485
 20
191.9181709052558915
 30
0.0
 40
1.1089724354258399
 50
264.7746074398107794
 51
267.0735828509307908
  0
ARC
  5
16429
  8
0
 10
3745.3462373190800463
 20
190.8188066162211101
 30
0.0
 40
0.0007312409661973
 50
134.844686962086314
 51
176.741247372429001
  0
ARC
  5
1642A
  8
0
 10
3745.3482524597220618
 20
190.8167805208780123
 30
0.0
 40
0.0035888368340422
 50
103.1715990743594062
 51
134.8446869620806012
  0
ARC
  5
1642B
  8
0
 10
3745.3851272406650423
 20
190.659212810554493
 30
0.0
 40
0.1654138435733019
 50
93.7485257374246288
 51
103.1715990743594062
  0
ARC
  5
1642C
  8
0
 10
3745.6224777075349266
 20
187.0365161813510895
 30
0.0
 40
3.7958774656697161
 50
91.8184014421612034
 51
93.7485257374246288
  0
ARC
  5
1642D
  8
0
 10
3745.7312605888851067
 20
183.6100411184006873
 30
0.0
 40
7.2240788997012038
 50
89.6247130575970203
 51
91.8184014421612034
  0
ARC
  5
1642E
  8
0
 10
3745.7749392191208244
 20
181.3424045294528071
 30
0.0
 40
9.4892528995591636
 50
89.9780296788049867
 51
91.007867047876843
  0
ARC
  5
1642F
  8
0
 10
3745.6010417219968076
 20
189.2492940018896945
 30
0.0
 40
1.580910768014427
 50
89.7468662532734953
 51
96.8804183257221041
  0
LINE
  5
16430
  8
0
 10
3745.4116524972018851
 20
190.8188195919823897
 30
0.0
 11
3745.4242839100138553
 21
190.7871987622519896
 31
0.0
  0
ARC
  5
16431
  8
0
 10
3745.4256534633200317
 20
190.7879743656669973
 30
0.0
 40
0.0015754010548305
 50
209.9502045585360861
 51
253.7052244082325956
  0
ARC
  5
16432
  8
0
 10
3745.4448204666568927
 20
190.8535425986528082
 30
0.0
 40
0.0698876780907046
 50
253.7052244082325956
 51
263.0172110275519799
  0
ARC
  5
16433
  8
0
 10
3745.4853898144738196
 20
191.1847759616860003
 30
0.0
 40
0.403596252701311
 50
263.0172110275519799
 51
266.0276653423738935
  0
ARC
  5
16434
  8
0
 10
3745.7782478561548487
 20
180.8714567671156033
 30
0.0
 40
9.9282834121456016
 50
89.9980952406091887
 51
90.4978855503749458
  0
ARC
  5
16435
  8
0
 10
3745.7475763270808784
 20
184.4009926858857966
 30
0.0
 40
6.398614228697272
 50
90.4978855503749458
 51
92.4122957294918734
  0
ARC
  5
16436
  8
0
 10
3745.4997031535867791
 20
190.284887389343595
 30
0.0
 40
0.5095007137854405
 50
92.4122957294918734
 51
97.853757375361468
  0
ARC
  5
16437
  8
0
 10
3745.4325389247242128
 20
190.7718001677085908
 30
0.0
 40
0.0179774820112005
 50
97.853757375361468
 51
116.1599595374702005
  0
ARC
  5
16438
  8
0
 10
3745.4248948852450667
 20
190.7873623509572099
 30
0.0
 40
0.0006392904376202
 50
116.1599595374118934
 51
191.0225644438696122
  0
ARC
  5
16439
  8
0
 10
3745.6439352982079072
 20
190.8458895517711085
 30
0.0
 40
0.1970975716929259
 50
205.9915521258805882
 51
221.8735716222012115
  0
ARC
  5
1643A
  8
0
 10
3745.6438740934709131
 20
190.845859711396713
 30
0.0
 40
0.1970294800802122
 50
197.3049910745959039
 51
205.9915521258805882
  0
ARC
  5
1643B
  8
0
 10
3745.5090537146579663
 20
190.554674766950086
 30
0.0
 40
0.2386040970956013
 50
91.7915553323162925
 51
102.9054561646718042
  0
ARC
  5
1643C
  8
0
 10
3745.8349653524837777
 20
181.844821445218912
 30
0.0
 40
8.9545485180446338
 50
90.9148954262117712
 51
92.1335725836453463
  0
ARC
  5
1643D
  8
0
 10
3745.7781581876579367
 20
181.7997144126836133
 30
0.0
 40
8.9989265785797432
 50
89.9973276126658988
 51
90.5486645508997867
  0
ARC
  5
1643E
  8
0
 10
3746.0564137010342165
 20
190.7192909432336023
 30
0.0
 40
0.0061274392241961
 50
280.3863939406837744
 51
305.0802728907838173
  0
ARC
  5
1643F
  8
0
 10
3746.0249807840300491
 20
190.8907847951572876
 30
0.0
 40
0.1804781476225405
 50
274.3517548978763898
 51
280.3863939406837744
  0
ARC
  5
16440
  8
0
 10
3745.9486680118898221
 20
191.8935960373081002
 30
0.0
 40
1.1861888548219759
 50
272.5096925814875135
 51
274.3517548978763898
  0
ARC
  5
16441
  8
0
 10
3745.8825929255249321
 20
193.4011121666596011
 30
0.0
 40
2.695152339235376
 50
271.6251127588486725
 51
272.5096925814875135
  0
ARC
  5
16442
  8
0
 10
3745.8183968529287995
 20
195.6638336897999864
 30
0.0
 40
4.9587843382625652
 50
270.9429818989876821
 51
271.6251127588486725
  0
ARC
  5
16443
  8
0
 10
3745.7867216911909054
 20
197.5882494380171863
 30
0.0
 40
6.883460749469811
 50
270.3418213620894903
 51
270.9429818989876821
  0
ARC
  5
16444
  8
0
 10
3745.7770227844439432
 20
199.2139518990186104
 30
0.0
 40
8.5091921419507361
 50
270.0104713148625137
 51
270.3418213620894903
  0
ARC
  5
16445
  8
0
 10
3745.7792310410350183
 20
182.9415505371048027
 30
0.0
 40
7.7828574812752302
 50
89.436000054431787
 51
90.0048081765803545
  0
ARC
  5
16446
  8
0
 10
3745.7939428986860548
 20
184.4360544511627893
 30
0.0
 40
6.2882811573993607
 50
88.7335169882384349
 51
89.436000054431787
  0
ARC
  5
16447
  8
0
 10
3745.8595314298349876
 20
187.4028008822905917
 30
0.0
 40
3.3208098025203912
 50
87.4995324741884701
 51
88.7335169882384349
  0
ARC
  5
16448
  8
0
 10
3745.968507992989089
 20
189.8983072565526982
 30
0.0
 40
0.8229251063625479
 50
84.3142110782624883
 51
87.4995324741884701
  0
ARC
  5
16449
  8
0
 10
3746.0449415721291189
 20
190.6659995945043136
 30
0.0
 40
0.0514371817844728
 50
74.6478681886326854
 51
84.314211078262332
  0
ARC
  5
1644A
  8
0
 10
3746.0574914036142218
 20
190.711710601729294
 30
0.0
 40
0.0040347087285733
 50
55.89485565808301
 51
74.647868188659956
  0
ARC
  5
1644B
  8
0
 10
3746.0592922317709963
 20
190.7143698994565
 30
0.0
 40
0.0008230352623661
 50
20.7612171413398698
 51
55.8948556580206883
  0
ARC
  5
1644C
  8
0
 10
3746.0596528147780191
 20
190.7145827189143006
 30
0.0
 40
0.0004165545242376
 50
312.6961178428131234
 51
10.9219462976015702
  0
LINE
  5
1644D
  8
0
 10
3745.7825149231671276
 20
190.7055853205993969
 30
0.0
 11
3745.7825149231139221
 21
190.707577912974898
 31
0.0
  0
LINE
  5
1644E
  8
0
 10
3745.7825149231139221
 20
190.707577912974898
 30
0.0
 11
3745.822899828575828
 21
190.7077494198368015
 31
0.0
  0
LINE
  5
1644F
  8
0
 10
3745.822899828575828
 20
190.7077494198368015
 30
0.0
 11
3745.8376837857231294
 21
190.7058238582542913
 31
0.0
  0
LINE
  5
16450
  8
0
 10
3745.8376837857231294
 20
190.7058238582542913
 30
0.0
 11
3745.7825149231671276
 21
190.7055853205993969
 31
0.0
  0
LINE
  5
16451
  8
0
 10
3745.7825149231139221
 20
190.7077840531748905
 30
0.0
 11
3745.7825149231139221
 21
190.7097769224749015
 31
0.0
  0
LINE
  5
16452
  8
0
 10
3745.7825149231139221
 20
190.7097769224749015
 30
0.0
 11
3745.8440378770142161
 21
190.7103522415748103
 31
0.0
  0
LINE
  5
16453
  8
0
 10
3745.8440378770142161
 20
190.7103522415748103
 30
0.0
 11
3745.8725894254139348
 21
190.7086263661749115
 31
0.0
  0
LINE
  5
16454
  8
0
 10
3745.8725894254139348
 20
190.7086263661749115
 30
0.0
 11
3745.7825149231139221
 21
190.7077840531748905
 31
0.0
  0
LINE
  5
16455
  8
0
 10
3745.8381112589140685
 20
190.7078916662748895
 30
0.0
 11
3745.8528952160118024
 21
190.7059661047127861
 31
0.0
  0
LINE
  5
16456
  8
0
 10
3745.8528952160118024
 20
190.7059661047127861
 30
0.0
 11
3745.9040903466129748
 21
190.7067222078748898
 31
0.0
  0
LINE
  5
16457
  8
0
 10
3745.9040903466129748
 20
190.7067222078748898
 30
0.0
 11
3745.8760378965312157
 21
190.7084179139914966
 31
0.0
  0
LINE
  5
16458
  8
0
 10
3745.8760378965312157
 20
190.7084179139914966
 30
0.0
 11
3745.8381112589140685
 21
190.7078916662748895
 31
0.0
  0
LINE
  5
16459
  8
0
 10
3745.9552695866141221
 20
190.7080288698749087
 30
0.0
 11
3745.9148790645699592
 21
190.7094384787274066
 31
0.0
  0
LINE
  5
1645A
  8
0
 10
3745.9148790645699592
 20
190.7094384787274066
 30
0.0
 11
3745.8823618646451905
 21
190.7085852430307114
 31
0.0
  0
LINE
  5
1645B
  8
0
 10
3745.8823618646451905
 20
190.7085852430307114
 30
0.0
 11
3745.9109094443138019
 21
190.7068596074749109
 31
0.0
  0
LINE
  5
1645C
  8
0
 10
3745.9109094443138019
 20
190.7068596074749109
 30
0.0
 11
3745.9552695866141221
 21
190.7080288698749087
 31
0.0
  0
LINE
  5
1645D
  8
0
 10
3745.9664051264130649
 20
190.7106407152749057
 30
0.0
 11
3745.99990883131386
 21
190.7099656412748914
 31
0.0
  0
LINE
  5
1645E
  8
0
 10
3745.99990883131386
 20
190.7099656412748914
 30
0.0
 11
3745.9664051264130649
 21
190.7084174945748885
 31
0.0
  0
LINE
  5
1645F
  8
0
 10
3745.9664051264130649
 20
190.7084174945748885
 30
0.0
 11
3745.9260146044139219
 21
190.7098271034749075
 31
0.0
  0
LINE
  5
16460
  8
0
 10
3746.0255109969139085
 20
190.7119903086748991
 30
0.0
 11
3745.9703365177138039
 21
190.7125062612749105
 31
0.0
  0
LINE
  5
16461
  8
0
 10
3745.9703365177138039
 20
190.7125062612749105
 30
0.0
 11
3745.9543999795141644
 21
190.7111999205748134
 31
0.0
  0
LINE
  5
16462
  8
0
 10
3745.9543999795141644
 20
190.7111999205748134
 30
0.0
 11
3746.0038458392141365
 21
190.7102036243749126
 31
0.0
  0
LINE
  5
16463
  8
0
 10
3746.0038458392141365
 20
190.7102036243749126
 30
0.0
 11
3746.0255109969139085
 21
190.7119903086748991
 31
0.0
  0
LINE
  5
16464
  8
0
 10
3745.9793267150130305
 20
190.7144465454749138
 30
0.0
 11
3746.0364218757140407
 21
190.7144465454749138
 31
0.0
  0
ARC
  5
16465
  8
0
 10
3746.0339094099867907
 20
190.7170686286258956
 30
0.0
 40
0.003631501628988
 50
280.3918892836485952
 51
313.7769788622231886
  0
ARC
  5
16466
  8
0
 10
3746.0238126333770197
 20
190.7551711798176086
 30
0.0
 40
0.0430391043545961
 50
277.7102211225852102
 51
284.4665825650499187
  0
LINE
  5
16467
  8
0
 10
3746.0295868873140535
 20
190.7125211798748978
 30
0.0
 11
3745.9744124082208145
 21
190.7130371325748115
 31
0.0
  0
ARC
  5
16468
  8
0
 10
3745.9692427695317747
 20
190.7482996078433928
 30
0.0
 40
0.0356394069278915
 50
278.3404064645433778
 51
283.2143336856748874
  0
ARC
  5
16469
  8
0
 10
3745.975483140680808
 20
190.721723556988394
 30
0.0
 40
0.008340529457761
 50
283.2143336856487963
 51
294.9059229024099977
  0
ARC
  5
1646A
  8
0
 10
3745.9786623283398512
 20
190.714876436972105
 30
0.0
 40
0.0007913383295675
 50
294.9059229025527884
 51
327.0951073587618794
  0
ARC
  5
1646B
  8
0
 10
3745.9725453741361889
 20
190.7150629793081009
 30
0.0
 40
0.0010700556872987
 50
283.3527238382155247
 51
324.8249516243383823
  0
ARC
  5
1646C
  8
0
 10
3745.9499518196030294
 20
190.8102491153346989
 30
0.0
 40
0.0989008749522569
 50
280.1786166840228134
 51
283.3527238382155247
  0
ARC
  5
1646D
  8
0
 10
3745.9331412411370366
 20
190.9977419300552128
 30
0.0
 40
0.2868934914170687
 50
273.2257183453403968
 51
276.8641147006014762
  0
LINE
  5
1646E
  8
0
 10
3745.9492846430139252
 20
190.7113029906749091
 30
0.0
 11
3745.8998319106140116
 21
190.7122994252748924
 31
0.0
  0
ARC
  5
1646F
  8
0
 10
3745.9135781655350002
 20
190.7190824517462033
 30
0.0
 40
0.0053844677436206
 50
276.6935357961751833
 51
300.5734711425972137
  0
ARC
  5
16470
  8
0
 10
3745.9039542349119074
 20
190.7707579212599001
 30
0.0
 40
0.057937409508854
 50
275.7664973374302235
 51
280.1916662357990049
  0
ARC
  5
16471
  8
0
 10
3745.8849967315509275
 20
190.9545813227015003
 30
0.0
 40
0.2427356594303075
 50
273.5039070795888847
 51
275.8590256453055076
  0
LINE
  5
16472
  8
0
 10
3745.916316936414205
 20
190.7144465454749138
 30
0.0
 11
3745.9734200332140972
 21
190.7144465454749138
 31
0.0
  0
ARC
  5
16473
  8
0
 10
3745.9082393244430023
 20
190.7178977509803133
 30
0.0
 40
0.0040765055575113
 50
278.9918919665917088
 51
302.1552818927868884
  0
ARC
  5
16474
  8
0
 10
3745.9220814436471301
 20
190.6304219339685062
 30
0.0
 40
0.0844877243887125
 50
98.9918919665917656
 51
100.5893668282903946
  0
ARC
  5
16475
  8
0
 10
3745.8838995060727939
 20
190.8981620026241046
 30
0.0
 40
0.1860755934317384
 50
273.2644263177926973
 51
276.9934258038343842
  0
ARC
  5
16476
  8
0
 10
3745.8258590804957748
 20
191.9396323016599979
 30
0.0
 40
1.2291617811539881
 50
271.0276018383764836
 51
273.2010590763807727
  0
LINE
  5
16477
  8
0
 10
3745.8479029588129379
 20
190.7106682046749029
 30
0.0
 11
3745.816379994016188
 21
190.7125736954747026
 31
0.0
  0
LINE
  5
16478
  8
0
 10
3745.816379994016188
 20
190.7125736954747026
 30
0.0
 11
3745.8362528694337925
 21
190.7132685031774031
 31
0.0
  0
ARC
  5
16479
  8
0
 10
3745.8326141156439917
 20
190.8173440631726976
 30
0.0
 40
0.1041391507429909
 50
272.0023946775273771
 51
276.7051980632758159
  0
ARC
  5
1647A
  8
0
 10
3745.842947605831796
 20
190.729448072429193
 30
0.0
 40
0.0156378162430937
 50
276.7051980632498953
 51
286.4006319514552956
  0
LINE
  5
1647B
  8
0
 10
3745.8473629751138105
 20
190.7144465454749138
 30
0.0
 11
3745.9104089046140871
 21
190.7144465454749138
 31
0.0
  0
LINE
  5
1647C
  8
0
 10
3745.9453476352141479
 20
190.7110650075748879
 30
0.0
 11
3745.8958949027141898
 21
190.7120614422748872
 31
0.0
  0
LINE
  5
1647D
  8
0
 10
3745.8958949027141898
 20
190.7120614422748872
 30
0.0
 11
3745.8508569746868488
 21
190.7104896411703976
 31
0.0
  0
LINE
  5
1647E
  8
0
 10
3745.8508569746868488
 20
190.7104896411703976
 30
0.0
 11
3745.879408523013808
 21
190.7087637657749042
 31
0.0
  0
LINE
  5
1647F
  8
0
 10
3745.879408523013808
 20
190.7087637657749042
 30
0.0
 11
3745.9453476352141479
 21
190.7110650075748879
 31
0.0
  0
LINE
  5
16480
  8
0
 10
3745.9664051264130649
 20
190.7106407152679139
 30
0.0
 11
3745.9504629717139323
 21
190.7109619374749059
 31
0.0
  0
LINE
  5
16481
  8
0
 10
3745.9504629717139323
 20
190.7109619374749059
 30
0.0
 11
3745.9260146044139219
 21
190.7098271034749075
 31
0.0
  0
LINE
  5
16482
  8
0
 10
3745.8414468893138292
 20
190.7144465454749138
 30
0.0
 11
3745.8058543059141812
 21
190.7144465454749138
 31
0.0
  0
LINE
  5
16483
  8
0
 10
3745.8058543059141812
 20
190.7144465454749138
 30
0.0
 11
3745.7956256594138722
 21
190.7138282472747903
 31
0.0
  0
LINE
  5
16484
  8
0
 10
3745.7956256594138722
 20
190.7138282472747903
 30
0.0
 11
3745.8134219511139236
 21
190.7127525023749115
 31
0.0
  0
LINE
  5
16485
  8
0
 10
3745.8134219511139236
 20
190.7127525023749115
 30
0.0
 11
3745.8271085818360007
 21
190.7131824030797134
 31
0.0
  0
ARC
  5
16486
  8
0
 10
3745.8214883423647734
 20
190.8921124242444876
 30
0.0
 40
0.1790182660113864
 50
271.7990841407839184
 51
275.4138835177711826
  0
ARC
  5
16487
  8
0
 10
3745.8366273333108438
 20
190.73237177704479
 30
0.0
 40
0.0185618438444179
 50
275.4138835177711258
 51
285.0492098968377945
  0
LINE
  5
16488
  8
0
 10
3745.8410838611139297
 20
190.7105308050749102
 30
0.0
 11
3745.8095608963139966
 21
190.7124362958749089
 31
0.0
  0
LINE
  5
16489
  8
0
 10
3745.8095608963139966
 20
190.7124362958749089
 30
0.0
 11
3745.7785779152141004
 21
190.7121794521420099
 31
0.0
  0
LINE
  5
1648A
  8
0
 10
3745.7785779152141004
 20
190.7099810586749129
 30
0.0
 11
3745.8410838611139297
 21
190.7105308050749102
 31
0.0
  0
LINE
  5
1648B
  8
0
 10
3745.8066028530211042
 20
190.7126151027987078
 30
0.0
 11
3745.7785779152691248
 21
190.7123855515434059
 31
0.0
  0
LINE
  5
1648C
  8
0
 10
3745.7785779152141004
 20
190.7136221478756966
 30
0.0
 11
3745.7888065617039501
 21
190.7136908476799135
 31
0.0
  0
LINE
  5
1648D
  8
0
 10
3745.7888065617039501
 20
190.7136908476799135
 30
0.0
 11
3745.8066028530211042
 21
190.7126151027987078
 31
0.0
  0
LINE
  5
1648E
  8
0
 10
3745.8528952160118024
 20
190.7059661047127861
 30
0.0
 11
3745.8528656574308116
 21
190.7080963896308106
 31
0.0
  0
LINE
  5
1648F
  8
0
 10
3745.8760378965312157
 20
190.7084179139914966
 30
0.0
 11
3745.8760690526260078
 21
190.706308360137001
 31
0.0
  0
LINE
  5
16490
  8
0
 10
3745.9109094443138019
 20
190.7068596074749109
 30
0.0
 11
3745.9108445537822263
 21
190.709332615103591
 31
0.0
  0
LINE
  5
16491
  8
0
 10
3745.9664051264130649
 20
190.7084174945748885
 30
0.0
 11
3745.9664499044288277
 21
190.7106398130252103
 31
0.0
  0
LINE
  5
16492
  8
0
 10
3746.0295868873140535
 20
190.7144465454749138
 30
0.0
 11
3746.0295868873140535
 21
190.7125211798748978
 31
0.0
  0
LINE
  5
16493
  8
0
 10
3746.0038458392141365
 20
190.7121929058747867
 30
0.0
 11
3746.0038458392141365
 21
190.7102036243749126
 31
0.0
  0
LINE
  5
16494
  8
0
 10
3745.9492846430139252
 20
190.7144465454749138
 30
0.0
 11
3745.9492846430139252
 21
190.7113029906749091
 31
0.0
  0
LINE
  5
16495
  8
0
 10
3745.879408523013808
 20
190.7087637657749042
 30
0.0
 11
3745.879408523013808
 21
190.7114860758902068
 31
0.0
  0
LINE
  5
16496
  8
0
 10
3745.8134219511139236
 20
190.7144465454749138
 30
0.0
 11
3745.8134219511139236
 21
190.7127525023749115
 31
0.0
  0
ARC
  5
16497
  8
0
 10
3745.8595314298349876
 20
194.0263670077590916
 30
0.0
 40
3.3208098025203912
 50
271.2664830117615793
 51
272.500467525811473
  0
LINE
  5
16498
  8
0
 10
3745.7825149231671276
 20
190.7235825694502864
 30
0.0
 11
3745.7825149231139221
 21
190.7215899770748138
 31
0.0
  0
LINE
  5
16499
  8
0
 10
3745.7825149231139221
 20
190.7215899770748138
 30
0.0
 11
3745.822899828575828
 21
190.7214184702129103
 31
0.0
  0
LINE
  5
1649A
  8
0
 10
3745.822899828575828
 20
190.7214184702129103
 30
0.0
 11
3745.8376837857231294
 21
190.7233440317953921
 31
0.0
  0
LINE
  5
1649B
  8
0
 10
3745.8376837857231294
 20
190.7233440317953921
 30
0.0
 11
3745.7825149231671276
 21
190.7235825694502864
 31
0.0
  0
LINE
  5
1649C
  8
0
 10
3745.7825149231139221
 20
190.7213838368749066
 30
0.0
 11
3745.7825149231139221
 21
190.7193909675748955
 31
0.0
  0
LINE
  5
1649D
  8
0
 10
3745.7825149231139221
 20
190.7193909675748955
 30
0.0
 11
3745.8440378770142161
 21
190.7188156484749015
 31
0.0
  0
LINE
  5
1649E
  8
0
 10
3745.8440378770142161
 20
190.7188156484749015
 30
0.0
 11
3745.8725894254139348
 21
190.720541523874914
 31
0.0
  0
LINE
  5
1649F
  8
0
 10
3745.8725894254139348
 20
190.720541523874914
 30
0.0
 11
3745.7825149231139221
 21
190.7213838368749066
 31
0.0
  0
LINE
  5
164A0
  8
0
 10
3745.8381112589140685
 20
190.7212762237749075
 30
0.0
 11
3745.8528952160118024
 21
190.723201785337011
 31
0.0
  0
LINE
  5
164A1
  8
0
 10
3745.8528952160118024
 20
190.723201785337011
 30
0.0
 11
3745.9040903466129748
 21
190.7224456821749072
 31
0.0
  0
LINE
  5
164A2
  8
0
 10
3745.9040903466129748
 20
190.7224456821749072
 30
0.0
 11
3745.8760378965312157
 21
190.7207499760581868
 31
0.0
  0
LINE
  5
164A3
  8
0
 10
3745.8760378965312157
 20
190.7207499760581868
 30
0.0
 11
3745.8381112589140685
 21
190.7212762237749075
 31
0.0
  0
LINE
  5
164A4
  8
0
 10
3745.9552695866141221
 20
190.7211390201748884
 30
0.0
 11
3745.9148790645699592
 21
190.7197294113223052
 31
0.0
  0
LINE
  5
164A5
  8
0
 10
3745.9148790645699592
 20
190.7197294113223052
 30
0.0
 11
3745.8823618646451905
 21
190.7205826470191141
 31
0.0
  0
LINE
  5
164A6
  8
0
 10
3745.8823618646451905
 20
190.7205826470191141
 30
0.0
 11
3745.9109094443138019
 21
190.7223082825748861
 31
0.0
  0
LINE
  5
164A7
  8
0
 10
3745.9109094443138019
 20
190.7223082825748861
 30
0.0
 11
3745.9552695866141221
 21
190.7211390201748884
 31
0.0
  0
LINE
  5
164A8
  8
0
 10
3745.9664051264130649
 20
190.7185271747748914
 30
0.0
 11
3745.99990883131386
 21
190.719202248774792
 31
0.0
  0
LINE
  5
164A9
  8
0
 10
3745.99990883131386
 20
190.719202248774792
 30
0.0
 11
3745.9664051264130649
 21
190.7207503954749086
 31
0.0
  0
LINE
  5
164AA
  8
0
 10
3745.9664051264130649
 20
190.7207503954749086
 30
0.0
 11
3745.9260146044139219
 21
190.7193407865748895
 31
0.0
  0
LINE
  5
164AB
  8
0
 10
3746.0255109969139085
 20
190.717177581374898
 30
0.0
 11
3745.9703365177138039
 21
190.7166616287748866
 31
0.0
  0
LINE
  5
164AC
  8
0
 10
3745.9703365177138039
 20
190.7166616287748866
 30
0.0
 11
3745.9543999795141644
 21
190.7179679694748984
 31
0.0
  0
LINE
  5
164AD
  8
0
 10
3745.9543999795141644
 20
190.7179679694748984
 30
0.0
 11
3746.0038458392141365
 21
190.7189642656749129
 31
0.0
  0
LINE
  5
164AE
  8
0
 10
3746.0038458392141365
 20
190.7189642656749129
 30
0.0
 11
3746.0255109969139085
 21
190.717177581374898
 31
0.0
  0
LINE
  5
164AF
  8
0
 10
3745.9793267150130305
 20
190.7147213445749117
 30
0.0
 11
3746.0364218757140407
 21
190.7147213445749117
 31
0.0
  0
ARC
  5
164B0
  8
0
 10
3746.0339094099867907
 20
190.7120992614237878
 30
0.0
 40
0.003631501628988
 50
46.2230211377767972
 51
79.6081107163514048
  0
ARC
  5
164B1
  8
0
 10
3746.0238126333770197
 20
190.6739967102321032
 30
0.0
 40
0.0430391043545961
 50
75.5334174349500955
 51
82.2897788774147756
  0
LINE
  5
164B2
  8
0
 10
3746.0295868873140535
 20
190.7166467101748992
 30
0.0
 11
3745.9744124082208145
 21
190.7161307574749003
 31
0.0
  0
ARC
  5
164B3
  8
0
 10
3745.9692427695317747
 20
190.6808682822062906
 30
0.0
 40
0.0356394069278915
 50
76.7856663143250842
 51
81.6595935354565512
  0
ARC
  5
164B4
  8
0
 10
3745.975483140680808
 20
190.7074443330612894
 30
0.0
 40
0.008340529457761
 50
65.0940770975899881
 51
76.7856663143511895
  0
ARC
  5
164B5
  8
0
 10
3745.9786623283398512
 20
190.7142914530776068
 30
0.0
 40
0.0007913383295675
 50
32.9048926412380212
 51
65.0940770974471405
  0
ARC
  5
164B6
  8
0
 10
3745.9725453741361889
 20
190.7141049107416961
 30
0.0
 40
0.0010700556872987
 50
35.1750483756615608
 51
76.6472761617844753
  0
ARC
  5
164B7
  8
0
 10
3745.9499518196030294
 20
190.6189187747150982
 30
0.0
 40
0.0989008749522569
 50
76.6472761617844753
 51
79.8213833159771866
  0
ARC
  5
164B8
  8
0
 10
3745.9331412411370366
 20
190.431425959994499
 30
0.0
 40
0.2868934914170687
 50
83.135885299398538
 51
86.7742816546595463
  0
LINE
  5
164B9
  8
0
 10
3745.9492846430139252
 20
190.717864899374888
 30
0.0
 11
3745.8998319106140116
 21
190.7168684647749046
 31
0.0
  0
ARC
  5
164BA
  8
0
 10
3745.9135781655350002
 20
190.7100854383035085
 30
0.0
 40
0.0053844677436206
 50
59.4265288574028432
 51
83.3064642038248024
  0
ARC
  5
164BB
  8
0
 10
3745.9039542349119074
 20
190.6584099687898117
 30
0.0
 40
0.057937409508854
 50
79.8083337642009809
 51
84.2335026625698333
  0
ARC
  5
164BC
  8
0
 10
3745.8849967315509275
 20
190.4745865673482967
 30
0.0
 40
0.2427356594303075
 50
84.1409743546944782
 51
86.4960929204111437
  0
LINE
  5
164BD
  8
0
 10
3745.916316936414205
 20
190.7147213445749117
 30
0.0
 11
3745.9734200332140972
 21
190.7147213445749117
 31
0.0
  0
ARC
  5
164BE
  8
0
 10
3745.9082393244430023
 20
190.7112701390693985
 30
0.0
 40
0.0040765055575113
 50
57.84471810721314
 51
81.0081080334082486
  0
ARC
  5
164BF
  8
0
 10
3745.9220814436471301
 20
190.7987459560812056
 30
0.0
 40
0.0844877243887125
 50
259.4106331717096054
 51
261.0081080334082912
  0
ARC
  5
164C0
  8
0
 10
3745.8838995060727939
 20
190.5310058874256072
 30
0.0
 40
0.1860755934317384
 50
83.0065741961656158
 51
86.7355736822072174
  0
ARC
  5
164C1
  8
0
 10
3745.8258590804957748
 20
189.4895355883897992
 30
0.0
 40
1.2291617811539881
 50
86.7989409236191563
 51
88.9723981616234738
  0
LINE
  5
164C2
  8
0
 10
3745.8479029588129379
 20
190.7184996853748942
 30
0.0
 11
3745.816379994016188
 21
190.7165941945750092
 31
0.0
  0
LINE
  5
164C3
  8
0
 10
3745.816379994016188
 20
190.7165941945750092
 30
0.0
 11
3745.8362528694337925
 21
190.7158993868723087
 31
0.0
  0
ARC
  5
164C4
  8
0
 10
3745.8326141156439917
 20
190.6118238268770995
 30
0.0
 40
0.1041391507429909
 50
83.2948019367242267
 51
87.9976053224726229
  0
ARC
  5
164C5
  8
0
 10
3745.842947605831796
 20
190.6997198176204904
 30
0.0
 40
0.0156378162430937
 50
73.5993680485446617
 51
83.2948019367501047
  0
LINE
  5
164C6
  8
0
 10
3745.8473629751138105
 20
190.7147213445749117
 30
0.0
 11
3745.9104089046140871
 21
190.7147213445749117
 31
0.0
  0
LINE
  5
164C7
  8
0
 10
3745.9453476352141479
 20
190.7181028824749092
 30
0.0
 11
3745.8958949027141898
 21
190.7171064477749098
 31
0.0
  0
LINE
  5
164C8
  8
0
 10
3745.8958949027141898
 20
190.7171064477749098
 30
0.0
 11
3745.8508569746868488
 21
190.7186782488793142
 31
0.0
  0
LINE
  5
164C9
  8
0
 10
3745.8508569746868488
 20
190.7186782488793142
 30
0.0
 11
3745.879408523013808
 21
190.7204041242748929
 31
0.0
  0
LINE
  5
164CA
  8
0
 10
3745.879408523013808
 20
190.7204041242748929
 30
0.0
 11
3745.9453476352141479
 21
190.7181028824749092
 31
0.0
  0
LINE
  5
164CB
  8
0
 10
3745.9664051264130649
 20
190.7185271747819115
 30
0.0
 11
3745.9504629717139323
 21
190.7182059525748912
 31
0.0
  0
LINE
  5
164CC
  8
0
 10
3745.9504629717139323
 20
190.7182059525748912
 30
0.0
 11
3745.9260146044139219
 21
190.7193407865748895
 31
0.0
  0
LINE
  5
164CD
  8
0
 10
3745.8414468893138292
 20
190.7147213445749117
 30
0.0
 11
3745.8058543059141812
 21
190.7147213445749117
 31
0.0
  0
LINE
  5
164CE
  8
0
 10
3745.8058543059141812
 20
190.7147213445749117
 30
0.0
 11
3745.7956256594138722
 21
190.715339642774893
 31
0.0
  0
LINE
  5
164CF
  8
0
 10
3745.7956256594138722
 20
190.715339642774893
 30
0.0
 11
3745.8134219511139236
 21
190.716415387674914
 31
0.0
  0
LINE
  5
164D0
  8
0
 10
3745.8134219511139236
 20
190.716415387674914
 30
0.0
 11
3745.8271085818360007
 21
190.7159854869699984
 31
0.0
  0
ARC
  5
164D1
  8
0
 10
3745.8214883423647734
 20
190.5370554658053095
 30
0.0
 40
0.1790182660113864
 50
84.5861164822287748
 51
88.2009158592160958
  0
ARC
  5
164D2
  8
0
 10
3745.8366273333108438
 20
190.6967961130048934
 30
0.0
 40
0.0185618438444179
 50
74.9507901031621486
 51
84.5861164822289169
  0
LINE
  5
164D3
  8
0
 10
3745.8410838611139297
 20
190.7186370849748869
 30
0.0
 11
3745.8095608963139966
 21
190.7167315941748029
 31
0.0
  0
LINE
  5
164D4
  8
0
 10
3745.8095608963139966
 20
190.7167315941748029
 30
0.0
 11
3745.7785779152141004
 21
190.7169884379077018
 31
0.0
  0
LINE
  5
164D5
  8
0
 10
3745.7785779152141004
 20
190.7191868313749126
 30
0.0
 11
3745.8410838611139297
 21
190.7186370849748869
 31
0.0
  0
LINE
  5
164D6
  8
0
 10
3745.8066028530211042
 20
190.7165527872510893
 30
0.0
 11
3745.7785779152691248
 21
190.7167823385063059
 31
0.0
  0
LINE
  5
164D7
  8
0
 10
3745.7785779152141004
 20
190.7155457421739868
 30
0.0
 11
3745.7888065617039501
 21
190.7154770423697983
 31
0.0
  0
LINE
  5
164D8
  8
0
 10
3745.7888065617039501
 20
190.7154770423697983
 30
0.0
 11
3745.8066028530211042
 21
190.7165527872510893
 31
0.0
  0
LINE
  5
164D9
  8
0
 10
3745.8528952160118024
 20
190.723201785337011
 30
0.0
 11
3745.8528656574308116
 21
190.7210715004189865
 31
0.0
  0
LINE
  5
164DA
  8
0
 10
3745.8760378965312157
 20
190.7207499760581868
 30
0.0
 11
3745.8760690526260078
 21
190.7228595299127107
 31
0.0
  0
LINE
  5
164DB
  8
0
 10
3745.9109094443138019
 20
190.7223082825748861
 30
0.0
 11
3745.9108445537822263
 21
190.7198352749460923
 31
0.0
  0
LINE
  5
164DC
  8
0
 10
3745.9664051264130649
 20
190.7207503954749086
 30
0.0
 11
3745.9664499044288277
 21
190.7185280770245868
 31
0.0
  0
LINE
  5
164DD
  8
0
 10
3746.0295868873140535
 20
190.7147213445749117
 30
0.0
 11
3746.0295868873140535
 21
190.7166467101748992
 31
0.0
  0
LINE
  5
164DE
  8
0
 10
3746.0038458392141365
 20
190.7169749841748967
 30
0.0
 11
3746.0038458392141365
 21
190.7189642656749129
 31
0.0
  0
LINE
  5
164DF
  8
0
 10
3745.9492846430139252
 20
190.7147213445749117
 30
0.0
 11
3745.9492846430139252
 21
190.717864899374888
 31
0.0
  0
LINE
  5
164E0
  8
0
 10
3745.879408523013808
 20
190.7204041242748929
 30
0.0
 11
3745.879408523013808
 21
190.7176818141595049
 31
0.0
  0
LINE
  5
164E1
  8
0
 10
3745.8134219511139236
 20
190.7147213445749117
 30
0.0
 11
3745.8134219511139236
 21
190.716415387674914
 31
0.0
  0
ARC
  5
164E2
  8
0
 10
3745.7795708152689258
 20
177.8470229408574994
 30
0.0
 40
13.0199304224766497
 50
89.1940987579930749
 51
90.0043693768672455
  0
ARC
  5
164E3
  8
0
 10
3745.8601509036961943
 20
183.575509587785092
 30
0.0
 40
7.2908770613463521
 50
87.5324532223246337
 51
89.1940987579930749
  0
ARC
  5
164E4
  8
0
 10
3746.1312527614531973
 20
189.8665302666198897
 30
0.0
 40
0.9940177331727547
 50
84.2094393903703349
 51
87.5324532223246337
  0
ARC
  5
164E5
  8
0
 10
3746.2117823246198896
 20
190.660630276693098
 30
0.0
 40
0.1958449219707674
 50
78.7418307482099635
 51
84.2094393903703349
  0
ARC
  5
164E6
  8
0
 10
3746.246609420196819
 20
190.8355875346964865
 30
0.0
 40
0.0174549875171941
 50
65.4272705913510322
 51
78.7418307482096651
  0
ARC
  5
164E7
  8
0
 10
3746.2527387466748223
 20
190.848991997315693
 30
0.0
 40
0.0027156435298545
 50
42.4789818114545383
 51
65.4272705913496821
  0
ARC
  5
164E8
  8
0
 10
3746.2541949852370635
 20
190.850325411686697
 30
0.0
 40
0.0007411500160818
 50
314.4925327598575109
 51
42.4789818113428908
  0
LINE
  5
164E9
  8
0
 10
3746.2116443692398207
 20
190.8572918137438137
 30
0.0
 11
3746.2116487814141692
 21
190.8188510982747914
 31
0.0
  0
ARC
  5
164EA
  8
0
 10
3746.3105004725239269
 20
190.0616744795871966
 30
0.0
 40
0.787620379694414
 50
95.2368967615621642
 51
97.210225936948035
  0
ARC
  5
164EB
  8
0
 10
3746.2317966732471177
 20
190.9203568887473068
 30
0.0
 40
0.0746613421468307
 50
275.2368967615620932
 51
285.8252276444296172
  0
ARC
  5
164EC
  8
0
 10
3746.2500420229880547
 20
190.8559873826278874
 30
0.0
 40
0.0077559903040059
 50
285.8252276444292193
 51
307.0434951941845725
  0
ARC
  5
164ED
  8
0
 10
3746.210914164127189
 20
190.8189029489425934
 30
0.0
 40
0.0007364448721859
 50
318.7226692508307906
 51
355.9626518159391253
  0
ARC
  5
164EE
  8
0
 10
3746.2098564673501642
 20
190.8198314170593903
 30
0.0
 40
0.0021438451411743
 50
296.102181514729125
 51
318.7226692508295969
  0
ARC
  5
164EF
  8
0
 10
3746.2049881246871337
 20
190.8297679832031974
 30
0.0
 40
0.0132089301843336
 50
287.0049434727500852
 51
296.1021815147312282
  0
ARC
  5
164F0
  8
0
 10
3746.1972767930478767
 20
190.854982831303289
 30
0.0
 40
0.0395765846185418
 50
277.236797862079527
 51
287.0049434727247899
  0
ARC
  5
164F1
  8
0
 10
3745.8673763454489745
 20
193.4529939078431084
 30
0.0
 40
2.658449597795931
 50
276.9015532831385258
 51
277.236797862079527
  0
ARC
  5
164F2
  8
0
 10
3746.0858271453757879
 20
191.9181709052558915
 30
0.0
 40
1.1089724354258399
 50
272.9264171490692092
 51
275.2253925601892774
  0
ARC
  5
164F3
  8
0
 10
3746.2109185113467902
 20
190.8188066162211101
 30
0.0
 40
0.0007312409661973
 50
3.2587526275710039
 51
45.1553130379136505
  0
ARC
  5
164F4
  8
0
 10
3746.208903370706139
 20
190.8167805208780123
 30
0.0
 40
0.0035888368340422
 50
45.1553130379193917
 51
76.8284009256405795
  0
ARC
  5
164F5
  8
0
 10
3746.1720285897631584
 20
190.659212810554493
 30
0.0
 40
0.1654138435733019
 50
76.8284009256405795
 51
86.2514742625493938
  0
ARC
  5
164F6
  8
0
 10
3745.9346781228928194
 20
187.0365161813510895
 30
0.0
 40
3.7958774656697161
 50
86.2514742625493938
 51
88.1815985578387966
  0
ARC
  5
164F7
  8
0
 10
3745.8258952415421845
 20
183.6100411184006873
 30
0.0
 40
7.2240788997012038
 50
88.1815985578387966
 51
90.3752869424029939
  0
ARC
  5
164F8
  8
0
 10
3745.7822166113069215
 20
181.3424045294528071
 30
0.0
 40
9.4892528995591636
 50
88.992132952123157
 51
90.0219703211950133
  0
ARC
  5
164F9
  8
0
 10
3745.9561141084309384
 20
189.2492940018896945
 30
0.0
 40
1.580910768014427
 50
83.1195816742778959
 51
90.2531337467265189
  0
LINE
  5
164FA
  8
0
 10
3746.1455033332258608
 20
190.8188195919823897
 30
0.0
 11
3746.1328719204129811
 21
190.7871987622519896
 31
0.0
  0
ARC
  5
164FB
  8
0
 10
3746.131502367108169
 20
190.7879743656669973
 30
0.0
 40
0.0015754010548305
 50
286.2947755917672907
 51
330.0497954414640276
  0
ARC
  5
164FC
  8
0
 10
3746.1123353637708533
 20
190.8535425986528082
 30
0.0
 40
0.0698876780907046
 50
276.9827889724480201
 51
286.2947755917672907
  0
ARC
  5
164FD
  8
0
 10
3746.0717660159539264
 20
191.1847759616860003
 30
0.0
 40
0.403596252701311
 50
273.9723346576261065
 51
276.9827889724480201
  0
ARC
  5
164FE
  8
0
 10
3745.7789079742728973
 20
180.8714567671156033
 30
0.0
 40
9.9282834121456016
 50
89.5021144496250685
 51
90.0019047593908113
  0
ARC
  5
164FF
  8
0
 10
3745.8095795033468676
 20
184.4009926858857966
 30
0.0
 40
6.398614228697272
 50
87.5877042705081408
 51
89.5021144496250685
  0
ARC
  5
16500
  8
0
 10
3746.0574526768400574
 20
190.284887389343595
 30
0.0
 40
0.5095007137854405
 50
82.1462426246385462
 51
87.5877042705081408
  0
ARC
  5
16501
  8
0
 10
3746.1246169057030784
 20
190.7718001677085908
 30
0.0
 40
0.0179774820112005
 50
63.8400404625298421
 51
82.1462426246385462
  0
ARC
  5
16502
  8
0
 10
3746.132260945183134
 20
190.7873623509572099
 30
0.0
 40
0.0006392904376202
 50
348.9774355561302741
 51
63.8400404625880924
  0
ARC
  5
16503
  8
0
 10
3745.9132205322198388
 20
190.8458895517711085
 30
0.0
 40
0.1970975716929259
 50
318.1264283777987885
 51
334.0084478741193266
  0
ARC
  5
16504
  8
0
 10
3745.9132817369568329
 20
190.845859711396713
 30
0.0
 40
0.1970294800802122
 50
334.0084478741193266
 51
342.6950089254040108
  0
ARC
  5
16505
  8
0
 10
3746.0481021157688701
 20
190.554674766950086
 30
0.0
 40
0.2386040970956013
 50
77.0945438353281673
 51
88.2084446676837217
  0
ARC
  5
16506
  8
0
 10
3745.7221904779430588
 20
181.844821445218912
 30
0.0
 40
8.9545485180446338
 50
87.8664274163546537
 51
89.0851045737882146
  0
ARC
  5
16507
  8
0
 10
3745.7789976427698093
 20
181.7997144126836133
 30
0.0
 40
8.9989265785797432
 50
89.4513354491002133
 51
90.002672387334087
  0
ARC
  5
16508
  8
0
 10
3741.4203174652047892
 20
190.9835042638219988
 30
0.0
 40
0.0393766717105722
 50
60.7824705232384872
 51
178.8374494577369944
  0
ARC
  5
16509
  8
0
 10
3741.4203282679568474
 20
190.9835235791921093
 30
0.0
 40
0.0393545406695826
 50
304.7068426929055249
 51
60.7824705232384872
  0
ARC
  5
1650A
  8
0
 10
3741.420316579727114
 20
190.9835404548327915
 30
0.0
 40
0.0393750687469035
 50
178.890075049453003
 51
304.7068426929072871
  0
LINE
  5
1650B
  8
0
 10
3741.4754283094139282
 20
190.896903062274788
 30
0.0
 11
3741.4203098221591972
 21
190.8969030622756975
 31
0.0
  0
ARC
  5
1650C
  8
0
 10
3741.4203098221591972
 20
190.9835176119306936
 30
0.0
 40
0.0866145496550495
 50
359.9997509733349261
 51
269.9999999991401864
  0
LINE
  5
1650D
  8
0
 10
3741.506924371813966
 20
190.983517235474892
 30
0.0
 11
3741.506924132252152
 21
190.9283991252754049
 31
0.0
  0
ARC
  5
1650E
  8
0
 10
3741.4756791772479119
 20
190.9281480191872049
 30
0.0
 40
0.0312459640193779
 50
269.5399768801206051
 51
0.4604586348311097
  0
ARC
  5
1650F
  8
0
 10
3741.8691525081899272
 20
190.9835042638219988
 30
0.0
 40
0.0393766717105722
 50
1.1625505422645861
 51
119.2175294767614986
  0
ARC
  5
16510
  8
0
 10
3741.8691417054378689
 20
190.9835235791921093
 30
0.0
 40
0.0393545406695826
 50
119.2175294767614986
 51
235.2931573070945035
  0
ARC
  5
16511
  8
0
 10
3741.8691533936671476
 20
190.9835404548327915
 30
0.0
 40
0.0393750687469035
 50
235.2931573070927129
 51
1.1099249505470401
  0
LINE
  5
16512
  8
0
 10
3741.8140416639821524
 20
190.896903062274788
 30
0.0
 11
3741.8691601512368834
 21
190.8969030622756975
 31
0.0
  0
ARC
  5
16513
  8
0
 10
3741.8691601512359739
 20
190.9835176119306936
 30
0.0
 40
0.0866145496550495
 50
270.0000000008598136
 51
180.0002490266651023
  0
LINE
  5
16514
  8
0
 10
3741.7825456015821146
 20
190.983517235474892
 30
0.0
 11
3741.7825458411439286
 21
190.9283991252754049
 31
0.0
  0
ARC
  5
16515
  8
0
 10
3741.8137907961481687
 20
190.9281480191872049
 30
0.0
 40
0.0312459640193779
 50
179.5395413651689012
 51
270.4600231198793949
  0
ARC
  5
16516
  8
0
 10
3741.4203174652047892
 20
190.5347229181705018
 30
0.0
 40
0.0393766717105722
 50
181.1625505422628919
 51
299.2175294767615128
  0
ARC
  5
16517
  8
0
 10
3741.4203282679568474
 20
190.534703602800306
 30
0.0
 40
0.0393545406695826
 50
299.2175294767615128
 51
55.2931573070945532
  0
ARC
  5
16518
  8
0
 10
3741.420316579727114
 20
190.5346867271595954
 30
0.0
 40
0.0393750687469035
 50
55.2931573070926774
 51
181.109924950546997
  0
LINE
  5
16519
  8
0
 10
3741.4754283094139282
 20
190.6213241197175989
 30
0.0
 11
3741.4203098221591972
 21
190.6213241197168031
 31
0.0
  0
ARC
  5
1651A
  8
0
 10
3741.4203098221591972
 20
190.5347095700616933
 30
0.0
 40
0.0866145496550495
 50
90.0000000008598136
 51
0.0002490266651019
  0
LINE
  5
1651B
  8
0
 10
3741.506924371813966
 20
190.5347099465176086
 30
0.0
 11
3741.506924132252152
 21
190.5898280567170104
 31
0.0
  0
ARC
  5
1651C
  8
0
 10
3741.4756791772479119
 20
190.5900791628052957
 30
0.0
 40
0.0312459640193779
 50
359.5395413651688727
 51
90.4600231198793949
  0
ARC
  5
1651D
  8
0
 10
3741.8691525081899272
 20
190.5347229181705018
 30
0.0
 40
0.0393766717105722
 50
240.7824705232384872
 51
358.8374494577370228
  0
ARC
  5
1651E
  8
0
 10
3741.8691417054378689
 20
190.534703602800306
 30
0.0
 40
0.0393545406695826
 50
124.706842692905397
 51
240.7824705232384872
  0
ARC
  5
1651F
  8
0
 10
3741.8691533936671476
 20
190.5346867271595954
 30
0.0
 40
0.0393750687469035
 50
358.890075049453003
 51
124.7068426929073013
  0
LINE
  5
16520
  8
0
 10
3741.8140416639821524
 20
190.6213241197175989
 30
0.0
 11
3741.8691601512368834
 21
190.6213241197168031
 31
0.0
  0
ARC
  5
16521
  8
0
 10
3741.8691601512359739
 20
190.5347095700616933
 30
0.0
 40
0.0866145496550495
 50
179.9997509733348977
 51
89.9999999991401864
  0
LINE
  5
16522
  8
0
 10
3741.7825456015821146
 20
190.5347099465176086
 30
0.0
 11
3741.7825458411439286
 21
190.5898280567170104
 31
0.0
  0
ARC
  5
16523
  8
0
 10
3741.8137907961481687
 20
190.5900791628052957
 30
0.0
 40
0.0312459640193779
 50
89.5399768801206335
 51
180.4604586348310988
  0
ARC
  5
16524
  8
0
 10
3741.5149784430191175
 20
190.276631184561694
 30
0.0
 40
0.021751132325462
 50
75.423398733711025
 51
180.4218813335947971
  0
ARC
  5
16525
  8
0
 10
3741.5150886372839523
 20
190.2770549362273016
 30
0.0
 40
0.0213132873183441
 50
343.6133223961184058
 51
75.423398733711025
  0
ARC
  5
16526
  8
0
 10
3741.5145775045789378
 20
190.277205241628991
 30
0.0
 40
0.0218460615261517
 50
237.8465281933902986
 51
343.6133223961168142
  0
ARC
  5
16527
  8
0
 10
3741.5140134552079871
 20
190.2763079312584011
 30
0.0
 40
0.0207861947450847
 50
179.5504308533733138
 51
237.8465281933902986
  0
ARC
  5
16528
  8
0
 10
3741.5216216799531139
 20
190.2686469443719943
 30
0.0
 40
0.0569110222471084
 50
126.1141616507516972
 51
191.1926523819876991
  0
ARC
  5
16529
  8
0
 10
3741.5199754770060281
 20
190.270903280420498
 30
0.0
 40
0.0541179886803436
 50
53.2753899126916295
 51
126.1141616507508019
  0
ARC
  5
1652A
  8
0
 10
3741.5195599726330329
 20
190.2703463379498885
 30
0.0
 40
0.0548128475146493
 50
336.5006514589380231
 51
53.2753899126916295
  0
ARC
  5
1652B
  8
0
 10
3741.5193335887061039
 20
190.2704447694223973
 30
0.0
 40
0.0550597046338736
 50
193.4906985736533898
 51
336.5006514589364883
  0
ARC
  5
1652C
  8
0
 10
3741.5187353955129765
 20
190.2709188102749067
 30
0.0
 40
0.0629921259999986
 50
108.5740908953241046
 51
194.1209659493806043
  0
ARC
  5
1652D
  8
0
 10
3741.5187353955129765
 20
190.2709188102749067
 30
0.0
 40
0.0629921259999977
 50
46.5869016619009599
 51
108.5740908953241046
  0
ARC
  5
1652E
  8
0
 10
3741.5187353955129765
 20
190.2709188102749067
 30
0.0
 40
0.0629921260000025
 50
326.0791648970724737
 51
46.5869016619009599
  0
ARC
  5
1652F
  8
0
 10
3741.5187353955129765
 20
190.2709188102749067
 30
0.0
 40
0.0629921260000002
 50
194.1209659493775064
 51
326.079164897073781
  0
ARC
  5
16530
  8
0
 10
3741.51318564268513
 20
190.2773689428576063
 30
0.0
 40
0.0399772724486423
 50
110.4464100930904067
 51
202.07435465246391
  0
ARC
  5
16531
  8
0
 10
3741.5151576162520541
 20
190.2773250356383983
 30
0.0
 40
0.0407485062535606
 50
31.7573441729636698
 51
113.0237852857218996
  0
ARC
  5
16532
  8
0
 10
3741.514703490690863
 20
190.2770717537788983
 30
0.0
 40
0.0412679571267722
 50
314.8502510597750756
 51
31.7245019672239685
  0
ARC
  5
16533
  8
0
 10
3741.5146096523071719
 20
190.2766713273798018
 30
0.0
 40
0.041051736891376
 50
200.4249233086912909
 51
315.3372576755278942
  0
ARC
  5
16534
  8
0
 10
3741.5149784430191175
 20
190.0210978067599115
 30
0.0
 40
0.021751132325462
 50
75.423398733711025
 51
180.4218813335947971
  0
ARC
  5
16535
  8
0
 10
3741.5150886372839523
 20
190.0215215584254906
 30
0.0
 40
0.0213132873183441
 50
343.6133223961184058
 51
75.423398733711025
  0
ARC
  5
16536
  8
0
 10
3741.5145775045789378
 20
190.0216718638272084
 30
0.0
 40
0.0218460615261517
 50
237.8465281933902986
 51
343.6133223961168142
  0
ARC
  5
16537
  8
0
 10
3741.5140134552079871
 20
190.0207745534565049
 30
0.0
 40
0.0207861947450847
 50
179.5504308533733138
 51
237.8465281933902986
  0
ARC
  5
16538
  8
0
 10
3741.5216216799531139
 20
190.0131135665702118
 30
0.0
 40
0.0569110222471084
 50
126.1141616507516972
 51
191.1926523819876991
  0
ARC
  5
16539
  8
0
 10
3741.5199754770060281
 20
190.0153699026186871
 30
0.0
 40
0.0541179886803436
 50
53.2753899126916295
 51
126.1141616507508019
  0
ARC
  5
1653A
  8
0
 10
3741.5195599726330329
 20
190.014812960148106
 30
0.0
 40
0.0548128475146493
 50
336.5006514589380231
 51
53.2753899126916295
  0
ARC
  5
1653B
  8
0
 10
3741.5193335887061039
 20
190.0149113916205863
 30
0.0
 40
0.0550597046338736
 50
193.4906985736533898
 51
336.5006514589364883
  0
ARC
  5
1653C
  8
0
 10
3741.5187353955129765
 20
190.0153854324730958
 30
0.0
 40
0.0629921259999986
 50
108.5740908953241046
 51
194.1209659493806043
  0
ARC
  5
1653D
  8
0
 10
3741.5187353955129765
 20
190.0153854324730958
 30
0.0
 40
0.0629921259999977
 50
46.5869016619009599
 51
108.5740908953241046
  0
ARC
  5
1653E
  8
0
 10
3741.5187353955129765
 20
190.0153854324730958
 30
0.0
 40
0.0629921260000025
 50
326.0791648970724737
 51
46.5869016619009599
  0
ARC
  5
1653F
  8
0
 10
3741.5187353955129765
 20
190.0153854324730958
 30
0.0
 40
0.0629921260000002
 50
194.1209659493775064
 51
326.079164897073781
  0
ARC
  5
16540
  8
0
 10
3741.51318564268513
 20
190.0218355650557953
 30
0.0
 40
0.0399772724486423
 50
110.4464100930904067
 51
202.07435465246391
  0
ARC
  5
16541
  8
0
 10
3741.5151576162520541
 20
190.0217916578365873
 30
0.0
 40
0.0407485062535606
 50
31.7573441729636698
 51
113.0237852857218996
  0
ARC
  5
16542
  8
0
 10
3741.514703490690863
 20
190.0215383759770873
 30
0.0
 40
0.0412679571267722
 50
314.8502510597750756
 51
31.7245019672239685
  0
ARC
  5
16543
  8
0
 10
3741.5146096523071719
 20
190.0211379495779909
 30
0.0
 40
0.041051736891376
 50
200.4249233086912909
 51
315.3372576755278942
  0
ARC
  5
16544
  8
0
 10
3741.3868193586540656
 20
190.1491764747628963
 30
0.0
 40
0.021751132325462
 50
75.423398733711025
 51
180.4218813335947971
  0
ARC
  5
16545
  8
0
 10
3741.3869295529189003
 20
190.1496002264285892
 30
0.0
 40
0.0213132873183441
 50
343.6133223961184058
 51
75.423398733711025
  0
ARC
  5
16546
  8
0
 10
3741.3864184202129763
 20
190.1497505318301933
 30
0.0
 40
0.0218460615261517
 50
237.8465281933902986
 51
343.6133223961168142
  0
ARC
  5
16547
  8
0
 10
3741.3858543708429352
 20
190.1488532214594898
 30
0.0
 40
0.0207861947450847
 50
179.5504308533733138
 51
237.8465281933902986
  0
ARC
  5
16548
  8
0
 10
3741.393462595588062
 20
190.1411922345731966
 30
0.0
 40
0.0569110222471084
 50
126.1141616507516972
 51
191.1926523819876991
  0
ARC
  5
16549
  8
0
 10
3741.3918163926418856
 20
190.1434485706217004
 30
0.0
 40
0.0541179886803436
 50
53.2753899126916295
 51
126.1141616507508019
  0
ARC
  5
1654A
  8
0
 10
3741.3914008882679809
 20
190.1428916281510908
 30
0.0
 40
0.0548128475146493
 50
336.5006514589380231
 51
53.2753899126916295
  0
ARC
  5
1654B
  8
0
 10
3741.3911745043419614
 20
190.1429900596235996
 30
0.0
 40
0.0550597046338736
 50
193.4906985736533898
 51
336.5006514589364883
  0
ARC
  5
1654C
  8
0
 10
3741.3905763111488341
 20
190.143464100476109
 30
0.0
 40
0.0629921259999986
 50
108.5740908953241046
 51
194.1209659493806043
  0
ARC
  5
1654D
  8
0
 10
3741.3905763111488341
 20
190.143464100476109
 30
0.0
 40
0.0629921259999977
 50
46.5869016619009599
 51
108.5740908953241046
  0
ARC
  5
1654E
  8
0
 10
3741.3905763111488341
 20
190.143464100476109
 30
0.0
 40
0.0629921260000025
 50
326.0791648970724737
 51
46.5869016619009599
  0
ARC
  5
1654F
  8
0
 10
3741.3905763111488341
 20
190.143464100476109
 30
0.0
 40
0.0629921260000002
 50
194.1209659493775064
 51
326.079164897073781
  0
ARC
  5
16550
  8
0
 10
3741.385026558320078
 20
190.1499142330586949
 30
0.0
 40
0.0399772724486423
 50
110.4464100930904067
 51
202.07435465246391
  0
ARC
  5
16551
  8
0
 10
3741.3869985318860927
 20
190.1498703258396006
 30
0.0
 40
0.0407485062535606
 50
31.7573441729636698
 51
113.0237852857218996
  0
ARC
  5
16552
  8
0
 10
3741.3865444063271752
 20
190.1496170439801006
 30
0.0
 40
0.0412679571267722
 50
314.8502510597750756
 51
31.7245019672239685
  0
ARC
  5
16553
  8
0
 10
3741.38645056794212
 20
190.1492166175810041
 30
0.0
 40
0.041051736891376
 50
200.4249233086912909
 51
315.3372576755278942
  0
ARC
  5
16554
  8
0
 10
3741.3926409492491985
 20
189.8925423027091881
 30
0.0
 40
0.021751132325462
 50
75.423398733711025
 51
180.4218813335947971
  0
ARC
  5
16555
  8
0
 10
3741.3927511435131237
 20
189.8929660543749094
 30
0.0
 40
0.0213132873183441
 50
343.6133223961184058
 51
75.423398733711025
  0
ARC
  5
16556
  8
0
 10
3741.3922400108090187
 20
189.8931163597765135
 30
0.0
 40
0.0218460615261517
 50
237.8465281933902986
 51
343.6133223961168142
  0
ARC
  5
16557
  8
0
 10
3741.391675961438068
 20
189.8922190494058952
 30
0.0
 40
0.0207861947450847
 50
179.5504308533733138
 51
237.8465281933902986
  0
ARC
  5
16558
  8
0
 10
3741.3992841861831948
 20
189.8845580625194884
 30
0.0
 40
0.0569110222471084
 50
126.1141616507516972
 51
191.1926523819876991
  0
ARC
  5
16559
  8
0
 10
3741.397637983236109
 20
189.8868143985679922
 30
0.0
 40
0.0541179886803436
 50
53.2753899126916295
 51
126.1141616507508019
  0
ARC
  5
1655A
  8
0
 10
3741.3972224788631138
 20
189.8862574560974963
 30
0.0
 40
0.0548128475146493
 50
336.5006514589380231
 51
53.2753899126916295
  0
ARC
  5
1655B
  8
0
 10
3741.3969960949361848
 20
189.8863558875698914
 30
0.0
 40
0.0550597046338736
 50
193.4906985736533898
 51
336.5006514589364883
  0
ARC
  5
1655C
  8
0
 10
3741.3963979017439669
 20
189.8868299284224008
 30
0.0
 40
0.0629921259999986
 50
108.5740908953241046
 51
194.1209659493806043
  0
ARC
  5
1655D
  8
0
 10
3741.3963979017439669
 20
189.8868299284224008
 30
0.0
 40
0.0629921259999977
 50
46.5869016619009599
 51
108.5740908953241046
  0
ARC
  5
1655E
  8
0
 10
3741.3963979017439669
 20
189.8868299284224008
 30
0.0
 40
0.0629921260000025
 50
326.0791648970724737
 51
46.5869016619009599
  0
ARC
  5
1655F
  8
0
 10
3741.3963979017439669
 20
189.8868299284224008
 30
0.0
 40
0.0629921260000002
 50
194.1209659493775064
 51
326.079164897073781
  0
ARC
  5
16560
  8
0
 10
3741.3908481489152109
 20
189.8932800610051004
 30
0.0
 40
0.0399772724486423
 50
110.4464100930904067
 51
202.07435465246391
  0
ARC
  5
16561
  8
0
 10
3741.3928201224812256
 20
189.8932361537860061
 30
0.0
 40
0.0407485062535606
 50
31.7573441729636698
 51
113.0237852857218996
  0
ARC
  5
16562
  8
0
 10
3741.3923659969209439
 20
189.892982871926506
 30
0.0
 40
0.0412679571267722
 50
314.8502510597750756
 51
31.7245019672239685
  0
ARC
  5
16563
  8
0
 10
3741.3922721585358886
 20
189.8925824455274096
 30
0.0
 40
0.041051736891376
 50
200.4249233086912909
 51
315.3372576755278942
  0
ARC
  5
16564
  8
0
 10
3741.5186252012481418
 20
189.7665580508092091
 30
0.0
 40
0.021751132325462
 50
75.423398733711025
 51
180.4218813335947971
  0
ARC
  5
16565
  8
0
 10
3741.5187353955129765
 20
189.766981802474902
 30
0.0
 40
0.0213132873183441
 50
343.6133223961184058
 51
75.423398733711025
  0
ARC
  5
16566
  8
0
 10
3741.5182242628079621
 20
189.7671321078765061
 30
0.0
 40
0.0218460615261517
 50
237.8465281933902986
 51
343.6133223961168142
  0
ARC
  5
16567
  8
0
 10
3741.5176602134379209
 20
189.7662347975058879
 30
0.0
 40
0.0207861947450847
 50
179.5504308533733138
 51
237.8465281933902986
  0
ARC
  5
16568
  8
0
 10
3741.5252684381830477
 20
189.7585738106195095
 30
0.0
 40
0.0569110222471084
 50
126.1141616507516972
 51
191.1926523819876991
  0
ARC
  5
16569
  8
0
 10
3741.5236222352368713
 20
189.7608301466680132
 30
0.0
 40
0.0541179886803436
 50
53.2753899126916295
 51
126.1141616507508019
  0
ARC
  5
1656A
  8
0
 10
3741.5232067308629667
 20
189.7602732041974036
 30
0.0
 40
0.0548128475146493
 50
336.5006514589380231
 51
53.2753899126916295
  0
ARC
  5
1656B
  8
0
 10
3741.5229803469360377
 20
189.7603716356699124
 30
0.0
 40
0.0550597046338736
 50
193.4906985736533898
 51
336.5006514589364883
  0
ARC
  5
1656C
  8
0
 10
3741.5223821537429103
 20
189.7608456765223934
 30
0.0
 40
0.0629921259999986
 50
108.5740908953241046
 51
194.1209659493806043
  0
ARC
  5
1656D
  8
0
 10
3741.5223821537429103
 20
189.7608456765223934
 30
0.0
 40
0.0629921259999977
 50
46.5869016619009599
 51
108.5740908953241046
  0
ARC
  5
1656E
  8
0
 10
3741.5223821537429103
 20
189.7608456765223934
 30
0.0
 40
0.0629921260000025
 50
326.0791648970724737
 51
46.5869016619009599
  0
ARC
  5
1656F
  8
0
 10
3741.5223821537429103
 20
189.7608456765223934
 30
0.0
 40
0.0629921260000002
 50
194.1209659493775064
 51
326.079164897073781
  0
ARC
  5
16570
  8
0
 10
3741.5168324009150638
 20
189.767295809105093
 30
0.0
 40
0.0399772724486423
 50
110.4464100930904067
 51
202.07435465246391
  0
ARC
  5
16571
  8
0
 10
3741.5188043744810784
 20
189.7672519018859987
 30
0.0
 40
0.0407485062535606
 50
31.7573441729636698
 51
113.0237852857218996
  0
ARC
  5
16572
  8
0
 10
3741.5183502489207967
 20
189.7669986200264987
 30
0.0
 40
0.0412679571267722
 50
314.8502510597750756
 51
31.7245019672239685
  0
ARC
  5
16573
  8
0
 10
3741.5182564105361962
 20
189.7665981936274022
 30
0.0
 40
0.041051736891376
 50
200.4249233086912909
 51
315.3372576755278942
  0
ARC
  5
16574
  8
0
 10
3741.3903052229488821
 20
189.6407557191091939
 30
0.0
 40
0.021751132325462
 50
75.423398733711025
 51
180.4218813335947971
  0
ARC
  5
16575
  8
0
 10
3741.3904154172141716
 20
189.6411794707748868
 30
0.0
 40
0.0213132873183441
 50
343.6133223961184058
 51
75.423398733711025
  0
ARC
  5
16576
  8
0
 10
3741.3899042845077929
 20
189.6413297761764909
 30
0.0
 40
0.0218460615261517
 50
237.8465281933902986
 51
343.6133223961168142
  0
ARC
  5
16577
  8
0
 10
3741.3893402351382065
 20
189.6404324658059011
 30
0.0
 40
0.0207861947450847
 50
179.5504308533733138
 51
237.8465281933902986
  0
ARC
  5
16578
  8
0
 10
3741.3969484598828785
 20
189.6327714789194943
 30
0.0
 40
0.0569110222471084
 50
126.1141616507516972
 51
191.1926523819876991
  0
ARC
  5
16579
  8
0
 10
3741.3953022569371569
 20
189.635027814967998
 30
0.0
 40
0.0541179886803436
 50
53.2753899126916295
 51
126.1141616507508019
  0
ARC
  5
1657A
  8
0
 10
3741.3948867525627975
 20
189.6344708724975021
 30
0.0
 40
0.0548128475146493
 50
336.5006514589380231
 51
53.2753899126916295
  0
ARC
  5
1657B
  8
0
 10
3741.3946603686358685
 20
189.6345693039698972
 30
0.0
 40
0.0550597046338736
 50
193.4906985736533898
 51
336.5006514589364883
  0
ARC
  5
1657C
  8
0
 10
3741.3940621754441054
 20
189.6350433448224067
 30
0.0
 40
0.0629921259999986
 50
108.5740908953241046
 51
194.1209659493806043
  0
ARC
  5
1657D
  8
0
 10
3741.3940621754441054
 20
189.6350433448224067
 30
0.0
 40
0.0629921259999977
 50
46.5869016619009599
 51
108.5740908953241046
  0
ARC
  5
1657E
  8
0
 10
3741.3940621754441054
 20
189.6350433448224067
 30
0.0
 40
0.0629921260000025
 50
326.0791648970724737
 51
46.5869016619009599
  0
ARC
  5
1657F
  8
0
 10
3741.3940621754441054
 20
189.6350433448224067
 30
0.0
 40
0.0629921260000002
 50
194.1209659493775064
 51
326.079164897073781
  0
ARC
  5
16580
  8
0
 10
3741.3885124226148946
 20
189.6414934774051062
 30
0.0
 40
0.0399772724486423
 50
110.4464100930904067
 51
202.07435465246391
  0
ARC
  5
16581
  8
0
 10
3741.3904843961809092
 20
189.6414495701860119
 30
0.0
 40
0.0407485062535606
 50
31.7573441729636698
 51
113.0237852857218996
  0
ARC
  5
16582
  8
0
 10
3741.3900302706210823
 20
189.6411962883265119
 30
0.0
 40
0.0412679571267722
 50
314.8502510597750756
 51
31.7245019672239685
  0
ARC
  5
16583
  8
0
 10
3741.389936432236027
 20
189.6407958619273018
 30
0.0
 40
0.041051736891376
 50
200.4249233086912909
 51
315.3372576755278942
  0
ARC
  5
16584
  8
0
 10
3741.5168659807491167
 20
189.5169777113092096
 30
0.0
 40
0.021751132325462
 50
75.423398733711025
 51
180.4218813335947971
  0
ARC
  5
16585
  8
0
 10
3741.5169761750130419
 20
189.5174014629749024
 30
0.0
 40
0.0213132873183441
 50
343.6133223961184058
 51
75.423398733711025
  0
ARC
  5
16586
  8
0
 10
3741.5164650423080275
 20
189.5175517683765065
 30
0.0
 40
0.0218460615261517
 50
237.8465281933902986
 51
343.6133223961168142
  0
ARC
  5
16587
  8
0
 10
3741.5159009929379863
 20
189.5166544580058883
 30
0.0
 40
0.0207861947450847
 50
179.5504308533733138
 51
237.8465281933902986
  0
ARC
  5
16588
  8
0
 10
3741.5235092176831131
 20
189.5089934711195099
 30
0.0
 40
0.0569110222471084
 50
126.1141616507516972
 51
191.1926523819876991
  0
ARC
  5
16589
  8
0
 10
3741.5218630147360273
 20
189.5112498071680136
 30
0.0
 40
0.0541179886803436
 50
53.2753899126916295
 51
126.1141616507508019
  0
ARC
  5
1658A
  8
0
 10
3741.5214475103630321
 20
189.510692864697404
 30
0.0
 40
0.0548128475146493
 50
336.5006514589380231
 51
53.2753899126916295
  0
ARC
  5
1658B
  8
0
 10
3741.5212211264351936
 20
189.5107912961699128
 30
0.0
 40
0.0550597046338736
 50
193.4906985736533898
 51
336.5006514589364883
  0
ARC
  5
1658C
  8
0
 10
3741.5206229332438852
 20
189.5112653370223939
 30
0.0
 40
0.0629921259999986
 50
108.5740908953241046
 51
194.1209659493806043
  0
ARC
  5
1658D
  8
0
 10
3741.5206229332438852
 20
189.5112653370223939
 30
0.0
 40
0.0629921259999977
 50
46.5869016619009599
 51
108.5740908953241046
  0
ARC
  5
1658E
  8
0
 10
3741.5206229332438852
 20
189.5112653370223939
 30
0.0
 40
0.0629921260000025
 50
326.0791648970724737
 51
46.5869016619009599
  0
ARC
  5
1658F
  8
0
 10
3741.5206229332438852
 20
189.5112653370223939
 30
0.0
 40
0.0629921260000002
 50
194.1209659493775064
 51
326.079164897073781
  0
ARC
  5
16590
  8
0
 10
3741.5150731804142197
 20
189.5177154696050934
 30
0.0
 40
0.0399772724486423
 50
110.4464100930904067
 51
202.07435465246391
  0
ARC
  5
16591
  8
0
 10
3741.5170451539811438
 20
189.5176715623859991
 30
0.0
 40
0.0407485062535606
 50
31.7573441729636698
 51
113.0237852857218996
  0
ARC
  5
16592
  8
0
 10
3741.5165910284208621
 20
189.5174182805264991
 30
0.0
 40
0.0412679571267722
 50
314.8502510597750756
 51
31.7245019672239685
  0
ARC
  5
16593
  8
0
 10
3741.5164971900358069
 20
189.5170178541274026
 30
0.0
 40
0.041051736891376
 50
200.4249233086912909
 51
315.3372576755278942
  0
ARC
  5
16594
  8
0
 10
3741.3926409492491985
 20
189.3886052948091958
 30
0.0
 40
0.021751132325462
 50
75.423398733711025
 51
180.4218813335947971
  0
ARC
  5
16595
  8
0
 10
3741.3927511435131237
 20
189.3890290464748887
 30
0.0
 40
0.0213132873183441
 50
343.6133223961184058
 51
75.423398733711025
  0
ARC
  5
16596
  8
0
 10
3741.3922400108090187
 20
189.3891793518764928
 30
0.0
 40
0.0218460615261517
 50
237.8465281933902986
 51
343.6133223961168142
  0
ARC
  5
16597
  8
0
 10
3741.391675961438068
 20
189.388282041505903
 30
0.0
 40
0.0207861947450847
 50
179.5504308533733138
 51
237.8465281933902986
  0
ARC
  5
16598
  8
0
 10
3741.3992841861831948
 20
189.3806210546194961
 30
0.0
 40
0.0569110222471084
 50
126.1141616507516972
 51
191.1926523819876991
  0
ARC
  5
16599
  8
0
 10
3741.397637983236109
 20
189.3828773906679999
 30
0.0
 40
0.0541179886803436
 50
53.2753899126916295
 51
126.1141616507508019
  0
ARC
  5
1659A
  8
0
 10
3741.3972224788631138
 20
189.382320448197504
 30
0.0
 40
0.0548128475146493
 50
336.5006514589380231
 51
53.2753899126916295
  0
ARC
  5
1659B
  8
0
 10
3741.3969960949361848
 20
189.3824188796698991
 30
0.0
 40
0.0550597046338736
 50
193.4906985736533898
 51
336.5006514589364883
  0
ARC
  5
1659C
  8
0
 10
3741.3963979017439669
 20
189.3828929205224085
 30
0.0
 40
0.0629921259999986
 50
108.5740908953241046
 51
194.1209659493806043
  0
ARC
  5
1659D
  8
0
 10
3741.3963979017439669
 20
189.3828929205224085
 30
0.0
 40
0.0629921259999977
 50
46.5869016619009599
 51
108.5740908953241046
  0
ARC
  5
1659E
  8
0
 10
3741.3963979017439669
 20
189.3828929205224085
 30
0.0
 40
0.0629921260000025
 50
326.0791648970724737
 51
46.5869016619009599
  0
ARC
  5
1659F
  8
0
 10
3741.3963979017439669
 20
189.3828929205224085
 30
0.0
 40
0.0629921260000002
 50
194.1209659493775064
 51
326.079164897073781
  0
ARC
  5
165A0
  8
0
 10
3741.3908481489152109
 20
189.3893430531051081
 30
0.0
 40
0.0399772724486423
 50
110.4464100930904067
 51
202.07435465246391
  0
ARC
  5
165A1
  8
0
 10
3741.3928201224812256
 20
189.3892991458860138
 30
0.0
 40
0.0407485062535606
 50
31.7573441729636698
 51
113.0237852857218996
  0
ARC
  5
165A2
  8
0
 10
3741.3923659969209439
 20
189.3890458640265138
 30
0.0
 40
0.0412679571267722
 50
314.8502510597750756
 51
31.7245019672239685
  0
ARC
  5
165A3
  8
0
 10
3741.3922721585358886
 20
189.3886454376273036
 30
0.0
 40
0.041051736891376
 50
200.4249233086912909
 51
315.3372576755278942
  0
ARC
  5
165A4
  8
0
 10
3741.4993862955489021
 20
189.2790381404390985
 30
0.0
 40
0.021751132325462
 50
75.423398733711025
 51
180.4218813335947971
  0
ARC
  5
165A5
  8
0
 10
3741.4994964898141916
 20
189.2794618921047061
 30
0.0
 40
0.0213132873183441
 50
343.6133223961184058
 51
75.423398733711025
  0
ARC
  5
165A6
  8
0
 10
3741.4989853571091771
 20
189.2796121975063954
 30
0.0
 40
0.0218460615261517
 50
237.8465281933902986
 51
343.6133223961168142
  0
ARC
  5
165A7
  8
0
 10
3741.4984213077382265
 20
189.2787148871358056
 30
0.0
 40
0.0207861947450847
 50
179.5504308533733138
 51
237.8465281933902986
  0
ARC
  5
165A8
  8
0
 10
3741.506029532483808
 20
189.2710539002493988
 30
0.0
 40
0.0569110222471084
 50
126.1141616507516972
 51
191.1926523819876991
  0
ARC
  5
165A9
  8
0
 10
3741.5043833295371769
 20
189.2733102362979025
 30
0.0
 40
0.0541179886803436
 50
53.2753899126916295
 51
126.1141616507508019
  0
ARC
  5
165AA
  8
0
 10
3741.5039678251641817
 20
189.272753293827293
 30
0.0
 40
0.0548128475146493
 50
336.5006514589380231
 51
53.2753899126916295
  0
ARC
  5
165AB
  8
0
 10
3741.503741441236798
 20
189.2728517252998017
 30
0.0
 40
0.0550597046338736
 50
193.4906985736533898
 51
336.5006514589364883
  0
ARC
  5
165AC
  8
0
 10
3741.5031432480441254
 20
189.2733257661523112
 30
0.0
 40
0.0629921259999986
 50
108.5740908953241046
 51
194.1209659493806043
  0
ARC
  5
165AD
  8
0
 10
3741.5031432480441254
 20
189.2733257661523112
 30
0.0
 40
0.0629921259999977
 50
46.5869016619009599
 51
108.5740908953241046
  0
ARC
  5
165AE
  8
0
 10
3741.5031432480441254
 20
189.2733257661523112
 30
0.0
 40
0.0629921260000025
 50
326.0791648970724737
 51
46.5869016619009599
  0
ARC
  5
165AF
  8
0
 10
3741.5031432480441254
 20
189.2733257661523112
 30
0.0
 40
0.0629921260000002
 50
194.1209659493775064
 51
326.079164897073781
  0
ARC
  5
165B0
  8
0
 10
3741.4975934952149146
 20
189.2797758987350107
 30
0.0
 40
0.0399772724486423
 50
110.4464100930904067
 51
202.07435465246391
  0
ARC
  5
165B1
  8
0
 10
3741.4995654687818387
 20
189.2797319915158027
 30
0.0
 40
0.0407485062535606
 50
31.7573441729636698
 51
113.0237852857218996
  0
ARC
  5
165B2
  8
0
 10
3741.4991113432220118
 20
189.2794787096563027
 30
0.0
 40
0.0412679571267722
 50
314.8502510597750756
 51
31.7245019672239685
  0
ARC
  5
165B3
  8
0
 10
3741.499017504837866
 20
189.2790782832572063
 30
0.0
 40
0.041051736891376
 50
200.4249233086912909
 51
315.3372576755278942
  0
ARC
  5
165B4
  8
0
 10
3741.3926409492491985
 20
189.1366367909091935
 30
0.0
 40
0.021751132325462
 50
75.423398733711025
 51
180.4218813335947971
  0
ARC
  5
165B5
  8
0
 10
3741.3927511435131237
 20
189.1370605425748863
 30
0.0
 40
0.0213132873183441
 50
343.6133223961184058
 51
75.423398733711025
  0
ARC
  5
165B6
  8
0
 10
3741.3922400108090187
 20
189.1372108479764904
 30
0.0
 40
0.0218460615261517
 50
237.8465281933902986
 51
343.6133223961168142
  0
ARC
  5
165B7
  8
0
 10
3741.391675961438068
 20
189.1363135376059006
 30
0.0
 40
0.0207861947450847
 50
179.5504308533733138
 51
237.8465281933902986
  0
ARC
  5
165B8
  8
0
 10
3741.3992841861831948
 20
189.1286525507194938
 30
0.0
 40
0.0569110222471084
 50
126.1141616507516972
 51
191.1926523819876991
  0
ARC
  5
165B9
  8
0
 10
3741.397637983236109
 20
189.1309088867679975
 30
0.0
 40
0.0541179886803436
 50
53.2753899126916295
 51
126.1141616507508019
  0
ARC
  5
165BA
  8
0
 10
3741.3972224788631138
 20
189.1303519442975016
 30
0.0
 40
0.0548128475146493
 50
336.5006514589380231
 51
53.2753899126916295
  0
ARC
  5
165BB
  8
0
 10
3741.3969960949361848
 20
189.1304503757698967
 30
0.0
 40
0.0550597046338736
 50
193.4906985736533898
 51
336.5006514589364883
  0
ARC
  5
165BC
  8
0
 10
3741.3963979017439669
 20
189.1309244166224062
 30
0.0
 40
0.0629921259999986
 50
108.5740908953241046
 51
194.1209659493806043
  0
ARC
  5
165BD
  8
0
 10
3741.3963979017439669
 20
189.1309244166224062
 30
0.0
 40
0.0629921259999977
 50
46.5869016619009599
 51
108.5740908953241046
  0
ARC
  5
165BE
  8
0
 10
3741.3963979017439669
 20
189.1309244166224062
 30
0.0
 40
0.0629921260000025
 50
326.0791648970724737
 51
46.5869016619009599
  0
ARC
  5
165BF
  8
0
 10
3741.3963979017439669
 20
189.1309244166224062
 30
0.0
 40
0.0629921260000002
 50
194.1209659493775064
 51
326.079164897073781
  0
ARC
  5
165C0
  8
0
 10
3741.3908481489152109
 20
189.1373745492051057
 30
0.0
 40
0.0399772724486423
 50
110.4464100930904067
 51
202.07435465246391
  0
ARC
  5
165C1
  8
0
 10
3741.3928201224812256
 20
189.1373306419860114
 30
0.0
 40
0.0407485062535606
 50
31.7573441729636698
 51
113.0237852857218996
  0
ARC
  5
165C2
  8
0
 10
3741.3923659969209439
 20
189.1370773601265114
 30
0.0
 40
0.0412679571267722
 50
314.8502510597750756
 51
31.7245019672239685
  0
ARC
  5
165C3
  8
0
 10
3741.3922721585358886
 20
189.1366769337273013
 30
0.0
 40
0.041051736891376
 50
200.4249233086912909
 51
315.3372576755278942
  0
ARC
  5
165C4
  8
0
 10
3741.5186252012481418
 20
189.0106525389091985
 30
0.0
 40
0.021751132325462
 50
75.423398733711025
 51
180.4218813335947971
  0
ARC
  5
165C5
  8
0
 10
3741.5187353955129765
 20
189.0110762905748913
 30
0.0
 40
0.0213132873183441
 50
343.6133223961184058
 51
75.423398733711025
  0
ARC
  5
165C6
  8
0
 10
3741.5182242628079621
 20
189.0112265959764954
 30
0.0
 40
0.0218460615261517
 50
237.8465281933902986
 51
343.6133223961168142
  0
ARC
  5
165C7
  8
0
 10
3741.5176602134379209
 20
189.0103292856059056
 30
0.0
 40
0.0207861947450847
 50
179.5504308533733138
 51
237.8465281933902986
  0
ARC
  5
165C8
  8
0
 10
3741.5252684381830477
 20
189.0026682987194988
 30
0.0
 40
0.0569110222471084
 50
126.1141616507516972
 51
191.1926523819876991
  0
ARC
  5
165C9
  8
0
 10
3741.5236222352368713
 20
189.0049246347680025
 30
0.0
 40
0.0541179886803436
 50
53.2753899126916295
 51
126.1141616507508019
  0
ARC
  5
165CA
  8
0
 10
3741.5232067308629667
 20
189.0043676922975067
 30
0.0
 40
0.0548128475146493
 50
336.5006514589380231
 51
53.2753899126916295
  0
ARC
  5
165CB
  8
0
 10
3741.5229803469360377
 20
189.0044661237699017
 30
0.0
 40
0.0550597046338736
 50
193.4906985736533898
 51
336.5006514589364883
  0
ARC
  5
165CC
  8
0
 10
3741.5223821537429103
 20
189.0049401646224112
 30
0.0
 40
0.0629921259999986
 50
108.5740908953241046
 51
194.1209659493806043
  0
ARC
  5
165CD
  8
0
 10
3741.5223821537429103
 20
189.0049401646224112
 30
0.0
 40
0.0629921259999977
 50
46.5869016619009599
 51
108.5740908953241046
  0
ARC
  5
165CE
  8
0
 10
3741.5223821537429103
 20
189.0049401646224112
 30
0.0
 40
0.0629921260000025
 50
326.0791648970724737
 51
46.5869016619009599
  0
ARC
  5
165CF
  8
0
 10
3741.5223821537429103
 20
189.0049401646224112
 30
0.0
 40
0.0629921260000002
 50
194.1209659493775064
 51
326.079164897073781
  0
ARC
  5
165D0
  8
0
 10
3741.5168324009150638
 20
189.0113902972051108
 30
0.0
 40
0.0399772724486423
 50
110.4464100930904067
 51
202.07435465246391
  0
ARC
  5
165D1
  8
0
 10
3741.5188043744810784
 20
189.011346389985988
 30
0.0
 40
0.0407485062535606
 50
31.7573441729636698
 51
113.0237852857218996
  0
ARC
  5
165D2
  8
0
 10
3741.5183502489207967
 20
189.011093108126488
 30
0.0
 40
0.0412679571267722
 50
314.8502510597750756
 51
31.7245019672239685
  0
ARC
  5
165D3
  8
0
 10
3741.5182564105361962
 20
189.0106926817273916
 30
0.0
 40
0.041051736891376
 50
200.4249233086912909
 51
315.3372576755278942
  0
ARC
  5
165D4
  8
0
 10
3741.3926409492491985
 20
188.8846682870091911
 30
0.0
 40
0.021751132325462
 50
75.423398733711025
 51
180.4218813335947971
  0
ARC
  5
165D5
  8
0
 10
3741.3927511435131237
 20
188.8850920386749124
 30
0.0
 40
0.0213132873183441
 50
343.6133223961184058
 51
75.423398733711025
  0
ARC
  5
165D6
  8
0
 10
3741.3922400108090187
 20
188.8852423440764881
 30
0.0
 40
0.0218460615261517
 50
237.8465281933902986
 51
343.6133223961168142
  0
ARC
  5
165D7
  8
0
 10
3741.391675961438068
 20
188.8843450337058982
 30
0.0
 40
0.0207861947450847
 50
179.5504308533733138
 51
237.8465281933902986
  0
ARC
  5
165D8
  8
0
 10
3741.3992841861831948
 20
188.8766840468194914
 30
0.0
 40
0.0569110222471084
 50
126.1141616507516972
 51
191.1926523819876991
  0
ARC
  5
165D9
  8
0
 10
3741.397637983236109
 20
188.8789403828679951
 30
0.0
 40
0.0541179886803436
 50
53.2753899126916295
 51
126.1141616507508019
  0
ARC
  5
165DA
  8
0
 10
3741.3972224788631138
 20
188.8783834403974993
 30
0.0
 40
0.0548128475146493
 50
336.5006514589380231
 51
53.2753899126916295
  0
ARC
  5
165DB
  8
0
 10
3741.3969960949361848
 20
188.8784818718698943
 30
0.0
 40
0.0550597046338736
 50
193.4906985736533898
 51
336.5006514589364883
  0
ARC
  5
165DC
  8
0
 10
3741.3963979017439669
 20
188.8789559127224038
 30
0.0
 40
0.0629921259999986
 50
108.5740908953241046
 51
194.1209659493806043
  0
ARC
  5
165DD
  8
0
 10
3741.3963979017439669
 20
188.8789559127224038
 30
0.0
 40
0.0629921259999977
 50
46.5869016619009599
 51
108.5740908953241046
  0
ARC
  5
165DE
  8
0
 10
3741.3963979017439669
 20
188.8789559127224038
 30
0.0
 40
0.0629921260000025
 50
326.0791648970724737
 51
46.5869016619009599
  0
ARC
  5
165DF
  8
0
 10
3741.3963979017439669
 20
188.8789559127224038
 30
0.0
 40
0.0629921260000002
 50
194.1209659493775064
 51
326.079164897073781
  0
ARC
  5
165E0
  8
0
 10
3741.3908481489152109
 20
188.8854060453051034
 30
0.0
 40
0.0399772724486423
 50
110.4464100930904067
 51
202.07435465246391
  0
ARC
  5
165E1
  8
0
 10
3741.3928201224812256
 20
188.8853621380860091
 30
0.0
 40
0.0407485062535606
 50
31.7573441729636698
 51
113.0237852857218996
  0
ARC
  5
165E2
  8
0
 10
3741.3923659969209439
 20
188.885108856226509
 30
0.0
 40
0.0412679571267722
 50
314.8502510597750756
 51
31.7245019672239685
  0
ARC
  5
165E3
  8
0
 10
3741.3922721585358886
 20
188.8847084298274126
 30
0.0
 40
0.041051736891376
 50
200.4249233086912909
 51
315.3372576755278942
  0
ARC
  5
165E4
  8
0
 10
3741.5186252012481418
 20
188.7586840350091961
 30
0.0
 40
0.021751132325462
 50
75.423398733711025
 51
180.4218813335947971
  0
ARC
  5
165E5
  8
0
 10
3741.5187353955129765
 20
188.759107786674889
 30
0.0
 40
0.0213132873183441
 50
343.6133223961184058
 51
75.423398733711025
  0
ARC
  5
165E6
  8
0
 10
3741.5182242628079621
 20
188.7592580920764931
 30
0.0
 40
0.0218460615261517
 50
237.8465281933902986
 51
343.6133223961168142
  0
ARC
  5
165E7
  8
0
 10
3741.5176602134379209
 20
188.7583607817059033
 30
0.0
 40
0.0207861947450847
 50
179.5504308533733138
 51
237.8465281933902986
  0
ARC
  5
165E8
  8
0
 10
3741.5252684381830477
 20
188.7506997948194964
 30
0.0
 40
0.0569110222471084
 50
126.1141616507516972
 51
191.1926523819876991
  0
ARC
  5
165E9
  8
0
 10
3741.5236222352368713
 20
188.7529561308680002
 30
0.0
 40
0.0541179886803436
 50
53.2753899126916295
 51
126.1141616507508019
  0
ARC
  5
165EA
  8
0
 10
3741.5232067308629667
 20
188.7523991883975043
 30
0.0
 40
0.0548128475146493
 50
336.5006514589380231
 51
53.2753899126916295
  0
ARC
  5
165EB
  8
0
 10
3741.5229803469360377
 20
188.7524976198698994
 30
0.0
 40
0.0550597046338736
 50
193.4906985736533898
 51
336.5006514589364883
  0
ARC
  5
165EC
  8
0
 10
3741.5223821537429103
 20
188.7529716607224088
 30
0.0
 40
0.0629921259999986
 50
108.5740908953241046
 51
194.1209659493806043
  0
ARC
  5
165ED
  8
0
 10
3741.5223821537429103
 20
188.7529716607224088
 30
0.0
 40
0.0629921259999977
 50
46.5869016619009599
 51
108.5740908953241046
  0
ARC
  5
165EE
  8
0
 10
3741.5223821537429103
 20
188.7529716607224088
 30
0.0
 40
0.0629921260000025
 50
326.0791648970724737
 51
46.5869016619009599
  0
ARC
  5
165EF
  8
0
 10
3741.5223821537429103
 20
188.7529716607224088
 30
0.0
 40
0.0629921260000002
 50
194.1209659493775064
 51
326.079164897073781
  0
ARC
  5
165F0
  8
0
 10
3741.5168324009150638
 20
188.7594217933051084
 30
0.0
 40
0.0399772724486423
 50
110.4464100930904067
 51
202.07435465246391
  0
ARC
  5
165F1
  8
0
 10
3741.5188043744810784
 20
188.7593778860860141
 30
0.0
 40
0.0407485062535606
 50
31.7573441729636698
 51
113.0237852857218996
  0
ARC
  5
165F2
  8
0
 10
3741.5183502489207967
 20
188.7591246042265141
 30
0.0
 40
0.0412679571267722
 50
314.8502510597750756
 51
31.7245019672239685
  0
ARC
  5
165F3
  8
0
 10
3741.5182564105361962
 20
188.7587241778273892
 30
0.0
 40
0.041051736891376
 50
200.4249233086912909
 51
315.3372576755278942
  0
ARC
  5
165F4
  8
0
 10
3741.3889931312478438
 20
188.6344323870092126
 30
0.0
 40
0.021751132325462
 50
75.423398733711025
 51
180.4218813335947971
  0
ARC
  5
165F5
  8
0
 10
3741.3891033255131333
 20
188.6348561386747917
 30
0.0
 40
0.0213132873183441
 50
343.6133223961184058
 51
75.423398733711025
  0
ARC
  5
165F6
  8
0
 10
3741.3885921928090283
 20
188.6350064440765095
 30
0.0
 40
0.0218460615261517
 50
237.8465281933902986
 51
343.6133223961168142
  0
ARC
  5
165F7
  8
0
 10
3741.3880281434380777
 20
188.6341091337058913
 30
0.0
 40
0.0207861947450847
 50
179.5504308533733138
 51
237.8465281933902986
  0
ARC
  5
165F8
  8
0
 10
3741.3956363681832045
 20
188.6264481468195129
 30
0.0
 40
0.0569110222471084
 50
126.1141616507516972
 51
191.1926523819876991
  0
ARC
  5
165F9
  8
0
 10
3741.3939901652361186
 20
188.6287044828679882
 30
0.0
 40
0.0541179886803436
 50
53.2753899126916295
 51
126.1141616507508019
  0
ARC
  5
165FA
  8
0
 10
3741.3935746608631234
 20
188.6281475403974923
 30
0.0
 40
0.0548128475146493
 50
336.5006514589380231
 51
53.2753899126916295
  0
ARC
  5
165FB
  8
0
 10
3741.3933482769361945
 20
188.6282459718698874
 30
0.0
 40
0.0550597046338736
 50
193.4906985736533898
 51
336.5006514589364883
  0
ARC
  5
165FC
  8
0
 10
3741.3927500837439766
 20
188.6287200127223969
 30
0.0
 40
0.0629921259999986
 50
108.5740908953241046
 51
194.1209659493806043
  0
ARC
  5
165FD
  8
0
 10
3741.3927500837439766
 20
188.6287200127223969
 30
0.0
 40
0.0629921259999977
 50
46.5869016619009599
 51
108.5740908953241046
  0
ARC
  5
165FE
  8
0
 10
3741.3927500837439766
 20
188.6287200127223969
 30
0.0
 40
0.0629921260000025
 50
326.0791648970724737
 51
46.5869016619009599
  0
ARC
  5
165FF
  8
0
 10
3741.3927500837439766
 20
188.6287200127223969
 30
0.0
 40
0.0629921260000002
 50
194.1209659493775064
 51
326.079164897073781
  0
ARC
  5
16600
  8
0
 10
3741.3872003309138563
 20
188.6351701453050964
 30
0.0
 40
0.0399772724486423
 50
110.4464100930904067
 51
202.07435465246391
  0
ARC
  5
16601
  8
0
 10
3741.3891723044807804
 20
188.6351262380860021
 30
0.0
 40
0.0407485062535606
 50
31.7573441729636698
 51
113.0237852857218996
  0
ARC
  5
16602
  8
0
 10
3741.3887181789209535
 20
188.6348729562265021
 30
0.0
 40
0.0412679571267722
 50
314.8502510597750756
 51
31.7245019672239685
  0
ARC
  5
16603
  8
0
 10
3741.3886243405358982
 20
188.6344725298274057
 30
0.0
 40
0.041051736891376
 50
200.4249233086912909
 51
315.3372576755278942
  0
ARC
  5
16604
  8
0
 10
3741.5186252012481418
 20
187.4988415153092092
 30
0.0
 40
0.021751132325462
 50
75.423398733711025
 51
180.4218813335947971
  0
ARC
  5
16605
  8
0
 10
3741.5187353955129765
 20
187.4992652669747883
 30
0.0
 40
0.0213132873183441
 50
343.6133223961184058
 51
75.423398733711025
  0
ARC
  5
16606
  8
0
 10
3741.5182242628079621
 20
187.4994155723765061
 30
0.0
 40
0.0218460615261517
 50
237.8465281933902986
 51
343.6133223961168142
  0
ARC
  5
16607
  8
0
 10
3741.5176602134379209
 20
187.4985182620058879
 30
0.0
 40
0.0207861947450847
 50
179.5504308533733138
 51
237.8465281933902986
  0
ARC
  5
16608
  8
0
 10
3741.5252684381830477
 20
187.4908572751195095
 30
0.0
 40
0.0569110222471084
 50
126.1141616507516972
 51
191.1926523819876991
  0
ARC
  5
16609
  8
0
 10
3741.5236222352368713
 20
187.4931136111680132
 30
0.0
 40
0.0541179886803436
 50
53.2753899126916295
 51
126.1141616507508019
  0
ARC
  5
1660A
  8
0
 10
3741.5232067308629667
 20
187.4925566686974889
 30
0.0
 40
0.0548128475146493
 50
336.5006514589380231
 51
53.2753899126916295
  0
ARC
  5
1660B
  8
0
 10
3741.5229803469360377
 20
187.4926551001699124
 30
0.0
 40
0.0550597046338736
 50
193.4906985736533898
 51
336.5006514589364883
  0
ARC
  5
1660C
  8
0
 10
3741.5223821537429103
 20
187.4931291410223935
 30
0.0
 40
0.0629921259999986
 50
108.5740908953241046
 51
194.1209659493806043
  0
ARC
  5
1660D
  8
0
 10
3741.5223821537429103
 20
187.4931291410223935
 30
0.0
 40
0.0629921259999977
 50
46.5869016619009599
 51
108.5740908953241046
  0
ARC
  5
1660E
  8
0
 10
3741.5223821537429103
 20
187.4931291410223935
 30
0.0
 40
0.0629921260000025
 50
326.0791648970724737
 51
46.5869016619009599
  0
ARC
  5
1660F
  8
0
 10
3741.5223821537429103
 20
187.4931291410223935
 30
0.0
 40
0.0629921260000002
 50
194.1209659493775064
 51
326.079164897073781
  0
ARC
  5
16610
  8
0
 10
3741.5168324009150638
 20
187.499579273605093
 30
0.0
 40
0.0399772724486423
 50
110.4464100930904067
 51
202.07435465246391
  0
ARC
  5
16611
  8
0
 10
3741.5188043744810784
 20
187.4995353663859987
 30
0.0
 40
0.0407485062535606
 50
31.7573441729636698
 51
113.0237852857218996
  0
ARC
  5
16612
  8
0
 10
3741.5183502489207967
 20
187.4992820845264987
 30
0.0
 40
0.0412679571267722
 50
314.8502510597750756
 51
31.7245019672239685
  0
ARC
  5
16613
  8
0
 10
3741.5182564105361962
 20
187.4988816581272886
 30
0.0
 40
0.041051736891376
 50
200.4249233086912909
 51
315.3372576755278942
  0
ARC
  5
16614
  8
0
 10
3741.6446094532479947
 20
187.6248257673092041
 30
0.0
 40
0.021751132325462
 50
75.423398733711025
 51
180.4218813335947971
  0
ARC
  5
16615
  8
0
 10
3741.6447196475141936
 20
187.625249518974897
 30
0.0
 40
0.0213132873183441
 50
343.6133223961184058
 51
75.423398733711025
  0
ARC
  5
16616
  8
0
 10
3741.6442085148078149
 20
187.6253998243765011
 30
0.0
 40
0.0218460615261517
 50
237.8465281933902986
 51
343.6133223961168142
  0
ARC
  5
16617
  8
0
 10
3741.6436444654368643
 20
187.6245025140059113
 30
0.0
 40
0.0207861947450847
 50
179.5504308533733138
 51
237.8465281933902986
  0
ARC
  5
16618
  8
0
 10
3741.6512526901829006
 20
187.6168415271195045
 30
0.0
 40
0.0569110222471084
 50
126.1141616507516972
 51
191.1926523819876991
  0
ARC
  5
16619
  8
0
 10
3741.6496064872358147
 20
187.6190978631680082
 30
0.0
 40
0.0541179886803436
 50
53.2753899126916295
 51
126.1141616507508019
  0
ARC
  5
1661A
  8
0
 10
3741.6491909828628195
 20
187.6185409206975123
 30
0.0
 40
0.0548128475146493
 50
336.5006514589380231
 51
53.2753899126916295
  0
ARC
  5
1661B
  8
0
 10
3741.6489645989358905
 20
187.6186393521699074
 30
0.0
 40
0.0550597046338736
 50
193.4906985736533898
 51
336.5006514589364883
  0
ARC
  5
1661C
  8
0
 10
3741.6483664057432179
 20
187.6191133930223884
 30
0.0
 40
0.0629921259999986
 50
108.5740908953241046
 51
194.1209659493806043
  0
ARC
  5
1661D
  8
0
 10
3741.6483664057432179
 20
187.6191133930223884
 30
0.0
 40
0.0629921259999977
 50
46.5869016619009599
 51
108.5740908953241046
  0
ARC
  5
1661E
  8
0
 10
3741.6483664057432179
 20
187.6191133930223884
 30
0.0
 40
0.0629921260000025
 50
326.0791648970724737
 51
46.5869016619009599
  0
ARC
  5
1661F
  8
0
 10
3741.6483664057432179
 20
187.6191133930223884
 30
0.0
 40
0.0629921260000002
 50
194.1209659493775064
 51
326.079164897073781
  0
ARC
  5
16620
  8
0
 10
3741.6428166529149166
 20
187.625563525605088
 30
0.0
 40
0.0399772724486423
 50
110.4464100930904067
 51
202.07435465246391
  0
ARC
  5
16621
  8
0
 10
3741.6447886264809313
 20
187.6255196183859937
 30
0.0
 40
0.0407485062535606
 50
31.7573441729636698
 51
113.0237852857218996
  0
ARC
  5
16622
  8
0
 10
3741.6443345009211043
 20
187.6252663365264937
 30
0.0
 40
0.0412679571267722
 50
314.8502510597750756
 51
31.7245019672239685
  0
ARC
  5
16623
  8
0
 10
3741.6442406625360491
 20
187.624865910127312
 30
0.0
 40
0.041051736891376
 50
200.4249233086912909
 51
315.3372576755278942
  0
ARC
  5
16624
  8
0
 10
3741.7593352143489938
 20
187.5081315022092099
 30
0.0
 40
0.021751132325462
 50
75.423398733711025
 51
180.4218813335947971
  0
ARC
  5
16625
  8
0
 10
3741.7594454086138285
 20
187.5085552538749027
 30
0.0
 40
0.0213132873183441
 50
343.6133223961184058
 51
75.423398733711025
  0
ARC
  5
16626
  8
0
 10
3741.7589342759079045
 20
187.5087055592765068
 30
0.0
 40
0.0218460615261517
 50
237.8465281933902986
 51
343.6133223961168142
  0
ARC
  5
16627
  8
0
 10
3741.7583702265378633
 20
187.5078082489058886
 30
0.0
 40
0.0207861947450847
 50
179.5504308533733138
 51
237.8465281933902986
  0
ARC
  5
16628
  8
0
 10
3741.7659784512829901
 20
187.5001472620195102
 30
0.0
 40
0.0569110222471084
 50
126.1141616507516972
 51
191.1926523819876991
  0
ARC
  5
16629
  8
0
 10
3741.7643322483368138
 20
187.5024035980680139
 30
0.0
 40
0.0541179886803436
 50
53.2753899126916295
 51
126.1141616507508019
  0
ARC
  5
1662A
  8
0
 10
3741.7639167439629091
 20
187.5018466555974896
 30
0.0
 40
0.0548128475146493
 50
336.5006514589380231
 51
53.2753899126916295
  0
ARC
  5
1662B
  8
0
 10
3741.7636903600350706
 20
187.5019450870699131
 30
0.0
 40
0.0550597046338736
 50
193.4906985736533898
 51
336.5006514589364883
  0
ARC
  5
1662C
  8
0
 10
3741.763092166844217
 20
187.5024191279223942
 30
0.0
 40
0.0629921259999986
 50
108.5740908953241046
 51
194.1209659493806043
  0
ARC
  5
1662D
  8
0
 10
3741.763092166844217
 20
187.5024191279223942
 30
0.0
 40
0.0629921259999977
 50
46.5869016619009599
 51
108.5740908953241046
  0
ARC
  5
1662E
  8
0
 10
3741.763092166844217
 20
187.5024191279223942
 30
0.0
 40
0.0629921260000025
 50
326.0791648970724737
 51
46.5869016619009599
  0
ARC
  5
1662F
  8
0
 10
3741.763092166844217
 20
187.5024191279223942
 30
0.0
 40
0.0629921260000002
 50
194.1209659493775064
 51
326.079164897073781
  0
ARC
  5
16630
  8
0
 10
3741.7575424140150062
 20
187.5088692605050937
 30
0.0
 40
0.0399772724486423
 50
110.4464100930904067
 51
202.07435465246391
  0
ARC
  5
16631
  8
0
 10
3741.7595143875810209
 20
187.5088253532859994
 30
0.0
 40
0.0407485062535606
 50
31.7573441729636698
 51
113.0237852857218996
  0
ARC
  5
16632
  8
0
 10
3741.7590602620211939
 20
187.5085720714264994
 30
0.0
 40
0.0412679571267722
 50
314.8502510597750756
 51
31.7245019672239685
  0
ARC
  5
16633
  8
0
 10
3741.7589664236361386
 20
187.5081716450272893
 30
0.0
 40
0.041051736891376
 50
200.4249233086912909
 51
315.3372576755278942
  0
ARC
  5
16634
  8
0
 10
3741.3880909693480135
 20
187.6196153980091879
 30
0.0
 40
0.021751132325462
 50
75.423398733711025
 51
180.4218813335947971
  0
ARC
  5
16635
  8
0
 10
3741.3882011636142124
 20
187.6200391496749091
 30
0.0
 40
0.0213132873183441
 50
343.6133223961184058
 51
75.423398733711025
  0
ARC
  5
16636
  8
0
 10
3741.3876900309078337
 20
187.6201894550765132
 30
0.0
 40
0.0218460615261517
 50
237.8465281933902986
 51
343.6133223961168142
  0
ARC
  5
16637
  8
0
 10
3741.3871259815377925
 20
187.619292144705895
 30
0.0
 40
0.0207861947450847
 50
179.5504308533733138
 51
237.8465281933902986
  0
ARC
  5
16638
  8
0
 10
3741.3947342062829193
 20
187.6116311578194882
 30
0.0
 40
0.0569110222471084
 50
126.1141616507516972
 51
191.1926523819876991
  0
ARC
  5
16639
  8
0
 10
3741.3930880033371977
 20
187.6138874938679919
 30
0.0
 40
0.0541179886803436
 50
53.2753899126916295
 51
126.1141616507508019
  0
ARC
  5
1663A
  8
0
 10
3741.3926724989628383
 20
187.613330551397496
 30
0.0
 40
0.0548128475146493
 50
336.5006514589380231
 51
53.2753899126916295
  0
ARC
  5
1663B
  8
0
 10
3741.3924461150359093
 20
187.6134289828698911
 30
0.0
 40
0.0550597046338736
 50
193.4906985736533898
 51
336.5006514589364883
  0
ARC
  5
1663C
  8
0
 10
3741.3918479218427819
 20
187.6139030237224006
 30
0.0
 40
0.0629921259999986
 50
108.5740908953241046
 51
194.1209659493806043
  0
ARC
  5
1663D
  8
0
 10
3741.3918479218427819
 20
187.6139030237224006
 30
0.0
 40
0.0629921259999977
 50
46.5869016619009599
 51
108.5740908953241046
  0
ARC
  5
1663E
  8
0
 10
3741.3918479218427819
 20
187.6139030237224006
 30
0.0
 40
0.0629921260000025
 50
326.0791648970724737
 51
46.5869016619009599
  0
ARC
  5
1663F
  8
0
 10
3741.3918479218427819
 20
187.6139030237224006
 30
0.0
 40
0.0629921260000002
 50
194.1209659493775064
 51
326.079164897073781
  0
ARC
  5
16640
  8
0
 10
3741.3862981690149354
 20
187.6203531563051001
 30
0.0
 40
0.0399772724486423
 50
110.4464100930904067
 51
202.07435465246391
  0
ARC
  5
16641
  8
0
 10
3741.3882701425809501
 20
187.6203092490860058
 30
0.0
 40
0.0407485062535606
 50
31.7573441729636698
 51
113.0237852857218996
  0
ARC
  5
16642
  8
0
 10
3741.3878160170211231
 20
187.6200559672265058
 30
0.0
 40
0.0412679571267722
 50
314.8502510597750756
 51
31.7245019672239685
  0
ARC
  5
16643
  8
0
 10
3741.3877221786360678
 20
187.6196555408274094
 30
0.0
 40
0.041051736891376
 50
200.4249233086912909
 51
315.3372576755278942
  0
ARC
  5
16644
  8
0
 10
3741.5186252012481418
 20
187.7508100193091991
 30
0.0
 40
0.021751132325462
 50
75.423398733711025
 51
180.4218813335947971
  0
ARC
  5
16645
  8
0
 10
3741.5187353955129765
 20
187.751233770974892
 30
0.0
 40
0.0213132873183441
 50
343.6133223961184058
 51
75.423398733711025
  0
ARC
  5
16646
  8
0
 10
3741.5182242628079621
 20
187.7513840763764961
 30
0.0
 40
0.0218460615261517
 50
237.8465281933902986
 51
343.6133223961168142
  0
ARC
  5
16647
  8
0
 10
3741.5176602134379209
 20
187.7504867660059062
 30
0.0
 40
0.0207861947450847
 50
179.5504308533733138
 51
237.8465281933902986
  0
ARC
  5
16648
  8
0
 10
3741.5252684381830477
 20
187.7428257791194994
 30
0.0
 40
0.0569110222471084
 50
126.1141616507516972
 51
191.1926523819876991
  0
ARC
  5
16649
  8
0
 10
3741.5236222352368713
 20
187.7450821151680032
 30
0.0
 40
0.0541179886803436
 50
53.2753899126916295
 51
126.1141616507508019
  0
ARC
  5
1664A
  8
0
 10
3741.5232067308629667
 20
187.7445251726975073
 30
0.0
 40
0.0548128475146493
 50
336.5006514589380231
 51
53.2753899126916295
  0
ARC
  5
1664B
  8
0
 10
3741.5229803469360377
 20
187.7446236041699024
 30
0.0
 40
0.0550597046338736
 50
193.4906985736533898
 51
336.5006514589364883
  0
ARC
  5
1664C
  8
0
 10
3741.5223821537429103
 20
187.7450976450224118
 30
0.0
 40
0.0629921259999986
 50
108.5740908953241046
 51
194.1209659493806043
  0
ARC
  5
1664D
  8
0
 10
3741.5223821537429103
 20
187.7450976450224118
 30
0.0
 40
0.0629921259999977
 50
46.5869016619009599
 51
108.5740908953241046
  0
ARC
  5
1664E
  8
0
 10
3741.5223821537429103
 20
187.7450976450224118
 30
0.0
 40
0.0629921260000025
 50
326.0791648970724737
 51
46.5869016619009599
  0
ARC
  5
1664F
  8
0
 10
3741.5223821537429103
 20
187.7450976450224118
 30
0.0
 40
0.0629921260000002
 50
194.1209659493775064
 51
326.079164897073781
  0
ARC
  5
16650
  8
0
 10
3741.5168324009150638
 20
187.7515477776051114
 30
0.0
 40
0.0399772724486423
 50
110.4464100930904067
 51
202.07435465246391
  0
ARC
  5
16651
  8
0
 10
3741.5188043744810784
 20
187.7515038703859886
 30
0.0
 40
0.0407485062535606
 50
31.7573441729636698
 51
113.0237852857218996
  0
ARC
  5
16652
  8
0
 10
3741.5183502489207967
 20
187.7512505885264886
 30
0.0
 40
0.0412679571267722
 50
314.8502510597750756
 51
31.7245019672239685
  0
ARC
  5
16653
  8
0
 10
3741.5182564105361962
 20
187.7508501621273922
 30
0.0
 40
0.041051736891376
 50
200.4249233086912909
 51
315.3372576755278942
  0
ARC
  5
16654
  8
0
 10
3741.3926409492491985
 20
187.8767942712092065
 30
0.0
 40
0.021751132325462
 50
75.423398733711025
 51
180.4218813335947971
  0
ARC
  5
16655
  8
0
 10
3741.3927511435131237
 20
187.8772180228748994
 30
0.0
 40
0.0213132873183441
 50
343.6133223961184058
 51
75.423398733711025
  0
ARC
  5
16656
  8
0
 10
3741.3922400108090187
 20
187.8773683282765035
 30
0.0
 40
0.0218460615261517
 50
237.8465281933902986
 51
343.6133223961168142
  0
ARC
  5
16657
  8
0
 10
3741.391675961438068
 20
187.8764710179059136
 30
0.0
 40
0.0207861947450847
 50
179.5504308533733138
 51
237.8465281933902986
  0
ARC
  5
16658
  8
0
 10
3741.3992841861831948
 20
187.8688100310195068
 30
0.0
 40
0.0569110222471084
 50
126.1141616507516972
 51
191.1926523819876991
  0
ARC
  5
16659
  8
0
 10
3741.397637983236109
 20
187.8710663670680105
 30
0.0
 40
0.0541179886803436
 50
53.2753899126916295
 51
126.1141616507508019
  0
ARC
  5
1665A
  8
0
 10
3741.3972224788631138
 20
187.8705094245974863
 30
0.0
 40
0.0548128475146493
 50
336.5006514589380231
 51
53.2753899126916295
  0
ARC
  5
1665B
  8
0
 10
3741.3969960949361848
 20
187.8706078560699098
 30
0.0
 40
0.0550597046338736
 50
193.4906985736533898
 51
336.5006514589364883
  0
ARC
  5
1665C
  8
0
 10
3741.3963979017439669
 20
187.8710818969223908
 30
0.0
 40
0.0629921259999986
 50
108.5740908953241046
 51
194.1209659493806043
  0
ARC
  5
1665D
  8
0
 10
3741.3963979017439669
 20
187.8710818969223908
 30
0.0
 40
0.0629921259999977
 50
46.5869016619009599
 51
108.5740908953241046
  0
ARC
  5
1665E
  8
0
 10
3741.3963979017439669
 20
187.8710818969223908
 30
0.0
 40
0.0629921260000025
 50
326.0791648970724737
 51
46.5869016619009599
  0
ARC
  5
1665F
  8
0
 10
3741.3963979017439669
 20
187.8710818969223908
 30
0.0
 40
0.0629921260000002
 50
194.1209659493775064
 51
326.079164897073781
  0
ARC
  5
16660
  8
0
 10
3741.3908481489152109
 20
187.8775320295050903
 30
0.0
 40
0.0399772724486423
 50
110.4464100930904067
 51
202.07435465246391
  0
ARC
  5
16661
  8
0
 10
3741.3928201224812256
 20
187.877488122285996
 30
0.0
 40
0.0407485062535606
 50
31.7573441729636698
 51
113.0237852857218996
  0
ARC
  5
16662
  8
0
 10
3741.3923659969209439
 20
187.877234840426496
 30
0.0
 40
0.0412679571267722
 50
314.8502510597750756
 51
31.7245019672239685
  0
ARC
  5
16663
  8
0
 10
3741.3922721585358886
 20
187.8768344140273996
 30
0.0
 40
0.041051736891376
 50
200.4249233086912909
 51
315.3372576755278942
  0
ARC
  5
16664
  8
0
 10
3741.5186252012481418
 20
188.0027785232092015
 30
0.0
 40
0.021751132325462
 50
75.423398733711025
 51
180.4218813335947971
  0
ARC
  5
16665
  8
0
 10
3741.5187353955129765
 20
188.0032022748748943
 30
0.0
 40
0.0213132873183441
 50
343.6133223961184058
 51
75.423398733711025
  0
ARC
  5
16666
  8
0
 10
3741.5182242628079621
 20
188.0033525802764984
 30
0.0
 40
0.0218460615261517
 50
237.8465281933902986
 51
343.6133223961168142
  0
ARC
  5
16667
  8
0
 10
3741.5176602134379209
 20
188.0024552699059086
 30
0.0
 40
0.0207861947450847
 50
179.5504308533733138
 51
237.8465281933902986
  0
ARC
  5
16668
  8
0
 10
3741.5252684381830477
 20
187.9947942830195018
 30
0.0
 40
0.0569110222471084
 50
126.1141616507516972
 51
191.1926523819876991
  0
ARC
  5
16669
  8
0
 10
3741.5236222352368713
 20
187.9970506190680055
 30
0.0
 40
0.0541179886803436
 50
53.2753899126916295
 51
126.1141616507508019
  0
ARC
  5
1666A
  8
0
 10
3741.5232067308629667
 20
187.9964936765975096
 30
0.0
 40
0.0548128475146493
 50
336.5006514589380231
 51
53.2753899126916295
  0
ARC
  5
1666B
  8
0
 10
3741.5229803469360377
 20
187.9965921080699047
 30
0.0
 40
0.0550597046338736
 50
193.4906985736533898
 51
336.5006514589364883
  0
ARC
  5
1666C
  8
0
 10
3741.5223821537429103
 20
187.9970661489224142
 30
0.0
 40
0.0629921259999986
 50
108.5740908953241046
 51
194.1209659493806043
  0
ARC
  5
1666D
  8
0
 10
3741.5223821537429103
 20
187.9970661489224142
 30
0.0
 40
0.0629921259999977
 50
46.5869016619009599
 51
108.5740908953241046
  0
ARC
  5
1666E
  8
0
 10
3741.5223821537429103
 20
187.9970661489224142
 30
0.0
 40
0.0629921260000025
 50
326.0791648970724737
 51
46.5869016619009599
  0
ARC
  5
1666F
  8
0
 10
3741.5223821537429103
 20
187.9970661489224142
 30
0.0
 40
0.0629921260000002
 50
194.1209659493775064
 51
326.079164897073781
  0
ARC
  5
16670
  8
0
 10
3741.5168324009150638
 20
188.0035162815051137
 30
0.0
 40
0.0399772724486423
 50
110.4464100930904067
 51
202.07435465246391
  0
ARC
  5
16671
  8
0
 10
3741.5188043744810784
 20
188.0034723742859057
 30
0.0
 40
0.0407485062535606
 50
31.7573441729636698
 51
113.0237852857218996
  0
ARC
  5
16672
  8
0
 10
3741.5183502489207967
 20
188.003219092426491
 30
0.0
 40
0.0412679571267722
 50
314.8502510597750756
 51
31.7245019672239685
  0
ARC
  5
16673
  8
0
 10
3741.5182564105361962
 20
188.0028186660273093
 30
0.0
 40
0.041051736891376
 50
200.4249233086912909
 51
315.3372576755278942
  0
ARC
  5
16674
  8
0
 10
3741.6434601122718959
 20
187.8939348815119956
 30
0.0
 40
0.021751132325462
 50
75.423398733711025
 51
180.4218813335947971
  0
ARC
  5
16675
  8
0
 10
3741.6435703065380949
 20
187.8943586331776885
 30
0.0
 40
0.0213132873183441
 50
343.6133223961184058
 51
75.423398733711025
  0
ARC
  5
16676
  8
0
 10
3741.6430591738321709
 20
187.8945089385792926
 30
0.0
 40
0.0218460615261517
 50
237.8465281933902986
 51
343.6133223961168142
  0
ARC
  5
16677
  8
0
 10
3741.6424951244621298
 20
187.8936116282087028
 30
0.0
 40
0.0207861947450847
 50
179.5504308533733138
 51
237.8465281933902986
  0
ARC
  5
16678
  8
0
 10
3741.6501033492058923
 20
187.885950641322296
 30
0.0
 40
0.0569110222471084
 50
126.1141616507516972
 51
191.1926523819876991
  0
ARC
  5
16679
  8
0
 10
3741.6484571462601707
 20
187.8882069773707997
 30
0.0
 40
0.0541179886803436
 50
53.2753899126916295
 51
126.1141616507508019
  0
ARC
  5
1667A
  8
0
 10
3741.6480416418858113
 20
187.8876500349003038
 30
0.0
 40
0.0548128475146493
 50
336.5006514589380231
 51
53.2753899126916295
  0
ARC
  5
1667B
  8
0
 10
3741.6478152579588823
 20
187.8877484663726989
 30
0.0
 40
0.0550597046338736
 50
193.4906985736533898
 51
336.5006514589364883
  0
ARC
  5
1667C
  8
0
 10
3741.6472170647662097
 20
187.8882225072252083
 30
0.0
 40
0.0629921259999986
 50
108.5740908953241046
 51
194.1209659493806043
  0
ARC
  5
1667D
  8
0
 10
3741.6472170647662097
 20
187.8882225072252083
 30
0.0
 40
0.0629921259999977
 50
46.5869016619009599
 51
108.5740908953241046
  0
ARC
  5
1667E
  8
0
 10
3741.6472170647662097
 20
187.8882225072252083
 30
0.0
 40
0.0629921260000025
 50
326.0791648970724737
 51
46.5869016619009599
  0
ARC
  5
1667F
  8
0
 10
3741.6472170647662097
 20
187.8882225072252083
 30
0.0
 40
0.0629921260000002
 50
194.1209659493775064
 51
326.079164897073781
  0
ARC
  5
16680
  8
0
 10
3741.6416673119379084
 20
187.8946726398079079
 30
0.0
 40
0.0399772724486423
 50
110.4464100930904067
 51
202.07435465246391
  0
ARC
  5
16681
  8
0
 10
3741.6436392855048325
 20
187.8946287325888136
 30
0.0
 40
0.0407485062535606
 50
31.7573441729636698
 51
113.0237852857218996
  0
ARC
  5
16682
  8
0
 10
3741.6431851599440961
 20
187.8943754507293136
 30
0.0
 40
0.0412679571267722
 50
314.8502510597750756
 51
31.7245019672239685
  0
ARC
  5
16683
  8
0
 10
3741.6430913215599503
 20
187.8939750243301887
 30
0.0
 40
0.041051736891376
 50
200.4249233086912909
 51
315.3372576755278942
  0
ARC
  5
16684
  8
0
 10
3741.7705937051491674
 20
188.0027785232092015
 30
0.0
 40
0.021751132325462
 50
75.423398733711025
 51
180.4218813335947971
  0
ARC
  5
16685
  8
0
 10
3741.7707038994140021
 20
188.0032022748748943
 30
0.0
 40
0.0213132873183441
 50
343.6133223961184058
 51
75.423398733711025
  0
ARC
  5
16686
  8
0
 10
3741.7701927667080781
 20
188.0033525802764984
 30
0.0
 40
0.0218460615261517
 50
237.8465281933902986
 51
343.6133223961168142
  0
ARC
  5
16687
  8
0
 10
3741.7696287173380369
 20
188.0024552699059086
 30
0.0
 40
0.0207861947450847
 50
179.5504308533733138
 51
237.8465281933902986
  0
ARC
  5
16688
  8
0
 10
3741.7772369420831637
 20
187.9947942830195018
 30
0.0
 40
0.0569110222471084
 50
126.1141616507516972
 51
191.1926523819876991
  0
ARC
  5
16689
  8
0
 10
3741.7755907391360779
 20
187.9970506190680055
 30
0.0
 40
0.0541179886803436
 50
53.2753899126916295
 51
126.1141616507508019
  0
ARC
  5
1668A
  8
0
 10
3741.7751752347639922
 20
187.9964936765975096
 30
0.0
 40
0.0548128475146493
 50
336.5006514589380231
 51
53.2753899126916295
  0
ARC
  5
1668B
  8
0
 10
3741.7749488508361537
 20
187.9965921080699047
 30
0.0
 40
0.0550597046338736
 50
193.4906985736533898
 51
336.5006514589364883
  0
ARC
  5
1668C
  8
0
 10
3741.7743506576439358
 20
187.9970661489224142
 30
0.0
 40
0.0629921259999986
 50
108.5740908953241046
 51
194.1209659493806043
  0
ARC
  5
1668D
  8
0
 10
3741.7743506576439358
 20
187.9970661489224142
 30
0.0
 40
0.0629921259999977
 50
46.5869016619009599
 51
108.5740908953241046
  0
ARC
  5
1668E
  8
0
 10
3741.7743506576439358
 20
187.9970661489224142
 30
0.0
 40
0.0629921260000025
 50
326.0791648970724737
 51
46.5869016619009599
  0
ARC
  5
1668F
  8
0
 10
3741.7743506576439358
 20
187.9970661489224142
 30
0.0
 40
0.0629921260000002
 50
194.1209659493775064
 51
326.079164897073781
  0
ARC
  5
16690
  8
0
 10
3741.7688009048138156
 20
188.0035162815051137
 30
0.0
 40
0.0399772724486423
 50
110.4464100930904067
 51
202.07435465246391
  0
ARC
  5
16691
  8
0
 10
3741.7707728783811945
 20
188.0034723742859057
 30
0.0
 40
0.0407485062535606
 50
31.7573441729636698
 51
113.0237852857218996
  0
ARC
  5
16692
  8
0
 10
3741.7703187528209128
 20
188.003219092426491
 30
0.0
 40
0.0412679571267722
 50
314.8502510597750756
 51
31.7245019672239685
  0
ARC
  5
16693
  8
0
 10
3741.7702249144358575
 20
188.0028186660273093
 30
0.0
 40
0.041051736891376
 50
200.4249233086912909
 51
315.3372576755278942
  0
ARC
  5
16694
  8
0
 10
3741.8890102183249837
 20
187.8889436865885045
 30
0.0
 40
0.021751132325462
 50
75.423398733711025
 51
180.4218813335947971
  0
ARC
  5
16695
  8
0
 10
3741.8891204125898184
 20
187.8893674382541121
 30
0.0
 40
0.0213132873183441
 50
343.6133223961184058
 51
75.423398733711025
  0
ARC
  5
16696
  8
0
 10
3741.888609279884804
 20
187.8895177436558015
 30
0.0
 40
0.0218460615261517
 50
237.8465281933902986
 51
343.6133223961168142
  0
ARC
  5
16697
  8
0
 10
3741.8880452305138533
 20
187.888620433285098
 30
0.0
 40
0.0207861947450847
 50
179.5504308533733138
 51
237.8465281933902986
  0
ARC
  5
16698
  8
0
 10
3741.8956534552589801
 20
187.8809594463986912
 30
0.0
 40
0.0569110222471084
 50
126.1141616507516972
 51
191.1926523819876991
  0
ARC
  5
16699
  8
0
 10
3741.8940072523118943
 20
187.8832157824473086
 30
0.0
 40
0.0541179886803436
 50
53.2753899126916295
 51
126.1141616507508019
  0
ARC
  5
1669A
  8
0
 10
3741.8935917479398086
 20
187.882658839976699
 30
0.0
 40
0.0548128475146493
 50
336.5006514589380231
 51
53.2753899126916295
  0
ARC
  5
1669B
  8
0
 10
3741.8933653640119701
 20
187.8827572714492078
 30
0.0
 40
0.0550597046338736
 50
193.4906985736533898
 51
336.5006514589364883
  0
ARC
  5
1669C
  8
0
 10
3741.892767170820207
 20
187.8832313123016888
 30
0.0
 40
0.0629921259999986
 50
108.5740908953241046
 51
194.1209659493806043
  0
ARC
  5
1669D
  8
0
 10
3741.892767170820207
 20
187.8832313123016888
 30
0.0
 40
0.0629921259999977
 50
46.5869016619009599
 51
108.5740908953241046
  0
ARC
  5
1669E
  8
0
 10
3741.892767170820207
 20
187.8832313123016888
 30
0.0
 40
0.0629921260000025
 50
326.0791648970724737
 51
46.5869016619009599
  0
ARC
  5
1669F
  8
0
 10
3741.892767170820207
 20
187.8832313123016888
 30
0.0
 40
0.0629921260000002
 50
194.1209659493775064
 51
326.079164897073781
  0
ARC
  5
166A0
  8
0
 10
3741.8872174179900867
 20
187.8896814448843031
 30
0.0
 40
0.0399772724486423
 50
110.4464100930904067
 51
202.07435465246391
  0
ARC
  5
166A1
  8
0
 10
3741.8891893915570108
 20
187.8896375376652088
 30
0.0
 40
0.0407485062535606
 50
31.7573441729636698
 51
113.0237852857218996
  0
ARC
  5
166A2
  8
0
 10
3741.8887352659971839
 20
187.8893842558057088
 30
0.0
 40
0.0412679571267722
 50
314.8502510597750756
 51
31.7245019672239685
  0
ARC
  5
166A3
  8
0
 10
3741.8886414276130381
 20
187.8889838294066124
 30
0.0
 40
0.041051736891376
 50
200.4249233086912909
 51
315.3372576755278942
  0
ARC
  5
166A4
  8
0
 10
3741.7705937051491674
 20
187.7508100193091991
 30
0.0
 40
0.021751132325462
 50
75.423398733711025
 51
180.4218813335947971
  0
ARC
  5
166A5
  8
0
 10
3741.7707038994140021
 20
187.751233770974892
 30
0.0
 40
0.0213132873183441
 50
343.6133223961184058
 51
75.423398733711025
  0
ARC
  5
166A6
  8
0
 10
3741.7701927667080781
 20
187.7513840763764961
 30
0.0
 40
0.0218460615261517
 50
237.8465281933902986
 51
343.6133223961168142
  0
ARC
  5
166A7
  8
0
 10
3741.7696287173380369
 20
187.7504867660059062
 30
0.0
 40
0.0207861947450847
 50
179.5504308533733138
 51
237.8465281933902986
  0
ARC
  5
166A8
  8
0
 10
3741.7772369420831637
 20
187.7428257791194994
 30
0.0
 40
0.0569110222471084
 50
126.1141616507516972
 51
191.1926523819876991
  0
ARC
  5
166A9
  8
0
 10
3741.7755907391360779
 20
187.7450821151680032
 30
0.0
 40
0.0541179886803436
 50
53.2753899126916295
 51
126.1141616507508019
  0
ARC
  5
166AA
  8
0
 10
3741.7751752347639922
 20
187.7445251726975073
 30
0.0
 40
0.0548128475146493
 50
336.5006514589380231
 51
53.2753899126916295
  0
ARC
  5
166AB
  8
0
 10
3741.7749488508361537
 20
187.7446236041699024
 30
0.0
 40
0.0550597046338736
 50
193.4906985736533898
 51
336.5006514589364883
  0
ARC
  5
166AC
  8
0
 10
3741.7743506576439358
 20
187.7450976450224118
 30
0.0
 40
0.0629921259999986
 50
108.5740908953241046
 51
194.1209659493806043
  0
ARC
  5
166AD
  8
0
 10
3741.7743506576439358
 20
187.7450976450224118
 30
0.0
 40
0.0629921259999977
 50
46.5869016619009599
 51
108.5740908953241046
  0
ARC
  5
166AE
  8
0
 10
3741.7743506576439358
 20
187.7450976450224118
 30
0.0
 40
0.0629921260000025
 50
326.0791648970724737
 51
46.5869016619009599
  0
ARC
  5
166AF
  8
0
 10
3741.7743506576439358
 20
187.7450976450224118
 30
0.0
 40
0.0629921260000002
 50
194.1209659493775064
 51
326.079164897073781
  0
ARC
  5
166B0
  8
0
 10
3741.7688009048138156
 20
187.7515477776051114
 30
0.0
 40
0.0399772724486423
 50
110.4464100930904067
 51
202.07435465246391
  0
ARC
  5
166B1
  8
0
 10
3741.7707728783811945
 20
187.7515038703859886
 30
0.0
 40
0.0407485062535606
 50
31.7573441729636698
 51
113.0237852857218996
  0
ARC
  5
166B2
  8
0
 10
3741.7703187528209128
 20
187.7512505885264886
 30
0.0
 40
0.0412679571267722
 50
314.8502510597750756
 51
31.7245019672239685
  0
ARC
  5
166B3
  8
0
 10
3741.7702249144358575
 20
187.7508501621273922
 30
0.0
 40
0.041051736891376
 50
200.4249233086912909
 51
315.3372576755278942
  0
ARC
  5
166B4
  8
0
 10
3741.8965779571481107
 20
187.6248257673092041
 30
0.0
 40
0.021751132325462
 50
75.423398733711025
 51
180.4218813335947971
  0
ARC
  5
166B5
  8
0
 10
3741.8966881514138549
 20
187.625249518974897
 30
0.0
 40
0.0213132873183441
 50
343.6133223961184058
 51
75.423398733711025
  0
ARC
  5
166B6
  8
0
 10
3741.896177018707931
 20
187.6253998243765011
 30
0.0
 40
0.0218460615261517
 50
237.8465281933902986
 51
343.6133223961168142
  0
ARC
  5
166B7
  8
0
 10
3741.8956129693378898
 20
187.6245025140059113
 30
0.0
 40
0.0207861947450847
 50
179.5504308533733138
 51
237.8465281933902986
  0
ARC
  5
166B8
  8
0
 10
3741.9032211940821071
 20
187.6168415271195045
 30
0.0
 40
0.0569110222471084
 50
126.1141616507516972
 51
191.1926523819876991
  0
ARC
  5
166B9
  8
0
 10
3741.9015749911359308
 20
187.6190978631680082
 30
0.0
 40
0.0541179886803436
 50
53.2753899126916295
 51
126.1141616507508019
  0
ARC
  5
166BA
  8
0
 10
3741.9011594867638451
 20
187.6185409206975123
 30
0.0
 40
0.0548128475146493
 50
336.5006514589380231
 51
53.2753899126916295
  0
ARC
  5
166BB
  8
0
 10
3741.9009331028360066
 20
187.6186393521699074
 30
0.0
 40
0.0550597046338736
 50
193.4906985736533898
 51
336.5006514589364883
  0
ARC
  5
166BC
  8
0
 10
3741.9003349096437887
 20
187.6191133930223884
 30
0.0
 40
0.0629921259999986
 50
108.5740908953241046
 51
194.1209659493806043
  0
ARC
  5
166BD
  8
0
 10
3741.9003349096437887
 20
187.6191133930223884
 30
0.0
 40
0.0629921259999977
 50
46.5869016619009599
 51
108.5740908953241046
  0
ARC
  5
166BE
  8
0
 10
3741.9003349096437887
 20
187.6191133930223884
 30
0.0
 40
0.0629921260000025
 50
326.0791648970724737
 51
46.5869016619009599
  0
ARC
  5
166BF
  8
0
 10
3741.9003349096437887
 20
187.6191133930223884
 30
0.0
 40
0.0629921260000002
 50
194.1209659493775064
 51
326.079164897073781
  0
ARC
  5
166C0
  8
0
 10
3741.8947851568141232
 20
187.625563525605088
 30
0.0
 40
0.0399772724486423
 50
110.4464100930904067
 51
202.07435465246391
  0
ARC
  5
166C1
  8
0
 10
3741.8967571303810473
 20
187.6255196183859937
 30
0.0
 40
0.0407485062535606
 50
31.7573441729636698
 51
113.0237852857218996
  0
ARC
  5
166C2
  8
0
 10
3741.8963030048212204
 20
187.6252663365264937
 30
0.0
 40
0.0412679571267722
 50
314.8502510597750756
 51
31.7245019672239685
  0
ARC
  5
166C3
  8
0
 10
3741.8962091664361651
 20
187.624865910127312
 30
0.0
 40
0.041051736891376
 50
200.4249233086912909
 51
315.3372576755278942
  0
ARC
  5
166C4
  8
0
 10
3741.8965779571481107
 20
188.1287627752091964
 30
0.0
 40
0.021751132325462
 50
75.423398733711025
 51
180.4218813335947971
  0
ARC
  5
166C5
  8
0
 10
3741.8966881514138549
 20
188.1291865268748893
 30
0.0
 40
0.0213132873183441
 50
343.6133223961184058
 51
75.423398733711025
  0
ARC
  5
166C6
  8
0
 10
3741.896177018707931
 20
188.1293368322764934
 30
0.0
 40
0.0218460615261517
 50
237.8465281933902986
 51
343.6133223961168142
  0
ARC
  5
166C7
  8
0
 10
3741.8956129693378898
 20
188.1284395219059036
 30
0.0
 40
0.0207861947450847
 50
179.5504308533733138
 51
237.8465281933902986
  0
ARC
  5
166C8
  8
0
 10
3741.9032211940821071
 20
188.1207785350194968
 30
0.0
 40
0.0569110222471084
 50
126.1141616507516972
 51
191.1926523819876991
  0
ARC
  5
166C9
  8
0
 10
3741.9015749911359308
 20
188.1230348710680005
 30
0.0
 40
0.0541179886803436
 50
53.2753899126916295
 51
126.1141616507508019
  0
ARC
  5
166CA
  8
0
 10
3741.9011594867638451
 20
188.1224779285975046
 30
0.0
 40
0.0548128475146493
 50
336.5006514589380231
 51
53.2753899126916295
  0
ARC
  5
166CB
  8
0
 10
3741.9009331028360066
 20
188.1225763600698997
 30
0.0
 40
0.0550597046338736
 50
193.4906985736533898
 51
336.5006514589364883
  0
ARC
  5
166CC
  8
0
 10
3741.9003349096437887
 20
188.1230504009224092
 30
0.0
 40
0.0629921259999986
 50
108.5740908953241046
 51
194.1209659493806043
  0
ARC
  5
166CD
  8
0
 10
3741.9003349096437887
 20
188.1230504009224092
 30
0.0
 40
0.0629921259999977
 50
46.5869016619009599
 51
108.5740908953241046
  0
ARC
  5
166CE
  8
0
 10
3741.9003349096437887
 20
188.1230504009224092
 30
0.0
 40
0.0629921260000025
 50
326.0791648970724737
 51
46.5869016619009599
  0
ARC
  5
166CF
  8
0
 10
3741.9003349096437887
 20
188.1230504009224092
 30
0.0
 40
0.0629921260000002
 50
194.1209659493775064
 51
326.079164897073781
  0
ARC
  5
166D0
  8
0
 10
3741.8947851568141232
 20
188.1295005335051087
 30
0.0
 40
0.0399772724486423
 50
110.4464100930904067
 51
202.07435465246391
  0
ARC
  5
166D1
  8
0
 10
3741.8967571303810473
 20
188.129456626285986
 30
0.0
 40
0.0407485062535606
 50
31.7573441729636698
 51
113.0237852857218996
  0
ARC
  5
166D2
  8
0
 10
3741.8963030048212204
 20
188.129203344426486
 30
0.0
 40
0.0412679571267722
 50
314.8502510597750756
 51
31.7245019672239685
  0
ARC
  5
166D3
  8
0
 10
3741.8962091664361651
 20
188.1288029180273043
 30
0.0
 40
0.041051736891376
 50
200.4249233086912909
 51
315.3372576755278942
  0
ARC
  5
166D4
  8
0
 10
3741.7705937051491674
 20
188.2547470271092038
 30
0.0
 40
0.021751132325462
 50
75.423398733711025
 51
180.4218813335947971
  0
ARC
  5
166D5
  8
0
 10
3741.7707038994140021
 20
188.2551707787748967
 30
0.0
 40
0.0213132873183441
 50
343.6133223961184058
 51
75.423398733711025
  0
ARC
  5
166D6
  8
0
 10
3741.7701927667080781
 20
188.2553210841765008
 30
0.0
 40
0.0218460615261517
 50
237.8465281933902986
 51
343.6133223961168142
  0
ARC
  5
166D7
  8
0
 10
3741.7696287173380369
 20
188.254423773805911
 30
0.0
 40
0.0207861947450847
 50
179.5504308533733138
 51
237.8465281933902986
  0
ARC
  5
166D8
  8
0
 10
3741.7772369420831637
 20
188.2467627869195042
 30
0.0
 40
0.0569110222471084
 50
126.1141616507516972
 51
191.1926523819876991
  0
ARC
  5
166D9
  8
0
 10
3741.7755907391360779
 20
188.2490191229680079
 30
0.0
 40
0.0541179886803436
 50
53.2753899126916295
 51
126.1141616507508019
  0
ARC
  5
166DA
  8
0
 10
3741.7751752347639922
 20
188.248462180497512
 30
0.0
 40
0.0548128475146493
 50
336.5006514589380231
 51
53.2753899126916295
  0
ARC
  5
166DB
  8
0
 10
3741.7749488508361537
 20
188.2485606119699071
 30
0.0
 40
0.0550597046338736
 50
193.4906985736533898
 51
336.5006514589364883
  0
ARC
  5
166DC
  8
0
 10
3741.7743506576439358
 20
188.2490346528223881
 30
0.0
 40
0.0629921259999986
 50
108.5740908953241046
 51
194.1209659493806043
  0
ARC
  5
166DD
  8
0
 10
3741.7743506576439358
 20
188.2490346528223881
 30
0.0
 40
0.0629921259999977
 50
46.5869016619009599
 51
108.5740908953241046
  0
ARC
  5
166DE
  8
0
 10
3741.7743506576439358
 20
188.2490346528223881
 30
0.0
 40
0.0629921260000025
 50
326.0791648970724737
 51
46.5869016619009599
  0
ARC
  5
166DF
  8
0
 10
3741.7743506576439358
 20
188.2490346528223881
 30
0.0
 40
0.0629921260000002
 50
194.1209659493775064
 51
326.079164897073781
  0
ARC
  5
166E0
  8
0
 10
3741.7688009048138156
 20
188.2554847854050877
 30
0.0
 40
0.0399772724486423
 50
110.4464100930904067
 51
202.07435465246391
  0
ARC
  5
166E1
  8
0
 10
3741.7707728783811945
 20
188.2554408781859934
 30
0.0
 40
0.0407485062535606
 50
31.7573441729636698
 51
113.0237852857218996
  0
ARC
  5
166E2
  8
0
 10
3741.7703187528209128
 20
188.2551875963264933
 30
0.0
 40
0.0412679571267722
 50
314.8502510597750756
 51
31.7245019672239685
  0
ARC
  5
166E3
  8
0
 10
3741.7702249144358575
 20
188.2547871699273117
 30
0.0
 40
0.041051736891376
 50
200.4249233086912909
 51
315.3372576755278942
  0
ARC
  5
166E4
  8
0
 10
3741.6446094532479947
 20
188.1287627752091964
 30
0.0
 40
0.021751132325462
 50
75.423398733711025
 51
180.4218813335947971
  0
ARC
  5
166E5
  8
0
 10
3741.6447196475141936
 20
188.1291865268748893
 30
0.0
 40
0.0213132873183441
 50
343.6133223961184058
 51
75.423398733711025
  0
ARC
  5
166E6
  8
0
 10
3741.6442085148078149
 20
188.1293368322764934
 30
0.0
 40
0.0218460615261517
 50
237.8465281933902986
 51
343.6133223961168142
  0
ARC
  5
166E7
  8
0
 10
3741.6436444654368643
 20
188.1284395219059036
 30
0.0
 40
0.0207861947450847
 50
179.5504308533733138
 51
237.8465281933902986
  0
ARC
  5
166E8
  8
0
 10
3741.6512526901829006
 20
188.1207785350194968
 30
0.0
 40
0.0569110222471084
 50
126.1141616507516972
 51
191.1926523819876991
  0
ARC
  5
166E9
  8
0
 10
3741.6496064872358147
 20
188.1230348710680005
 30
0.0
 40
0.0541179886803436
 50
53.2753899126916295
 51
126.1141616507508019
  0
ARC
  5
166EA
  8
0
 10
3741.6491909828628195
 20
188.1224779285975046
 30
0.0
 40
0.0548128475146493
 50
336.5006514589380231
 51
53.2753899126916295
  0
ARC
  5
166EB
  8
0
 10
3741.6489645989358905
 20
188.1225763600698997
 30
0.0
 40
0.0550597046338736
 50
193.4906985736533898
 51
336.5006514589364883
  0
ARC
  5
166EC
  8
0
 10
3741.6483664057432179
 20
188.1230504009224092
 30
0.0
 40
0.0629921259999986
 50
108.5740908953241046
 51
194.1209659493806043
  0
ARC
  5
166ED
  8
0
 10
3741.6483664057432179
 20
188.1230504009224092
 30
0.0
 40
0.0629921259999977
 50
46.5869016619009599
 51
108.5740908953241046
  0
ARC
  5
166EE
  8
0
 10
3741.6483664057432179
 20
188.1230504009224092
 30
0.0
 40
0.0629921260000025
 50
326.0791648970724737
 51
46.5869016619009599
  0
ARC
  5
166EF
  8
0
 10
3741.6483664057432179
 20
188.1230504009224092
 30
0.0
 40
0.0629921260000002
 50
194.1209659493775064
 51
326.079164897073781
  0
ARC
  5
166F0
  8
0
 10
3741.6428166529149166
 20
188.1295005335051087
 30
0.0
 40
0.0399772724486423
 50
110.4464100930904067
 51
202.07435465246391
  0
ARC
  5
166F1
  8
0
 10
3741.6447886264809313
 20
188.129456626285986
 30
0.0
 40
0.0407485062535606
 50
31.7573441729636698
 51
113.0237852857218996
  0
ARC
  5
166F2
  8
0
 10
3741.6443345009211043
 20
188.129203344426486
 30
0.0
 40
0.0412679571267722
 50
314.8502510597750756
 51
31.7245019672239685
  0
ARC
  5
166F3
  8
0
 10
3741.6442406625360491
 20
188.1288029180273043
 30
0.0
 40
0.041051736891376
 50
200.4249233086912909
 51
315.3372576755278942
  0
ARC
  5
166F4
  8
0
 10
3741.3926409492491985
 20
188.1287627752091964
 30
0.0
 40
0.021751132325462
 50
75.423398733711025
 51
180.4218813335947971
  0
ARC
  5
166F5
  8
0
 10
3741.3927511435131237
 20
188.1291865268748893
 30
0.0
 40
0.0213132873183441
 50
343.6133223961184058
 51
75.423398733711025
  0
ARC
  5
166F6
  8
0
 10
3741.3922400108090187
 20
188.1293368322764934
 30
0.0
 40
0.0218460615261517
 50
237.8465281933902986
 51
343.6133223961168142
  0
ARC
  5
166F7
  8
0
 10
3741.391675961438068
 20
188.1284395219059036
 30
0.0
 40
0.0207861947450847
 50
179.5504308533733138
 51
237.8465281933902986
  0
ARC
  5
166F8
  8
0
 10
3741.3992841861831948
 20
188.1207785350194968
 30
0.0
 40
0.0569110222471084
 50
126.1141616507516972
 51
191.1926523819876991
  0
ARC
  5
166F9
  8
0
 10
3741.397637983236109
 20
188.1230348710680005
 30
0.0
 40
0.0541179886803436
 50
53.2753899126916295
 51
126.1141616507508019
  0
ARC
  5
166FA
  8
0
 10
3741.3972224788631138
 20
188.1224779285975046
 30
0.0
 40
0.0548128475146493
 50
336.5006514589380231
 51
53.2753899126916295
  0
ARC
  5
166FB
  8
0
 10
3741.3969960949361848
 20
188.1225763600698997
 30
0.0
 40
0.0550597046338736
 50
193.4906985736533898
 51
336.5006514589364883
  0
ARC
  5
166FC
  8
0
 10
3741.3963979017439669
 20
188.1230504009224092
 30
0.0
 40
0.0629921259999986
 50
108.5740908953241046
 51
194.1209659493806043
  0
ARC
  5
166FD
  8
0
 10
3741.3963979017439669
 20
188.1230504009224092
 30
0.0
 40
0.0629921259999977
 50
46.5869016619009599
 51
108.5740908953241046
  0
ARC
  5
166FE
  8
0
 10
3741.3963979017439669
 20
188.1230504009224092
 30
0.0
 40
0.0629921260000025
 50
326.0791648970724737
 51
46.5869016619009599
  0
ARC
  5
166FF
  8
0
 10
3741.3963979017439669
 20
188.1230504009224092
 30
0.0
 40
0.0629921260000002
 50
194.1209659493775064
 51
326.079164897073781
  0
ARC
  5
16700
  8
0
 10
3741.3908481489152109
 20
188.1295005335051087
 30
0.0
 40
0.0399772724486423
 50
110.4464100930904067
 51
202.07435465246391
  0
ARC
  5
16701
  8
0
 10
3741.3928201224812256
 20
188.129456626285986
 30
0.0
 40
0.0407485062535606
 50
31.7573441729636698
 51
113.0237852857218996
  0
ARC
  5
16702
  8
0
 10
3741.3923659969209439
 20
188.129203344426486
 30
0.0
 40
0.0412679571267722
 50
314.8502510597750756
 51
31.7245019672239685
  0
ARC
  5
16703
  8
0
 10
3741.3922721585358886
 20
188.1288029180273043
 30
0.0
 40
0.041051736891376
 50
200.4249233086912909
 51
315.3372576755278942
  0
ARC
  5
16704
  8
0
 10
3741.3745041394558939
 20
188.397056242867194
 30
0.0
 40
0.021751132325462
 50
75.423398733711025
 51
180.4218813335947971
  0
ARC
  5
16705
  8
0
 10
3741.3746143337220929
 20
188.3974799945328868
 30
0.0
 40
0.0213132873183441
 50
343.6133223961184058
 51
75.423398733711025
  0
ARC
  5
16706
  8
0
 10
3741.3741032010170784
 20
188.3976302999344909
 30
0.0
 40
0.0218460615261517
 50
237.8465281933902986
 51
343.6133223961168142
  0
ARC
  5
16707
  8
0
 10
3741.3735391516461277
 20
188.3967329895639011
 30
0.0
 40
0.0207861947450847
 50
179.5504308533733138
 51
237.8465281933902986
  0
ARC
  5
16708
  8
0
 10
3741.3811473763907998
 20
188.3890720026774943
 30
0.0
 40
0.0569110222471084
 50
126.1141616507516972
 51
191.1926523819876991
  0
ARC
  5
16709
  8
0
 10
3741.3795011734450782
 20
188.391328338725998
 30
0.0
 40
0.0541179886803436
 50
53.2753899126916295
 51
126.1141616507508019
  0
ARC
  5
1670A
  8
0
 10
3741.3790856690711735
 20
188.3907713962555022
 30
0.0
 40
0.0548128475146493
 50
336.5006514589380231
 51
53.2753899126916295
  0
ARC
  5
1670B
  8
0
 10
3741.3788592851437897
 20
188.3908698277278972
 30
0.0
 40
0.0550597046338736
 50
193.4906985736533898
 51
336.5006514589364883
  0
ARC
  5
1670C
  8
0
 10
3741.3782610919520266
 20
188.3913438685804067
 30
0.0
 40
0.0629921259999986
 50
108.5740908953241046
 51
194.1209659493806043
  0
ARC
  5
1670D
  8
0
 10
3741.3782610919520266
 20
188.3913438685804067
 30
0.0
 40
0.0629921259999977
 50
46.5869016619009599
 51
108.5740908953241046
  0
ARC
  5
1670E
  8
0
 10
3741.3782610919520266
 20
188.3913438685804067
 30
0.0
 40
0.0629921260000025
 50
326.0791648970724737
 51
46.5869016619009599
  0
ARC
  5
1670F
  8
0
 10
3741.3782610919520266
 20
188.3913438685804067
 30
0.0
 40
0.0629921260000002
 50
194.1209659493775064
 51
326.079164897073781
  0
ARC
  5
16710
  8
0
 10
3741.3727113391228158
 20
188.3977940011631063
 30
0.0
 40
0.0399772724486423
 50
110.4464100930904067
 51
202.07435465246391
  0
ARC
  5
16711
  8
0
 10
3741.3746833126888305
 20
188.397750093944012
 30
0.0
 40
0.0407485062535606
 50
31.7573441729636698
 51
113.0237852857218996
  0
ARC
  5
16712
  8
0
 10
3741.374229187129913
 20
188.3974968120845119
 30
0.0
 40
0.0412679571267722
 50
314.8502510597750756
 51
31.7245019672239685
  0
ARC
  5
16713
  8
0
 10
3741.3741353487448578
 20
188.3970963856853018
 30
0.0
 40
0.041051736891376
 50
200.4249233086912909
 51
315.3372576755278942
  0
ARC
  5
16714
  8
0
 10
3741.5186252012481418
 20
188.2547470271092038
 30
0.0
 40
0.021751132325462
 50
75.423398733711025
 51
180.4218813335947971
  0
ARC
  5
16715
  8
0
 10
3741.5187353955129765
 20
188.2551707787748967
 30
0.0
 40
0.0213132873183441
 50
343.6133223961184058
 51
75.423398733711025
  0
ARC
  5
16716
  8
0
 10
3741.5182242628079621
 20
188.2553210841765008
 30
0.0
 40
0.0218460615261517
 50
237.8465281933902986
 51
343.6133223961168142
  0
ARC
  5
16717
  8
0
 10
3741.5176602134379209
 20
188.254423773805911
 30
0.0
 40
0.0207861947450847
 50
179.5504308533733138
 51
237.8465281933902986
  0
ARC
  5
16718
  8
0
 10
3741.5252684381830477
 20
188.2467627869195042
 30
0.0
 40
0.0569110222471084
 50
126.1141616507516972
 51
191.1926523819876991
  0
ARC
  5
16719
  8
0
 10
3741.5236222352368713
 20
188.2490191229680079
 30
0.0
 40
0.0541179886803436
 50
53.2753899126916295
 51
126.1141616507508019
  0
ARC
  5
1671A
  8
0
 10
3741.5232067308629667
 20
188.248462180497512
 30
0.0
 40
0.0548128475146493
 50
336.5006514589380231
 51
53.2753899126916295
  0
ARC
  5
1671B
  8
0
 10
3741.5229803469360377
 20
188.2485606119699071
 30
0.0
 40
0.0550597046338736
 50
193.4906985736533898
 51
336.5006514589364883
  0
ARC
  5
1671C
  8
0
 10
3741.5223821537429103
 20
188.2490346528223881
 30
0.0
 40
0.0629921259999986
 50
108.5740908953241046
 51
194.1209659493806043
  0
ARC
  5
1671D
  8
0
 10
3741.5223821537429103
 20
188.2490346528223881
 30
0.0
 40
0.0629921259999977
 50
46.5869016619009599
 51
108.5740908953241046
  0
ARC
  5
1671E
  8
0
 10
3741.5223821537429103
 20
188.2490346528223881
 30
0.0
 40
0.0629921260000025
 50
326.0791648970724737
 51
46.5869016619009599
  0
ARC
  5
1671F
  8
0
 10
3741.5223821537429103
 20
188.2490346528223881
 30
0.0
 40
0.0629921260000002
 50
194.1209659493775064
 51
326.079164897073781
  0
ARC
  5
16720
  8
0
 10
3741.5168324009150638
 20
188.2554847854050877
 30
0.0
 40
0.0399772724486423
 50
110.4464100930904067
 51
202.07435465246391
  0
ARC
  5
16721
  8
0
 10
3741.5188043744810784
 20
188.2554408781859934
 30
0.0
 40
0.0407485062535606
 50
31.7573441729636698
 51
113.0237852857218996
  0
ARC
  5
16722
  8
0
 10
3741.5183502489207967
 20
188.2551875963264933
 30
0.0
 40
0.0412679571267722
 50
314.8502510597750756
 51
31.7245019672239685
  0
ARC
  5
16723
  8
0
 10
3741.5182564105361962
 20
188.2547871699273117
 30
0.0
 40
0.041051736891376
 50
200.4249233086912909
 51
315.3372576755278942
  0
ARC
  5
16724
  8
0
 10
3741.5104516766518827
 20
188.5267688894435025
 30
0.0
 40
0.021751132325462
 50
75.423398733711025
 51
180.4218813335947971
  0
ARC
  5
16725
  8
0
 10
3741.5105618709171722
 20
188.5271926411091954
 30
0.0
 40
0.0213132873183441
 50
343.6133223961184058
 51
75.423398733711025
  0
ARC
  5
16726
  8
0
 10
3741.5100507382121577
 20
188.5273429465107995
 30
0.0
 40
0.0218460615261517
 50
237.8465281933902986
 51
343.6133223961168142
  0
ARC
  5
16727
  8
0
 10
3741.5094866888412071
 20
188.5264456361402097
 30
0.0
 40
0.0207861947450847
 50
179.5504308533733138
 51
237.8465281933902986
  0
ARC
  5
16728
  8
0
 10
3741.5170949135858791
 20
188.5187846492538029
 30
0.0
 40
0.0569110222471084
 50
126.1141616507516972
 51
191.1926523819876991
  0
ARC
  5
16729
  8
0
 10
3741.5154487106401575
 20
188.5210409853023066
 30
0.0
 40
0.0541179886803436
 50
53.2753899126916295
 51
126.1141616507508019
  0
ARC
  5
1672A
  8
0
 10
3741.5150332062671623
 20
188.5204840428318107
 30
0.0
 40
0.0548128475146493
 50
336.5006514589380231
 51
53.2753899126916295
  0
ARC
  5
1672B
  8
0
 10
3741.5148068223388691
 20
188.5205824743042058
 30
0.0
 40
0.0550597046338736
 50
193.4906985736533898
 51
336.5006514589364883
  0
ARC
  5
1672C
  8
0
 10
3741.514208629147106
 20
188.5210565151566868
 30
0.0
 40
0.0629921259999986
 50
108.5740908953241046
 51
194.1209659493806043
  0
ARC
  5
1672D
  8
0
 10
3741.514208629147106
 20
188.5210565151566868
 30
0.0
 40
0.0629921259999977
 50
46.5869016619009599
 51
108.5740908953241046
  0
ARC
  5
1672E
  8
0
 10
3741.514208629147106
 20
188.5210565151566868
 30
0.0
 40
0.0629921260000025
 50
326.0791648970724737
 51
46.5869016619009599
  0
ARC
  5
1672F
  8
0
 10
3741.514208629147106
 20
188.5210565151566868
 30
0.0
 40
0.0629921260000002
 50
194.1209659493775064
 51
326.079164897073781
  0
ARC
  5
16730
  8
0
 10
3741.5086588763178952
 20
188.5275066477395001
 30
0.0
 40
0.0399772724486423
 50
110.4464100930904067
 51
202.07435465246391
  0
ARC
  5
16731
  8
0
 10
3741.5106308498839098
 20
188.5274627405202921
 30
0.0
 40
0.0407485062535606
 50
31.7573441729636698
 51
113.0237852857218996
  0
ARC
  5
16732
  8
0
 10
3741.5101767243240829
 20
188.5272094586607921
 30
0.0
 40
0.0412679571267722
 50
314.8502510597750756
 51
31.7245019672239685
  0
ARC
  5
16733
  8
0
 10
3741.5100828859399371
 20
188.5268090322616956
 30
0.0
 40
0.041051736891376
 50
200.4249233086912909
 51
315.3372576755278942
  0
ARC
  5
16734
  8
0
 10
3741.6446217376478671
 20
188.3792548848091997
 30
0.0
 40
0.021751132325462
 50
75.423398733711025
 51
180.4218813335947971
  0
ARC
  5
16735
  8
0
 10
3741.6447319319140661
 20
188.3796786364748925
 30
0.0
 40
0.0213132873183441
 50
343.6133223961184058
 51
75.423398733711025
  0
ARC
  5
16736
  8
0
 10
3741.6442207992090516
 20
188.3798289418764966
 30
0.0
 40
0.0218460615261517
 50
237.8465281933902986
 51
343.6133223961168142
  0
ARC
  5
16737
  8
0
 10
3741.643656749838101
 20
188.3789316315059068
 30
0.0
 40
0.0207861947450847
 50
179.5504308533733138
 51
237.8465281933902986
  0
ARC
  5
16738
  8
0
 10
3741.651264974582773
 20
188.3712706446195
 30
0.0
 40
0.0569110222471084
 50
126.1141616507516972
 51
191.1926523819876991
  0
ARC
  5
16739
  8
0
 10
3741.6496187716361419
 20
188.3735269806680037
 30
0.0
 40
0.0541179886803436
 50
53.2753899126916295
 51
126.1141616507508019
  0
ARC
  5
1673A
  8
0
 10
3741.6492032672631467
 20
188.3729700381975078
 30
0.0
 40
0.0548128475146493
 50
336.5006514589380231
 51
53.2753899126916295
  0
ARC
  5
1673B
  8
0
 10
3741.6489768833362177
 20
188.3730684696699029
 30
0.0
 40
0.0550597046338736
 50
193.4906985736533898
 51
336.5006514589364883
  0
ARC
  5
1673C
  8
0
 10
3741.6483786901439998
 20
188.3735425105224124
 30
0.0
 40
0.0629921259999986
 50
108.5740908953241046
 51
194.1209659493806043
  0
ARC
  5
1673D
  8
0
 10
3741.6483786901439998
 20
188.3735425105224124
 30
0.0
 40
0.0629921259999977
 50
46.5869016619009599
 51
108.5740908953241046
  0
ARC
  5
1673E
  8
0
 10
3741.6483786901439998
 20
188.3735425105224124
 30
0.0
 40
0.0629921260000025
 50
326.0791648970724737
 51
46.5869016619009599
  0
ARC
  5
1673F
  8
0
 10
3741.6483786901439998
 20
188.3735425105224124
 30
0.0
 40
0.0629921260000002
 50
194.1209659493775064
 51
326.079164897073781
  0
ARC
  5
16740
  8
0
 10
3741.6428289373138796
 20
188.3799926431051119
 30
0.0
 40
0.0399772724486423
 50
110.4464100930904067
 51
202.07435465246391
  0
ARC
  5
16741
  8
0
 10
3741.644800910882168
 20
188.3799487358859892
 30
0.0
 40
0.0407485062535606
 50
31.7573441729636698
 51
113.0237852857218996
  0
ARC
  5
16742
  8
0
 10
3741.6443467853209768
 20
188.3796954540264892
 30
0.0
 40
0.0412679571267722
 50
314.8502510597750756
 51
31.7245019672239685
  0
ARC
  5
16743
  8
0
 10
3741.6442529469359215
 20
188.3792950276273928
 30
0.0
 40
0.041051736891376
 50
200.4249233086912909
 51
315.3372576755278942
  0
ARC
  5
16744
  8
0
 10
3741.7723939686479753
 20
188.5084574948091927
 30
0.0
 40
0.021751132325462
 50
75.423398733711025
 51
180.4218813335947971
  0
ARC
  5
16745
  8
0
 10
3741.7725041629141742
 20
188.508881246474914
 30
0.0
 40
0.0213132873183441
 50
343.6133223961184058
 51
75.423398733711025
  0
ARC
  5
16746
  8
0
 10
3741.7719930302077955
 20
188.5090315518764896
 30
0.0
 40
0.0218460615261517
 50
237.8465281933902986
 51
343.6133223961168142
  0
ARC
  5
16747
  8
0
 10
3741.7714289808368449
 20
188.5081342415058998
 30
0.0
 40
0.0207861947450847
 50
179.5504308533733138
 51
237.8465281933902986
  0
ARC
  5
16748
  8
0
 10
3741.7790372055828811
 20
188.500473254619493
 30
0.0
 40
0.0569110222471084
 50
126.1141616507516972
 51
191.1926523819876991
  0
ARC
  5
16749
  8
0
 10
3741.7773910026357953
 20
188.5027295906679967
 30
0.0
 40
0.0541179886803436
 50
53.2753899126916295
 51
126.1141616507508019
  0
ARC
  5
1674A
  8
0
 10
3741.7769754982628001
 20
188.5021726481975008
 30
0.0
 40
0.0548128475146493
 50
336.5006514589380231
 51
53.2753899126916295
  0
ARC
  5
1674B
  8
0
 10
3741.7767491143358711
 20
188.5022710796698959
 30
0.0
 40
0.0550597046338736
 50
193.4906985736533898
 51
336.5006514589364883
  0
ARC
  5
1674C
  8
0
 10
3741.7761509211431985
 20
188.5027451205224054
 30
0.0
 40
0.0629921259999986
 50
108.5740908953241046
 51
194.1209659493806043
  0
ARC
  5
1674D
  8
0
 10
3741.7761509211431985
 20
188.5027451205224054
 30
0.0
 40
0.0629921259999977
 50
46.5869016619009599
 51
108.5740908953241046
  0
ARC
  5
1674E
  8
0
 10
3741.7761509211431985
 20
188.5027451205224054
 30
0.0
 40
0.0629921260000025
 50
326.0791648970724737
 51
46.5869016619009599
  0
ARC
  5
1674F
  8
0
 10
3741.7761509211431985
 20
188.5027451205224054
 30
0.0
 40
0.0629921260000002
 50
194.1209659493775064
 51
326.079164897073781
  0
ARC
  5
16750
  8
0
 10
3741.7706011683139877
 20
188.5091952531051049
 30
0.0
 40
0.0399772724486423
 50
110.4464100930904067
 51
202.07435465246391
  0
ARC
  5
16751
  8
0
 10
3741.7725731418818214
 20
188.5091513458860106
 30
0.0
 40
0.0407485062535606
 50
31.7573441729636698
 51
113.0237852857218996
  0
ARC
  5
16752
  8
0
 10
3741.7721190163210849
 20
188.5088980640265106
 30
0.0
 40
0.0412679571267722
 50
314.8502510597750756
 51
31.7245019672239685
  0
ARC
  5
16753
  8
0
 10
3741.7720251779369391
 20
188.5084976376274142
 30
0.0
 40
0.041051736891376
 50
200.4249233086912909
 51
315.3372576755278942
  0
ARC
  5
16754
  8
0
 10
3741.9233149726969714
 20
188.3840116099918021
 30
0.0
 40
0.021751132325462
 50
75.423398733711025
 51
180.4218813335947971
  0
ARC
  5
16755
  8
0
 10
3741.9234251669618061
 20
188.3844353616574097
 30
0.0
 40
0.0213132873183441
 50
343.6133223961184058
 51
75.423398733711025
  0
ARC
  5
16756
  8
0
 10
3741.9229140342558821
 20
188.384585667059099
 30
0.0
 40
0.0218460615261517
 50
237.8465281933902986
 51
343.6133223961168142
  0
ARC
  5
16757
  8
0
 10
3741.922349984885841
 20
188.3836883566885092
 30
0.0
 40
0.0207861947450847
 50
179.5504308533733138
 51
237.8465281933902986
  0
ARC
  5
16758
  8
0
 10
3741.9299582096309678
 20
188.3760273698021024
 30
0.0
 40
0.0569110222471084
 50
126.1141616507516972
 51
191.1926523819876991
  0
ARC
  5
16759
  8
0
 10
3741.9283120066847914
 20
188.3782837058506061
 30
0.0
 40
0.0541179886803436
 50
53.2753899126916295
 51
126.1141616507508019
  0
ARC
  5
1675A
  8
0
 10
3741.9278965023108867
 20
188.3777267633799966
 30
0.0
 40
0.0548128475146493
 50
336.5006514589380231
 51
53.2753899126916295
  0
ARC
  5
1675B
  8
0
 10
3741.9276701183839577
 20
188.3778251948525053
 30
0.0
 40
0.0550597046338736
 50
193.4906985736533898
 51
336.5006514589364883
  0
ARC
  5
1675C
  8
0
 10
3741.9270719251921946
 20
188.3782992357049864
 30
0.0
 40
0.0629921259999986
 50
108.5740908953241046
 51
194.1209659493806043
  0
ARC
  5
1675D
  8
0
 10
3741.9270719251921946
 20
188.3782992357049864
 30
0.0
 40
0.0629921259999977
 50
46.5869016619009599
 51
108.5740908953241046
  0
ARC
  5
1675E
  8
0
 10
3741.9270719251921946
 20
188.3782992357049864
 30
0.0
 40
0.0629921260000025
 50
326.0791648970724737
 51
46.5869016619009599
  0
ARC
  5
1675F
  8
0
 10
3741.9270719251921946
 20
188.3782992357049864
 30
0.0
 40
0.0629921260000002
 50
194.1209659493775064
 51
326.079164897073781
  0
ARC
  5
16760
  8
0
 10
3741.9215221723629838
 20
188.3847493682876859
 30
0.0
 40
0.0399772724486423
 50
110.4464100930904067
 51
202.07435465246391
  0
ARC
  5
16761
  8
0
 10
3741.9234941459289985
 20
188.3847054610685063
 30
0.0
 40
0.0407485062535606
 50
31.7573441729636698
 51
113.0237852857218996
  0
ARC
  5
16762
  8
0
 10
3741.9230400203691715
 20
188.3844521792090063
 30
0.0
 40
0.0412679571267722
 50
314.8502510597750756
 51
31.7245019672239685
  0
ARC
  5
16763
  8
0
 10
3741.9229461819841163
 20
188.3840517528099099
 30
0.0
 40
0.041051736891376
 50
200.4249233086912909
 51
315.3372576755278942
  0
ARC
  5
16764
  8
0
 10
3741.8965779571481107
 20
188.6326997830092012
 30
0.0
 40
0.021751132325462
 50
75.423398733711025
 51
180.4218813335947971
  0
ARC
  5
16765
  8
0
 10
3741.8966881514138549
 20
188.633123534674894
 30
0.0
 40
0.0213132873183441
 50
343.6133223961184058
 51
75.423398733711025
  0
ARC
  5
16766
  8
0
 10
3741.896177018707931
 20
188.6332738400764981
 30
0.0
 40
0.0218460615261517
 50
237.8465281933902986
 51
343.6133223961168142
  0
ARC
  5
16767
  8
0
 10
3741.8956129693378898
 20
188.6323765297059083
 30
0.0
 40
0.0207861947450847
 50
179.5504308533733138
 51
237.8465281933902986
  0
ARC
  5
16768
  8
0
 10
3741.9032211940821071
 20
188.6247155428195015
 30
0.0
 40
0.0569110222471084
 50
126.1141616507516972
 51
191.1926523819876991
  0
ARC
  5
16769
  8
0
 10
3741.9015749911359308
 20
188.6269718788680052
 30
0.0
 40
0.0541179886803436
 50
53.2753899126916295
 51
126.1141616507508019
  0
ARC
  5
1676A
  8
0
 10
3741.9011594867638451
 20
188.6264149363975093
 30
0.0
 40
0.0548128475146493
 50
336.5006514589380231
 51
53.2753899126916295
  0
ARC
  5
1676B
  8
0
 10
3741.9009331028360066
 20
188.6265133678699044
 30
0.0
 40
0.0550597046338736
 50
193.4906985736533898
 51
336.5006514589364883
  0
ARC
  5
1676C
  8
0
 10
3741.9003349096437887
 20
188.6269874087224139
 30
0.0
 40
0.0629921259999986
 50
108.5740908953241046
 51
194.1209659493806043
  0
ARC
  5
1676D
  8
0
 10
3741.9003349096437887
 20
188.6269874087224139
 30
0.0
 40
0.0629921259999977
 50
46.5869016619009599
 51
108.5740908953241046
  0
ARC
  5
1676E
  8
0
 10
3741.9003349096437887
 20
188.6269874087224139
 30
0.0
 40
0.0629921260000025
 50
326.0791648970724737
 51
46.5869016619009599
  0
ARC
  5
1676F
  8
0
 10
3741.9003349096437887
 20
188.6269874087224139
 30
0.0
 40
0.0629921260000002
 50
194.1209659493775064
 51
326.079164897073781
  0
ARC
  5
16770
  8
0
 10
3741.8947851568141232
 20
188.6334375413051134
 30
0.0
 40
0.0399772724486423
 50
110.4464100930904067
 51
202.07435465246391
  0
ARC
  5
16771
  8
0
 10
3741.8967571303810473
 20
188.6333936340859907
 30
0.0
 40
0.0407485062535606
 50
31.7573441729636698
 51
113.0237852857218996
  0
ARC
  5
16772
  8
0
 10
3741.8963030048212204
 20
188.6331403522264907
 30
0.0
 40
0.0412679571267722
 50
314.8502510597750756
 51
31.7245019672239685
  0
ARC
  5
16773
  8
0
 10
3741.8962091664361651
 20
188.632739925827309
 30
0.0
 40
0.041051736891376
 50
200.4249233086912909
 51
315.3372576755278942
  0
ARC
  5
16774
  8
0
 10
3741.622956874249212
 20
188.6326998012092133
 30
0.0
 40
0.021751132325462
 50
75.423398733711025
 51
180.4218813335947971
  0
ARC
  5
16775
  8
0
 10
3741.6230670685140467
 20
188.6331235528749062
 30
0.0
 40
0.0213132873183441
 50
343.6133223961184058
 51
75.423398733711025
  0
ARC
  5
16776
  8
0
 10
3741.6225559358081227
 20
188.6332738582765103
 30
0.0
 40
0.0218460615261517
 50
237.8465281933902986
 51
343.6133223961168142
  0
ARC
  5
16777
  8
0
 10
3741.6219918864380816
 20
188.632376547905892
 30
0.0
 40
0.0207861947450847
 50
179.5504308533733138
 51
237.8465281933902986
  0
ARC
  5
16778
  8
0
 10
3741.6296001111832084
 20
188.6247155610195136
 30
0.0
 40
0.0569110222471084
 50
126.1141616507516972
 51
191.1926523819876991
  0
ARC
  5
16779
  8
0
 10
3741.6279539082361225
 20
188.6269718970679889
 30
0.0
 40
0.0541179886803436
 50
53.2753899126916295
 51
126.1141616507508019
  0
ARC
  5
1677A
  8
0
 10
3741.6275384038631273
 20
188.6264149545974931
 30
0.0
 40
0.0548128475146493
 50
336.5006514589380231
 51
53.2753899126916295
  0
ARC
  5
1677B
  8
0
 10
3741.6273120199361983
 20
188.6265133860698882
 30
0.0
 40
0.0550597046338736
 50
193.4906985736533898
 51
336.5006514589364883
  0
ARC
  5
1677C
  8
0
 10
3741.6267138267439805
 20
188.6269874269223976
 30
0.0
 40
0.0629921259999986
 50
108.5740908953241046
 51
194.1209659493806043
  0
ARC
  5
1677D
  8
0
 10
3741.6267138267439805
 20
188.6269874269223976
 30
0.0
 40
0.0629921259999977
 50
46.5869016619009599
 51
108.5740908953241046
  0
ARC
  5
1677E
  8
0
 10
3741.6267138267439805
 20
188.6269874269223976
 30
0.0
 40
0.0629921260000025
 50
326.0791648970724737
 51
46.5869016619009599
  0
ARC
  5
1677F
  8
0
 10
3741.6267138267439805
 20
188.6269874269223976
 30
0.0
 40
0.0629921260000002
 50
194.1209659493775064
 51
326.079164897073781
  0
ARC
  5
16780
  8
0
 10
3741.6211640739138602
 20
188.6334375595050972
 30
0.0
 40
0.0399772724486423
 50
110.4464100930904067
 51
202.07435465246391
  0
ARC
  5
16781
  8
0
 10
3741.6231360474807843
 20
188.6333936522860029
 30
0.0
 40
0.0407485062535606
 50
31.7573441729636698
 51
113.0237852857218996
  0
ARC
  5
16782
  8
0
 10
3741.6226819219209574
 20
188.6331403704265028
 30
0.0
 40
0.0412679571267722
 50
314.8502510597750756
 51
31.7245019672239685
  0
ARC
  5
16783
  8
0
 10
3741.6225880835359021
 20
188.6327399440274064
 30
0.0
 40
0.041051736891376
 50
200.4249233086912909
 51
315.3372576755278942
  0
ARC
  5
16784
  8
0
 10
3741.7705937051491674
 20
188.7586840350091961
 30
0.0
 40
0.021751132325462
 50
75.423398733711025
 51
180.4218813335947971
  0
ARC
  5
16785
  8
0
 10
3741.7707038994140021
 20
188.759107786674889
 30
0.0
 40
0.0213132873183441
 50
343.6133223961184058
 51
75.423398733711025
  0
ARC
  5
16786
  8
0
 10
3741.7701927667080781
 20
188.7592580920764931
 30
0.0
 40
0.0218460615261517
 50
237.8465281933902986
 51
343.6133223961168142
  0
ARC
  5
16787
  8
0
 10
3741.7696287173380369
 20
188.7583607817059033
 30
0.0
 40
0.0207861947450847
 50
179.5504308533733138
 51
237.8465281933902986
  0
ARC
  5
16788
  8
0
 10
3741.7772369420831637
 20
188.7506997948194964
 30
0.0
 40
0.0569110222471084
 50
126.1141616507516972
 51
191.1926523819876991
  0
ARC
  5
16789
  8
0
 10
3741.7755907391360779
 20
188.7529561308680002
 30
0.0
 40
0.0541179886803436
 50
53.2753899126916295
 51
126.1141616507508019
  0
ARC
  5
1678A
  8
0
 10
3741.7751752347639922
 20
188.7523991883975043
 30
0.0
 40
0.0548128475146493
 50
336.5006514589380231
 51
53.2753899126916295
  0
ARC
  5
1678B
  8
0
 10
3741.7749488508361537
 20
188.7524976198698994
 30
0.0
 40
0.0550597046338736
 50
193.4906985736533898
 51
336.5006514589364883
  0
ARC
  5
1678C
  8
0
 10
3741.7743506576439358
 20
188.7529716607224088
 30
0.0
 40
0.0629921259999986
 50
108.5740908953241046
 51
194.1209659493806043
  0
ARC
  5
1678D
  8
0
 10
3741.7743506576439358
 20
188.7529716607224088
 30
0.0
 40
0.0629921259999977
 50
46.5869016619009599
 51
108.5740908953241046
  0
ARC
  5
1678E
  8
0
 10
3741.7743506576439358
 20
188.7529716607224088
 30
0.0
 40
0.0629921260000025
 50
326.0791648970724737
 51
46.5869016619009599
  0
ARC
  5
1678F
  8
0
 10
3741.7743506576439358
 20
188.7529716607224088
 30
0.0
 40
0.0629921260000002
 50
194.1209659493775064
 51
326.079164897073781
  0
ARC
  5
16790
  8
0
 10
3741.7688009048138156
 20
188.7594217933051084
 30
0.0
 40
0.0399772724486423
 50
110.4464100930904067
 51
202.07435465246391
  0
ARC
  5
16791
  8
0
 10
3741.7707728783811945
 20
188.7593778860860141
 30
0.0
 40
0.0407485062535606
 50
31.7573441729636698
 51
113.0237852857218996
  0
ARC
  5
16792
  8
0
 10
3741.7703187528209128
 20
188.7591246042265141
 30
0.0
 40
0.0412679571267722
 50
314.8502510597750756
 51
31.7245019672239685
  0
ARC
  5
16793
  8
0
 10
3741.7702249144358575
 20
188.7587241778273892
 30
0.0
 40
0.041051736891376
 50
200.4249233086912909
 51
315.3372576755278942
  0
ARC
  5
16794
  8
0
 10
3741.8965779571481107
 20
188.8846682870091911
 30
0.0
 40
0.021751132325462
 50
75.423398733711025
 51
180.4218813335947971
  0
ARC
  5
16795
  8
0
 10
3741.8966881514138549
 20
188.8850920386749124
 30
0.0
 40
0.0213132873183441
 50
343.6133223961184058
 51
75.423398733711025
  0
ARC
  5
16796
  8
0
 10
3741.896177018707931
 20
188.8852423440764881
 30
0.0
 40
0.0218460615261517
 50
237.8465281933902986
 51
343.6133223961168142
  0
ARC
  5
16797
  8
0
 10
3741.8956129693378898
 20
188.8843450337058982
 30
0.0
 40
0.0207861947450847
 50
179.5504308533733138
 51
237.8465281933902986
  0
ARC
  5
16798
  8
0
 10
3741.9032211940821071
 20
188.8766840468194914
 30
0.0
 40
0.0569110222471084
 50
126.1141616507516972
 51
191.1926523819876991
  0
ARC
  5
16799
  8
0
 10
3741.9015749911359308
 20
188.8789403828679951
 30
0.0
 40
0.0541179886803436
 50
53.2753899126916295
 51
126.1141616507508019
  0
ARC
  5
1679A
  8
0
 10
3741.9011594867638451
 20
188.8783834403974993
 30
0.0
 40
0.0548128475146493
 50
336.5006514589380231
 51
53.2753899126916295
  0
ARC
  5
1679B
  8
0
 10
3741.9009331028360066
 20
188.8784818718698943
 30
0.0
 40
0.0550597046338736
 50
193.4906985736533898
 51
336.5006514589364883
  0
ARC
  5
1679C
  8
0
 10
3741.9003349096437887
 20
188.8789559127224038
 30
0.0
 40
0.0629921259999986
 50
108.5740908953241046
 51
194.1209659493806043
  0
ARC
  5
1679D
  8
0
 10
3741.9003349096437887
 20
188.8789559127224038
 30
0.0
 40
0.0629921259999977
 50
46.5869016619009599
 51
108.5740908953241046
  0
ARC
  5
1679E
  8
0
 10
3741.9003349096437887
 20
188.8789559127224038
 30
0.0
 40
0.0629921260000025
 50
326.0791648970724737
 51
46.5869016619009599
  0
ARC
  5
1679F
  8
0
 10
3741.9003349096437887
 20
188.8789559127224038
 30
0.0
 40
0.0629921260000002
 50
194.1209659493775064
 51
326.079164897073781
  0
ARC
  5
167A0
  8
0
 10
3741.8947851568141232
 20
188.8854060453051034
 30
0.0
 40
0.0399772724486423
 50
110.4464100930904067
 51
202.07435465246391
  0
ARC
  5
167A1
  8
0
 10
3741.8967571303810473
 20
188.8853621380860091
 30
0.0
 40
0.0407485062535606
 50
31.7573441729636698
 51
113.0237852857218996
  0
ARC
  5
167A2
  8
0
 10
3741.8963030048212204
 20
188.885108856226509
 30
0.0
 40
0.0412679571267722
 50
314.8502510597750756
 51
31.7245019672239685
  0
ARC
  5
167A3
  8
0
 10
3741.8962091664361651
 20
188.8847084298274126
 30
0.0
 40
0.041051736891376
 50
200.4249233086912909
 51
315.3372576755278942
  0
ARC
  5
167A4
  8
0
 10
3741.6446094532479947
 20
188.8846682870091911
 30
0.0
 40
0.021751132325462
 50
75.423398733711025
 51
180.4218813335947971
  0
ARC
  5
167A5
  8
0
 10
3741.6447196475141936
 20
188.8850920386749124
 30
0.0
 40
0.0213132873183441
 50
343.6133223961184058
 51
75.423398733711025
  0
ARC
  5
167A6
  8
0
 10
3741.6442085148078149
 20
188.8852423440764881
 30
0.0
 40
0.0218460615261517
 50
237.8465281933902986
 51
343.6133223961168142
  0
ARC
  5
167A7
  8
0
 10
3741.6436444654368643
 20
188.8843450337058982
 30
0.0
 40
0.0207861947450847
 50
179.5504308533733138
 51
237.8465281933902986
  0
ARC
  5
167A8
  8
0
 10
3741.6512526901829006
 20
188.8766840468194914
 30
0.0
 40
0.0569110222471084
 50
126.1141616507516972
 51
191.1926523819876991
  0
ARC
  5
167A9
  8
0
 10
3741.6496064872358147
 20
188.8789403828679951
 30
0.0
 40
0.0541179886803436
 50
53.2753899126916295
 51
126.1141616507508019
  0
ARC
  5
167AA
  8
0
 10
3741.6491909828628195
 20
188.8783834403974993
 30
0.0
 40
0.0548128475146493
 50
336.5006514589380231
 51
53.2753899126916295
  0
ARC
  5
167AB
  8
0
 10
3741.6489645989358905
 20
188.8784818718698943
 30
0.0
 40
0.0550597046338736
 50
193.4906985736533898
 51
336.5006514589364883
  0
ARC
  5
167AC
  8
0
 10
3741.6483664057432179
 20
188.8789559127224038
 30
0.0
 40
0.0629921259999986
 50
108.5740908953241046
 51
194.1209659493806043
  0
ARC
  5
167AD
  8
0
 10
3741.6483664057432179
 20
188.8789559127224038
 30
0.0
 40
0.0629921259999977
 50
46.5869016619009599
 51
108.5740908953241046
  0
ARC
  5
167AE
  8
0
 10
3741.6483664057432179
 20
188.8789559127224038
 30
0.0
 40
0.0629921260000025
 50
326.0791648970724737
 51
46.5869016619009599
  0
ARC
  5
167AF
  8
0
 10
3741.6483664057432179
 20
188.8789559127224038
 30
0.0
 40
0.0629921260000002
 50
194.1209659493775064
 51
326.079164897073781
  0
ARC
  5
167B0
  8
0
 10
3741.6428166529149166
 20
188.8854060453051034
 30
0.0
 40
0.0399772724486423
 50
110.4464100930904067
 51
202.07435465246391
  0
ARC
  5
167B1
  8
0
 10
3741.6447886264809313
 20
188.8853621380860091
 30
0.0
 40
0.0407485062535606
 50
31.7573441729636698
 51
113.0237852857218996
  0
ARC
  5
167B2
  8
0
 10
3741.6443345009211043
 20
188.885108856226509
 30
0.0
 40
0.0412679571267722
 50
314.8502510597750756
 51
31.7245019672239685
  0
ARC
  5
167B3
  8
0
 10
3741.6442406625360491
 20
188.8847084298274126
 30
0.0
 40
0.041051736891376
 50
200.4249233086912909
 51
315.3372576755278942
  0
ARC
  5
167B4
  8
0
 10
3741.7723939686479753
 20
189.0123945027092134
 30
0.0
 40
0.021751132325462
 50
75.423398733711025
 51
180.4218813335947971
  0
ARC
  5
167B5
  8
0
 10
3741.7725041629141742
 20
189.0128182543749062
 30
0.0
 40
0.0213132873183441
 50
343.6133223961184058
 51
75.423398733711025
  0
ARC
  5
167B6
  8
0
 10
3741.7719930302077955
 20
189.0129685597765103
 30
0.0
 40
0.0218460615261517
 50
237.8465281933902986
 51
343.6133223961168142
  0
ARC
  5
167B7
  8
0
 10
3741.7714289808368449
 20
189.0120712494058921
 30
0.0
 40
0.0207861947450847
 50
179.5504308533733138
 51
237.8465281933902986
  0
ARC
  5
167B8
  8
0
 10
3741.7790372055828811
 20
189.0044102625195137
 30
0.0
 40
0.0569110222471084
 50
126.1141616507516972
 51
191.1926523819876991
  0
ARC
  5
167B9
  8
0
 10
3741.7773910026357953
 20
189.006666598567989
 30
0.0
 40
0.0541179886803436
 50
53.2753899126916295
 51
126.1141616507508019
  0
ARC
  5
167BA
  8
0
 10
3741.7769754982628001
 20
189.0061096560974931
 30
0.0
 40
0.0548128475146493
 50
336.5006514589380231
 51
53.2753899126916295
  0
ARC
  5
167BB
  8
0
 10
3741.7767491143358711
 20
189.0062080875698882
 30
0.0
 40
0.0550597046338736
 50
193.4906985736533898
 51
336.5006514589364883
  0
ARC
  5
167BC
  8
0
 10
3741.7761509211431985
 20
189.0066821284223977
 30
0.0
 40
0.0629921259999986
 50
108.5740908953241046
 51
194.1209659493806043
  0
ARC
  5
167BD
  8
0
 10
3741.7761509211431985
 20
189.0066821284223977
 30
0.0
 40
0.0629921259999977
 50
46.5869016619009599
 51
108.5740908953241046
  0
ARC
  5
167BE
  8
0
 10
3741.7761509211431985
 20
189.0066821284223977
 30
0.0
 40
0.0629921260000025
 50
326.0791648970724737
 51
46.5869016619009599
  0
ARC
  5
167BF
  8
0
 10
3741.7761509211431985
 20
189.0066821284223977
 30
0.0
 40
0.0629921260000002
 50
194.1209659493775064
 51
326.079164897073781
  0
ARC
  5
167C0
  8
0
 10
3741.7706011683139877
 20
189.0131322610050972
 30
0.0
 40
0.0399772724486423
 50
110.4464100930904067
 51
202.07435465246391
  0
ARC
  5
167C1
  8
0
 10
3741.7725731418818214
 20
189.0130883537860029
 30
0.0
 40
0.0407485062535606
 50
31.7573441729636698
 51
113.0237852857218996
  0
ARC
  5
167C2
  8
0
 10
3741.7721190163210849
 20
189.0128350719265029
 30
0.0
 40
0.0412679571267722
 50
314.8502510597750756
 51
31.7245019672239685
  0
ARC
  5
167C3
  8
0
 10
3741.7720251779369391
 20
189.0124346455272928
 30
0.0
 40
0.041051736891376
 50
200.4249233086912909
 51
315.3372576755278942
  0
ARC
  5
167C4
  8
0
 10
3741.8965779571481107
 20
189.1366367909091935
 30
0.0
 40
0.021751132325462
 50
75.423398733711025
 51
180.4218813335947971
  0
ARC
  5
167C5
  8
0
 10
3741.8966881514138549
 20
189.1370605425748863
 30
0.0
 40
0.0213132873183441
 50
343.6133223961184058
 51
75.423398733711025
  0
ARC
  5
167C6
  8
0
 10
3741.896177018707931
 20
189.1372108479764904
 30
0.0
 40
0.0218460615261517
 50
237.8465281933902986
 51
343.6133223961168142
  0
ARC
  5
167C7
  8
0
 10
3741.8956129693378898
 20
189.1363135376059006
 30
0.0
 40
0.0207861947450847
 50
179.5504308533733138
 51
237.8465281933902986
  0
ARC
  5
167C8
  8
0
 10
3741.9032211940821071
 20
189.1286525507194938
 30
0.0
 40
0.0569110222471084
 50
126.1141616507516972
 51
191.1926523819876991
  0
ARC
  5
167C9
  8
0
 10
3741.9015749911359308
 20
189.1309088867679975
 30
0.0
 40
0.0541179886803436
 50
53.2753899126916295
 51
126.1141616507508019
  0
ARC
  5
167CA
  8
0
 10
3741.9011594867638451
 20
189.1303519442975016
 30
0.0
 40
0.0548128475146493
 50
336.5006514589380231
 51
53.2753899126916295
  0
ARC
  5
167CB
  8
0
 10
3741.9009331028360066
 20
189.1304503757698967
 30
0.0
 40
0.0550597046338736
 50
193.4906985736533898
 51
336.5006514589364883
  0
ARC
  5
167CC
  8
0
 10
3741.9003349096437887
 20
189.1309244166224062
 30
0.0
 40
0.0629921259999986
 50
108.5740908953241046
 51
194.1209659493806043
  0
ARC
  5
167CD
  8
0
 10
3741.9003349096437887
 20
189.1309244166224062
 30
0.0
 40
0.0629921259999977
 50
46.5869016619009599
 51
108.5740908953241046
  0
ARC
  5
167CE
  8
0
 10
3741.9003349096437887
 20
189.1309244166224062
 30
0.0
 40
0.0629921260000025
 50
326.0791648970724737
 51
46.5869016619009599
  0
ARC
  5
167CF
  8
0
 10
3741.9003349096437887
 20
189.1309244166224062
 30
0.0
 40
0.0629921260000002
 50
194.1209659493775064
 51
326.079164897073781
  0
ARC
  5
167D0
  8
0
 10
3741.8947851568141232
 20
189.1373745492051057
 30
0.0
 40
0.0399772724486423
 50
110.4464100930904067
 51
202.07435465246391
  0
ARC
  5
167D1
  8
0
 10
3741.8967571303810473
 20
189.1373306419860114
 30
0.0
 40
0.0407485062535606
 50
31.7573441729636698
 51
113.0237852857218996
  0
ARC
  5
167D2
  8
0
 10
3741.8963030048212204
 20
189.1370773601265114
 30
0.0
 40
0.0412679571267722
 50
314.8502510597750756
 51
31.7245019672239685
  0
ARC
  5
167D3
  8
0
 10
3741.8962091664361651
 20
189.1366769337273013
 30
0.0
 40
0.041051736891376
 50
200.4249233086912909
 51
315.3372576755278942
  0
ARC
  5
167D4
  8
0
 10
3741.6446068090481276
 20
189.1366368091092056
 30
0.0
 40
0.021751132325462
 50
75.423398733711025
 51
180.4218813335947971
  0
ARC
  5
167D5
  8
0
 10
3741.6447170033138718
 20
189.1370605607748985
 30
0.0
 40
0.0213132873183441
 50
343.6133223961184058
 51
75.423398733711025
  0
ARC
  5
167D6
  8
0
 10
3741.6442058706079479
 20
189.1372108661765026
 30
0.0
 40
0.0218460615261517
 50
237.8465281933902986
 51
343.6133223961168142
  0
ARC
  5
167D7
  8
0
 10
3741.6436418212379067
 20
189.1363135558059128
 30
0.0
 40
0.0207861947450847
 50
179.5504308533733138
 51
237.8465281933902986
  0
ARC
  5
167D8
  8
0
 10
3741.6512500459830335
 20
189.1286525689195059
 30
0.0
 40
0.0569110222471084
 50
126.1141616507516972
 51
191.1926523819876991
  0
ARC
  5
167D9
  8
0
 10
3741.6496038430359476
 20
189.1309089049680097
 30
0.0
 40
0.0541179886803436
 50
53.2753899126916295
 51
126.1141616507508019
  0
ARC
  5
167DA
  8
0
 10
3741.6491883386638619
 20
189.1303519624975138
 30
0.0
 40
0.0548128475146493
 50
336.5006514589380231
 51
53.2753899126916295
  0
ARC
  5
167DB
  8
0
 10
3741.6489619547360235
 20
189.1304503939699089
 30
0.0
 40
0.0550597046338736
 50
193.4906985736533898
 51
336.5006514589364883
  0
ARC
  5
167DC
  8
0
 10
3741.6483637615438056
 20
189.1309244348223899
 30
0.0
 40
0.0629921259999986
 50
108.5740908953241046
 51
194.1209659493806043
  0
ARC
  5
167DD
  8
0
 10
3741.6483637615438056
 20
189.1309244348223899
 30
0.0
 40
0.0629921259999977
 50
46.5869016619009599
 51
108.5740908953241046
  0
ARC
  5
167DE
  8
0
 10
3741.6483637615438056
 20
189.1309244348223899
 30
0.0
 40
0.0629921260000025
 50
326.0791648970724737
 51
46.5869016619009599
  0
ARC
  5
167DF
  8
0
 10
3741.6483637615438056
 20
189.1309244348223899
 30
0.0
 40
0.0629921260000002
 50
194.1209659493775064
 51
326.079164897073781
  0
ARC
  5
167E0
  8
0
 10
3741.6428140087141401
 20
189.1373745674050895
 30
0.0
 40
0.0399772724486423
 50
110.4464100930904067
 51
202.07435465246391
  0
ARC
  5
167E1
  8
0
 10
3741.6447859822810642
 20
189.1373306601859952
 30
0.0
 40
0.0407485062535606
 50
31.7573441729636698
 51
113.0237852857218996
  0
ARC
  5
167E2
  8
0
 10
3741.6443318567207825
 20
189.1370773783264951
 30
0.0
 40
0.0412679571267722
 50
314.8502510597750756
 51
31.7245019672239685
  0
ARC
  5
167E3
  8
0
 10
3741.6442380183370915
 20
189.1366769519273134
 30
0.0
 40
0.041051736891376
 50
200.4249233086912909
 51
315.3372576755278942
  0
ARC
  5
167E4
  8
0
 10
3741.7705937051491674
 20
189.2626210429091884
 30
0.0
 40
0.021751132325462
 50
75.423398733711025
 51
180.4218813335947971
  0
ARC
  5
167E5
  8
0
 10
3741.7707038994140021
 20
189.263044794574796
 30
0.0
 40
0.0213132873183441
 50
343.6133223961184058
 51
75.423398733711025
  0
ARC
  5
167E6
  8
0
 10
3741.7701927667080781
 20
189.2631950999765138
 30
0.0
 40
0.0218460615261517
 50
237.8465281933902986
 51
343.6133223961168142
  0
ARC
  5
167E7
  8
0
 10
3741.7696287173380369
 20
189.2622977896058956
 30
0.0
 40
0.0207861947450847
 50
179.5504308533733138
 51
237.8465281933902986
  0
ARC
  5
167E8
  8
0
 10
3741.7772369420831637
 20
189.2546368027194887
 30
0.0
 40
0.0569110222471084
 50
126.1141616507516972
 51
191.1926523819876991
  0
ARC
  5
167E9
  8
0
 10
3741.7755907391360779
 20
189.2568931387679925
 30
0.0
 40
0.0541179886803436
 50
53.2753899126916295
 51
126.1141616507508019
  0
ARC
  5
167EA
  8
0
 10
3741.7751752347639922
 20
189.2563361962974966
 30
0.0
 40
0.0548128475146493
 50
336.5006514589380231
 51
53.2753899126916295
  0
ARC
  5
167EB
  8
0
 10
3741.7749488508361537
 20
189.2564346277698917
 30
0.0
 40
0.0550597046338736
 50
193.4906985736533898
 51
336.5006514589364883
  0
ARC
  5
167EC
  8
0
 10
3741.7743506576439358
 20
189.2569086686224011
 30
0.0
 40
0.0629921259999986
 50
108.5740908953241046
 51
194.1209659493806043
  0
ARC
  5
167ED
  8
0
 10
3741.7743506576439358
 20
189.2569086686224011
 30
0.0
 40
0.0629921259999977
 50
46.5869016619009599
 51
108.5740908953241046
  0
ARC
  5
167EE
  8
0
 10
3741.7743506576439358
 20
189.2569086686224011
 30
0.0
 40
0.0629921260000025
 50
326.0791648970724737
 51
46.5869016619009599
  0
ARC
  5
167EF
  8
0
 10
3741.7743506576439358
 20
189.2569086686224011
 30
0.0
 40
0.0629921260000002
 50
194.1209659493775064
 51
326.079164897073781
  0
ARC
  5
167F0
  8
0
 10
3741.7688009048138156
 20
189.2633588012051007
 30
0.0
 40
0.0399772724486423
 50
110.4464100930904067
 51
202.07435465246391
  0
ARC
  5
167F1
  8
0
 10
3741.7707728783811945
 20
189.2633148939858927
 30
0.0
 40
0.0407485062535606
 50
31.7573441729636698
 51
113.0237852857218996
  0
ARC
  5
167F2
  8
0
 10
3741.7703187528209128
 20
189.2630616121265064
 30
0.0
 40
0.0412679571267722
 50
314.8502510597750756
 51
31.7245019672239685
  0
ARC
  5
167F3
  8
0
 10
3741.7702249144358575
 20
189.2626611857274099
 30
0.0
 40
0.041051736891376
 50
200.4249233086912909
 51
315.3372576755278942
  0
ARC
  5
167F4
  8
0
 10
3741.8965779571481107
 20
189.3886052948091958
 30
0.0
 40
0.021751132325462
 50
75.423398733711025
 51
180.4218813335947971
  0
ARC
  5
167F5
  8
0
 10
3741.8966881514138549
 20
189.3890290464748887
 30
0.0
 40
0.0213132873183441
 50
343.6133223961184058
 51
75.423398733711025
  0
ARC
  5
167F6
  8
0
 10
3741.896177018707931
 20
189.3891793518764928
 30
0.0
 40
0.0218460615261517
 50
237.8465281933902986
 51
343.6133223961168142
  0
ARC
  5
167F7
  8
0
 10
3741.8956129693378898
 20
189.388282041505903
 30
0.0
 40
0.0207861947450847
 50
179.5504308533733138
 51
237.8465281933902986
  0
ARC
  5
167F8
  8
0
 10
3741.9032211940821071
 20
189.3806210546194961
 30
0.0
 40
0.0569110222471084
 50
126.1141616507516972
 51
191.1926523819876991
  0
ARC
  5
167F9
  8
0
 10
3741.9015749911359308
 20
189.3828773906679999
 30
0.0
 40
0.0541179886803436
 50
53.2753899126916295
 51
126.1141616507508019
  0
ARC
  5
167FA
  8
0
 10
3741.9011594867638451
 20
189.382320448197504
 30
0.0
 40
0.0548128475146493
 50
336.5006514589380231
 51
53.2753899126916295
  0
ARC
  5
167FB
  8
0
 10
3741.9009331028360066
 20
189.3824188796698991
 30
0.0
 40
0.0550597046338736
 50
193.4906985736533898
 51
336.5006514589364883
  0
ARC
  5
167FC
  8
0
 10
3741.9003349096437887
 20
189.3828929205224085
 30
0.0
 40
0.0629921259999986
 50
108.5740908953241046
 51
194.1209659493806043
  0
ARC
  5
167FD
  8
0
 10
3741.9003349096437887
 20
189.3828929205224085
 30
0.0
 40
0.0629921259999977
 50
46.5869016619009599
 51
108.5740908953241046
  0
ARC
  5
167FE
  8
0
 10
3741.9003349096437887
 20
189.3828929205224085
 30
0.0
 40
0.0629921260000025
 50
326.0791648970724737
 51
46.5869016619009599
  0
ARC
  5
167FF
  8
0
 10
3741.9003349096437887
 20
189.3828929205224085
 30
0.0
 40
0.0629921260000002
 50
194.1209659493775064
 51
326.079164897073781
  0
ARC
  5
16800
  8
0
 10
3741.8947851568141232
 20
189.3893430531051081
 30
0.0
 40
0.0399772724486423
 50
110.4464100930904067
 51
202.07435465246391
  0
ARC
  5
16801
  8
0
 10
3741.8967571303810473
 20
189.3892991458860138
 30
0.0
 40
0.0407485062535606
 50
31.7573441729636698
 51
113.0237852857218996
  0
ARC
  5
16802
  8
0
 10
3741.8963030048212204
 20
189.3890458640265138
 30
0.0
 40
0.0412679571267722
 50
314.8502510597750756
 51
31.7245019672239685
  0
ARC
  5
16803
  8
0
 10
3741.8962091664361651
 20
189.3886454376273036
 30
0.0
 40
0.041051736891376
 50
200.4249233086912909
 51
315.3372576755278942
  0
ARC
  5
16804
  8
0
 10
3741.6445971687480778
 20
189.3900816891091949
 30
0.0
 40
0.021751132325462
 50
75.423398733711025
 51
180.4218813335947971
  0
ARC
  5
16805
  8
0
 10
3741.644707363013822
 20
189.3905054407748878
 30
0.0
 40
0.0213132873183441
 50
343.6133223961184058
 51
75.423398733711025
  0
ARC
  5
16806
  8
0
 10
3741.6441962303078981
 20
189.3906557461764919
 30
0.0
 40
0.0218460615261517
 50
237.8465281933902986
 51
343.6133223961168142
  0
ARC
  5
16807
  8
0
 10
3741.6436321809378569
 20
189.3897584358059021
 30
0.0
 40
0.0207861947450847
 50
179.5504308533733138
 51
237.8465281933902986
  0
ARC
  5
16808
  8
0
 10
3741.6512404056820742
 20
189.3820974489194953
 30
0.0
 40
0.0569110222471084
 50
126.1141616507516972
 51
191.1926523819876991
  0
ARC
  5
16809
  8
0
 10
3741.6495942027368073
 20
189.384353784967999
 30
0.0
 40
0.0541179886803436
 50
53.2753899126916295
 51
126.1141616507508019
  0
ARC
  5
1680A
  8
0
 10
3741.6491786983629027
 20
189.3837968424975031
 30
0.0
 40
0.0548128475146493
 50
336.5006514589380231
 51
53.2753899126916295
  0
ARC
  5
1680B
  8
0
 10
3741.6489523144359737
 20
189.3838952739698982
 30
0.0
 40
0.0550597046338736
 50
193.4906985736533898
 51
336.5006514589364883
  0
ARC
  5
1680C
  8
0
 10
3741.6483541212442105
 20
189.3843693148224077
 30
0.0
 40
0.0629921259999986
 50
108.5740908953241046
 51
194.1209659493806043
  0
ARC
  5
1680D
  8
0
 10
3741.6483541212442105
 20
189.3843693148224077
 30
0.0
 40
0.0629921259999977
 50
46.5869016619009599
 51
108.5740908953241046
  0
ARC
  5
1680E
  8
0
 10
3741.6483541212442105
 20
189.3843693148224077
 30
0.0
 40
0.0629921260000025
 50
326.0791648970724737
 51
46.5869016619009599
  0
ARC
  5
1680F
  8
0
 10
3741.6483541212442105
 20
189.3843693148224077
 30
0.0
 40
0.0629921260000002
 50
194.1209659493775064
 51
326.079164897073781
  0
ARC
  5
16810
  8
0
 10
3741.6428043684149998
 20
189.3908194474051072
 30
0.0
 40
0.0399772724486423
 50
110.4464100930904067
 51
202.07435465246391
  0
ARC
  5
16811
  8
0
 10
3741.6447763419801049
 20
189.3907755401860129
 30
0.0
 40
0.0407485062535606
 50
31.7573441729636698
 51
113.0237852857218996
  0
ARC
  5
16812
  8
0
 10
3741.6443222164211875
 20
189.3905222583265129
 30
0.0
 40
0.0412679571267722
 50
314.8502510597750756
 51
31.7245019672239685
  0
ARC
  5
16813
  8
0
 10
3741.6442283780361322
 20
189.390121831927388
 30
0.0
 40
0.041051736891376
 50
200.4249233086912909
 51
315.3372576755278942
  0
ARC
  5
16814
  8
0
 10
3741.7947341757799222
 20
189.5244729490576105
 30
0.0
 40
0.021751132325462
 50
75.423398733711025
 51
180.4218813335947971
  0
ARC
  5
16815
  8
0
 10
3741.7948443700452117
 20
189.5248967007231897
 30
0.0
 40
0.0213132873183441
 50
343.6133223961184058
 51
75.423398733711025
  0
ARC
  5
16816
  8
0
 10
3741.7943332373401972
 20
189.5250470061249075
 30
0.0
 40
0.0218460615261517
 50
237.8465281933902986
 51
343.6133223961168142
  0
ARC
  5
16817
  8
0
 10
3741.7937691879701561
 20
189.5241496957542893
 30
0.0
 40
0.0207861947450847
 50
179.5504308533733138
 51
237.8465281933902986
  0
ARC
  5
16818
  8
0
 10
3741.8013774127148281
 20
189.5164887088679109
 30
0.0
 40
0.0569110222471084
 50
126.1141616507516972
 51
191.1926523819876991
  0
ARC
  5
16819
  8
0
 10
3741.799731209768197
 20
189.5187450449163862
 30
0.0
 40
0.0541179886803436
 50
53.2753899126916295
 51
126.1141616507508019
  0
ARC
  5
1681A
  8
0
 10
3741.7993157053952018
 20
189.518188102445805
 30
0.0
 40
0.0548128475146493
 50
336.5006514589380231
 51
53.2753899126916295
  0
ARC
  5
1681B
  8
0
 10
3741.7990893214669086
 20
189.5182865339183138
 30
0.0
 40
0.0550597046338736
 50
193.4906985736533898
 51
336.5006514589364883
  0
ARC
  5
1681C
  8
0
 10
3741.7984911282751455
 20
189.5187605747707948
 30
0.0
 40
0.0629921259999986
 50
108.5740908953241046
 51
194.1209659493806043
  0
ARC
  5
1681D
  8
0
 10
3741.7984911282751455
 20
189.5187605747707948
 30
0.0
 40
0.0629921259999977
 50
46.5869016619009599
 51
108.5740908953241046
  0
ARC
  5
1681E
  8
0
 10
3741.7984911282751455
 20
189.5187605747707948
 30
0.0
 40
0.0629921260000025
 50
326.0791648970724737
 51
46.5869016619009599
  0
ARC
  5
1681F
  8
0
 10
3741.7984911282751455
 20
189.5187605747707948
 30
0.0
 40
0.0629921260000002
 50
194.1209659493775064
 51
326.079164897073781
  0
ARC
  5
16820
  8
0
 10
3741.7929413754459347
 20
189.5252107073534944
 30
0.0
 40
0.0399772724486423
 50
110.4464100930904067
 51
202.07435465246391
  0
ARC
  5
16821
  8
0
 10
3741.7949133490128588
 20
189.5251668001344001
 30
0.0
 40
0.0407485062535606
 50
31.7573441729636698
 51
113.0237852857218996
  0
ARC
  5
16822
  8
0
 10
3741.7944592234521224
 20
189.5249135182749001
 30
0.0
 40
0.0412679571267722
 50
314.8502510597750756
 51
31.7245019672239685
  0
ARC
  5
16823
  8
0
 10
3741.7943653850679766
 20
189.52451309187569
 30
0.0
 40
0.041051736891376
 50
200.4249233086912909
 51
315.3372576755278942
  0
ARC
  5
16824
  8
0
 10
3741.8965779571481107
 20
189.6405737988092142
 30
0.0
 40
0.021751132325462
 50
75.423398733711025
 51
180.4218813335947971
  0
ARC
  5
16825
  8
0
 10
3741.8966881514138549
 20
189.640997550474907
 30
0.0
 40
0.0213132873183441
 50
343.6133223961184058
 51
75.423398733711025
  0
ARC
  5
16826
  8
0
 10
3741.896177018707931
 20
189.6411478558765111
 30
0.0
 40
0.0218460615261517
 50
237.8465281933902986
 51
343.6133223961168142
  0
ARC
  5
16827
  8
0
 10
3741.8956129693378898
 20
189.6402505455058929
 30
0.0
 40
0.0207861947450847
 50
179.5504308533733138
 51
237.8465281933902986
  0
ARC
  5
16828
  8
0
 10
3741.9032211940821071
 20
189.6325895586194861
 30
0.0
 40
0.0569110222471084
 50
126.1141616507516972
 51
191.1926523819876991
  0
ARC
  5
16829
  8
0
 10
3741.9015749911359308
 20
189.6348458946679898
 30
0.0
 40
0.0541179886803436
 50
53.2753899126916295
 51
126.1141616507508019
  0
ARC
  5
1682A
  8
0
 10
3741.9011594867638451
 20
189.6342889521974939
 30
0.0
 40
0.0548128475146493
 50
336.5006514589380231
 51
53.2753899126916295
  0
ARC
  5
1682B
  8
0
 10
3741.9009331028360066
 20
189.634387383669889
 30
0.0
 40
0.0550597046338736
 50
193.4906985736533898
 51
336.5006514589364883
  0
ARC
  5
1682C
  8
0
 10
3741.9003349096437887
 20
189.6348614245223985
 30
0.0
 40
0.0629921259999986
 50
108.5740908953241046
 51
194.1209659493806043
  0
ARC
  5
1682D
  8
0
 10
3741.9003349096437887
 20
189.6348614245223985
 30
0.0
 40
0.0629921259999977
 50
46.5869016619009599
 51
108.5740908953241046
  0
ARC
  5
1682E
  8
0
 10
3741.9003349096437887
 20
189.6348614245223985
 30
0.0
 40
0.0629921260000025
 50
326.0791648970724737
 51
46.5869016619009599
  0
ARC
  5
1682F
  8
0
 10
3741.9003349096437887
 20
189.6348614245223985
 30
0.0
 40
0.0629921260000002
 50
194.1209659493775064
 51
326.079164897073781
  0
ARC
  5
16830
  8
0
 10
3741.8947851568141232
 20
189.641311557105098
 30
0.0
 40
0.0399772724486423
 50
110.4464100930904067
 51
202.07435465246391
  0
ARC
  5
16831
  8
0
 10
3741.8967571303810473
 20
189.6412676498860037
 30
0.0
 40
0.0407485062535606
 50
31.7573441729636698
 51
113.0237852857218996
  0
ARC
  5
16832
  8
0
 10
3741.8963030048212204
 20
189.6410143680265037
 30
0.0
 40
0.0412679571267722
 50
314.8502510597750756
 51
31.7245019672239685
  0
ARC
  5
16833
  8
0
 10
3741.8962091664361651
 20
189.6406139416274073
 30
0.0
 40
0.041051736891376
 50
200.4249233086912909
 51
315.3372576755278942
  0
ARC
  5
16834
  8
0
 10
3741.6446094532479947
 20
189.6651504226092015
 30
0.0
 40
0.021751132325462
 50
75.423398733711025
 51
180.4218813335947971
  0
ARC
  5
16835
  8
0
 10
3741.6447196475141936
 20
189.6655741742748944
 30
0.0
 40
0.0213132873183441
 50
343.6133223961184058
 51
75.423398733711025
  0
ARC
  5
16836
  8
0
 10
3741.6442085148078149
 20
189.6657244796764985
 30
0.0
 40
0.0218460615261517
 50
237.8465281933902986
 51
343.6133223961168142
  0
ARC
  5
16837
  8
0
 10
3741.6436444654368643
 20
189.6648271693059087
 30
0.0
 40
0.0207861947450847
 50
179.5504308533733138
 51
237.8465281933902986
  0
ARC
  5
16838
  8
0
 10
3741.6512526901829006
 20
189.6571661824195019
 30
0.0
 40
0.0569110222471084
 50
126.1141616507516972
 51
191.1926523819876991
  0
ARC
  5
16839
  8
0
 10
3741.6496064872358147
 20
189.6594225184680056
 30
0.0
 40
0.0541179886803436
 50
53.2753899126916295
 51
126.1141616507508019
  0
ARC
  5
1683A
  8
0
 10
3741.6491909828628195
 20
189.6588655759975097
 30
0.0
 40
0.0548128475146493
 50
336.5006514589380231
 51
53.2753899126916295
  0
ARC
  5
1683B
  8
0
 10
3741.6489645989358905
 20
189.6589640074699048
 30
0.0
 40
0.0550597046338736
 50
193.4906985736533898
 51
336.5006514589364883
  0
ARC
  5
1683C
  8
0
 10
3741.6483664057432179
 20
189.6594380483223858
 30
0.0
 40
0.0629921259999986
 50
108.5740908953241046
 51
194.1209659493806043
  0
ARC
  5
1683D
  8
0
 10
3741.6483664057432179
 20
189.6594380483223858
 30
0.0
 40
0.0629921259999977
 50
46.5869016619009599
 51
108.5740908953241046
  0
ARC
  5
1683E
  8
0
 10
3741.6483664057432179
 20
189.6594380483223858
 30
0.0
 40
0.0629921260000025
 50
326.0791648970724737
 51
46.5869016619009599
  0
ARC
  5
1683F
  8
0
 10
3741.6483664057432179
 20
189.6594380483223858
 30
0.0
 40
0.0629921260000002
 50
194.1209659493775064
 51
326.079164897073781
  0
ARC
  5
16840
  8
0
 10
3741.6428166529149166
 20
189.6658881809051138
 30
0.0
 40
0.0399772724486423
 50
110.4464100930904067
 51
202.07435465246391
  0
ARC
  5
16841
  8
0
 10
3741.6447886264809313
 20
189.6658442736859911
 30
0.0
 40
0.0407485062535606
 50
31.7573441729636698
 51
113.0237852857218996
  0
ARC
  5
16842
  8
0
 10
3741.6443345009211043
 20
189.6655909918264911
 30
0.0
 40
0.0412679571267722
 50
314.8502510597750756
 51
31.7245019672239685
  0
ARC
  5
16843
  8
0
 10
3741.6442406625360491
 20
189.6651905654273094
 30
0.0
 40
0.041051736891376
 50
200.4249233086912909
 51
315.3372576755278942
  0
ARC
  5
16844
  8
0
 10
3741.7705937051491674
 20
189.7665580508092091
 30
0.0
 40
0.021751132325462
 50
75.423398733711025
 51
180.4218813335947971
  0
ARC
  5
16845
  8
0
 10
3741.7707038994140021
 20
189.766981802474902
 30
0.0
 40
0.0213132873183441
 50
343.6133223961184058
 51
75.423398733711025
  0
ARC
  5
16846
  8
0
 10
3741.7701927667080781
 20
189.7671321078765061
 30
0.0
 40
0.0218460615261517
 50
237.8465281933902986
 51
343.6133223961168142
  0
ARC
  5
16847
  8
0
 10
3741.7696287173380369
 20
189.7662347975058879
 30
0.0
 40
0.0207861947450847
 50
179.5504308533733138
 51
237.8465281933902986
  0
ARC
  5
16848
  8
0
 10
3741.7772369420831637
 20
189.7585738106195095
 30
0.0
 40
0.0569110222471084
 50
126.1141616507516972
 51
191.1926523819876991
  0
ARC
  5
16849
  8
0
 10
3741.7755907391360779
 20
189.7608301466680132
 30
0.0
 40
0.0541179886803436
 50
53.2753899126916295
 51
126.1141616507508019
  0
ARC
  5
1684A
  8
0
 10
3741.7751752347639922
 20
189.7602732041974036
 30
0.0
 40
0.0548128475146493
 50
336.5006514589380231
 51
53.2753899126916295
  0
ARC
  5
1684B
  8
0
 10
3741.7749488508361537
 20
189.7603716356699124
 30
0.0
 40
0.0550597046338736
 50
193.4906985736533898
 51
336.5006514589364883
  0
ARC
  5
1684C
  8
0
 10
3741.7743506576439358
 20
189.7608456765223934
 30
0.0
 40
0.0629921259999986
 50
108.5740908953241046
 51
194.1209659493806043
  0
ARC
  5
1684D
  8
0
 10
3741.7743506576439358
 20
189.7608456765223934
 30
0.0
 40
0.0629921259999977
 50
46.5869016619009599
 51
108.5740908953241046
  0
ARC
  5
1684E
  8
0
 10
3741.7743506576439358
 20
189.7608456765223934
 30
0.0
 40
0.0629921260000025
 50
326.0791648970724737
 51
46.5869016619009599
  0
ARC
  5
1684F
  8
0
 10
3741.7743506576439358
 20
189.7608456765223934
 30
0.0
 40
0.0629921260000002
 50
194.1209659493775064
 51
326.079164897073781
  0
ARC
  5
16850
  8
0
 10
3741.7688009048138156
 20
189.767295809105093
 30
0.0
 40
0.0399772724486423
 50
110.4464100930904067
 51
202.07435465246391
  0
ARC
  5
16851
  8
0
 10
3741.7707728783811945
 20
189.7672519018859987
 30
0.0
 40
0.0407485062535606
 50
31.7573441729636698
 51
113.0237852857218996
  0
ARC
  5
16852
  8
0
 10
3741.7703187528209128
 20
189.7669986200264987
 30
0.0
 40
0.0412679571267722
 50
314.8502510597750756
 51
31.7245019672239685
  0
ARC
  5
16853
  8
0
 10
3741.7702249144358575
 20
189.7665981936274022
 30
0.0
 40
0.041051736891376
 50
200.4249233086912909
 51
315.3372576755278942
  0
ARC
  5
16854
  8
0
 10
3741.625334662188834
 20
189.906811655827795
 30
0.0
 40
0.021751132325462
 50
75.423398733711025
 51
180.4218813335947971
  0
ARC
  5
16855
  8
0
 10
3741.625444856455033
 20
189.9072354074934026
 30
0.0
 40
0.0213132873183441
 50
343.6133223961184058
 51
75.423398733711025
  0
ARC
  5
16856
  8
0
 10
3741.624933723749109
 20
189.907385712895092
 30
0.0
 40
0.0218460615261517
 50
237.8465281933902986
 51
343.6133223961168142
  0
ARC
  5
16857
  8
0
 10
3741.6243696743781584
 20
189.9064884025245021
 30
0.0
 40
0.0207861947450847
 50
179.5504308533733138
 51
237.8465281933902986
  0
ARC
  5
16858
  8
0
 10
3741.6319778991228304
 20
189.8988274156380953
 30
0.0
 40
0.0569110222471084
 50
126.1141616507516972
 51
191.1926523819876991
  0
ARC
  5
16859
  8
0
 10
3741.6303316961771088
 20
189.901083751686599
 30
0.0
 40
0.0541179886803436
 50
53.2753899126916295
 51
126.1141616507508019
  0
ARC
  5
1685A
  8
0
 10
3741.6299161918041136
 20
189.9005268092159895
 30
0.0
 40
0.0548128475146493
 50
336.5006514589380231
 51
53.2753899126916295
  0
ARC
  5
1685B
  8
0
 10
3741.6296898078758204
 20
189.9006252406884983
 30
0.0
 40
0.0550597046338736
 50
193.4906985736533898
 51
336.5006514589364883
  0
ARC
  5
1685C
  8
0
 10
3741.6290916146840573
 20
189.901099281540894
 30
0.0
 40
0.0629921259999986
 50
108.5740908953241046
 51
194.1209659493806043
  0
ARC
  5
1685D
  8
0
 10
3741.6290916146840573
 20
189.901099281540894
 30
0.0
 40
0.0629921259999977
 50
46.5869016619009599
 51
108.5740908953241046
  0
ARC
  5
1685E
  8
0
 10
3741.6290916146840573
 20
189.901099281540894
 30
0.0
 40
0.0629921260000025
 50
326.0791648970724737
 51
46.5869016619009599
  0
ARC
  5
1685F
  8
0
 10
3741.6290916146840573
 20
189.901099281540894
 30
0.0
 40
0.0629921260000002
 50
194.1209659493775064
 51
326.079164897073781
  0
ARC
  5
16860
  8
0
 10
3741.6235418618548465
 20
189.9075494141237073
 30
0.0
 40
0.0399772724486423
 50
110.4464100930904067
 51
202.07435465246391
  0
ARC
  5
16861
  8
0
 10
3741.6255138354222254
 20
189.9075055069044993
 30
0.0
 40
0.0407485062535606
 50
31.7573441729636698
 51
113.0237852857218996
  0
ARC
  5
16862
  8
0
 10
3741.6250597098619437
 20
189.9072522250449992
 30
0.0
 40
0.0412679571267722
 50
314.8502510597750756
 51
31.7245019672239685
  0
ARC
  5
16863
  8
0
 10
3741.6249658714768884
 20
189.9068517986459028
 30
0.0
 40
0.041051736891376
 50
200.4249233086912909
 51
315.3372576755278942
  0
ARC
  5
16864
  8
0
 10
3741.8872533280468815
 20
189.9122777477348052
 30
0.0
 40
0.021751132325462
 50
75.423398733711025
 51
180.4218813335947971
  0
ARC
  5
16865
  8
0
 10
3741.8873635223108067
 20
189.9127014994004128
 30
0.0
 40
0.0213132873183441
 50
343.6133223961184058
 51
75.423398733711025
  0
ARC
  5
16866
  8
0
 10
3741.8868523896057923
 20
189.9128518048021022
 30
0.0
 40
0.0218460615261517
 50
237.8465281933902986
 51
343.6133223961168142
  0
ARC
  5
16867
  8
0
 10
3741.8862883402362058
 20
189.9119544944315123
 30
0.0
 40
0.0207861947450847
 50
179.5504308533733138
 51
237.8465281933902986
  0
ARC
  5
16868
  8
0
 10
3741.8938965649808779
 20
189.9042935075451055
 30
0.0
 40
0.0569110222471084
 50
126.1141616507516972
 51
191.1926523819876991
  0
ARC
  5
16869
  8
0
 10
3741.8922503620351563
 20
189.9065498435936092
 30
0.0
 40
0.0541179886803436
 50
53.2753899126916295
 51
126.1141616507508019
  0
ARC
  5
1686A
  8
0
 10
3741.8918348576607968
 20
189.9059929011229997
 30
0.0
 40
0.0548128475146493
 50
336.5006514589380231
 51
53.2753899126916295
  0
ARC
  5
1686B
  8
0
 10
3741.8916084737338679
 20
189.9060913325955084
 30
0.0
 40
0.0550597046338736
 50
193.4906985736533898
 51
336.5006514589364883
  0
ARC
  5
1686C
  8
0
 10
3741.8910102805421047
 20
189.9065653734479895
 30
0.0
 40
0.0629921259999986
 50
108.5740908953241046
 51
194.1209659493806043
  0
ARC
  5
1686D
  8
0
 10
3741.8910102805421047
 20
189.9065653734479895
 30
0.0
 40
0.0629921259999977
 50
46.5869016619009599
 51
108.5740908953241046
  0
ARC
  5
1686E
  8
0
 10
3741.8910102805421047
 20
189.9065653734479895
 30
0.0
 40
0.0629921260000025
 50
326.0791648970724737
 51
46.5869016619009599
  0
ARC
  5
1686F
  8
0
 10
3741.8910102805421047
 20
189.9065653734479895
 30
0.0
 40
0.0629921260000002
 50
194.1209659493775064
 51
326.079164897073781
  0
ARC
  5
16870
  8
0
 10
3741.885460527712894
 20
189.913015506030689
 30
0.0
 40
0.0399772724486423
 50
110.4464100930904067
 51
202.07435465246391
  0
ARC
  5
16871
  8
0
 10
3741.8874325012789086
 20
189.9129715988115947
 30
0.0
 40
0.0407485062535606
 50
31.7573441729636698
 51
113.0237852857218996
  0
ARC
  5
16872
  8
0
 10
3741.8869783757190817
 20
189.9127183169520094
 30
0.0
 40
0.0412679571267722
 50
314.8502510597750756
 51
31.7245019672239685
  0
ARC
  5
16873
  8
0
 10
3741.8868845373340264
 20
189.912317890552913
 30
0.0
 40
0.041051736891376
 50
200.4249233086912909
 51
315.3372576755278942
  0
ARC
  5
16874
  8
0
 10
3741.7590662663687908
 20
190.0384025491781017
 30
0.0
 40
0.021751132325462
 50
75.423398733711025
 51
180.4218813335947971
  0
ARC
  5
16875
  8
0
 10
3741.7591764606349898
 20
190.0388263008437093
 30
0.0
 40
0.0213132873183441
 50
343.6133223961184058
 51
75.423398733711025
  0
ARC
  5
16876
  8
0
 10
3741.7586653279299753
 20
190.0389766062453987
 30
0.0
 40
0.0218460615261517
 50
237.8465281933902986
 51
343.6133223961168142
  0
ARC
  5
16877
  8
0
 10
3741.7581012785590246
 20
190.0380792958748088
 30
0.0
 40
0.0207861947450847
 50
179.5504308533733138
 51
237.8465281933902986
  0
ARC
  5
16878
  8
0
 10
3741.7657095033041514
 20
190.030418308988402
 30
0.0
 40
0.0569110222471084
 50
126.1141616507516972
 51
191.1926523819876991
  0
ARC
  5
16879
  8
0
 10
3741.7640633003570656
 20
190.0326746450369058
 30
0.0
 40
0.0541179886803436
 50
53.2753899126916295
 51
126.1141616507508019
  0
ARC
  5
1687A
  8
0
 10
3741.7636477959840704
 20
190.0321177025664099
 30
0.0
 40
0.0548128475146493
 50
336.5006514589380231
 51
53.2753899126916295
  0
ARC
  5
1687B
  8
0
 10
3741.7634214120571414
 20
190.032216134038805
 30
0.0
 40
0.0550597046338736
 50
193.4906985736533898
 51
336.5006514589364883
  0
ARC
  5
1687C
  8
0
 10
3741.7628232188649235
 20
190.032690174891286
 30
0.0
 40
0.0629921259999986
 50
108.5740908953241046
 51
194.1209659493806043
  0
ARC
  5
1687D
  8
0
 10
3741.7628232188649235
 20
190.032690174891286
 30
0.0
 40
0.0629921259999977
 50
46.5869016619009599
 51
108.5740908953241046
  0
ARC
  5
1687E
  8
0
 10
3741.7628232188649235
 20
190.032690174891286
 30
0.0
 40
0.0629921260000025
 50
326.0791648970724737
 51
46.5869016619009599
  0
ARC
  5
1687F
  8
0
 10
3741.7628232188649235
 20
190.032690174891286
 30
0.0
 40
0.0629921260000002
 50
194.1209659493775064
 51
326.079164897073781
  0
ARC
  5
16880
  8
0
 10
3741.7572734660348033
 20
190.039140307474014
 30
0.0
 40
0.0399772724486423
 50
110.4464100930904067
 51
202.07435465246391
  0
ARC
  5
16881
  8
0
 10
3741.7592454396021822
 20
190.0390964002548913
 30
0.0
 40
0.0407485062535606
 50
31.7573441729636698
 51
113.0237852857218996
  0
ARC
  5
16882
  8
0
 10
3741.75879131404281
 20
190.0388431183953912
 30
0.0
 40
0.0412679571267722
 50
314.8502510597750756
 51
31.7245019672239685
  0
ARC
  5
16883
  8
0
 10
3741.7586974756582094
 20
190.0384426919962948
 30
0.0
 40
0.041051736891376
 50
200.4249233086912909
 51
315.3372576755278942
  0
ARC
  5
16884
  8
0
 10
3741.6446094532479947
 20
190.1445108067092065
 30
0.0
 40
0.021751132325462
 50
75.423398733711025
 51
180.4218813335947971
  0
ARC
  5
16885
  8
0
 10
3741.6447196475141936
 20
190.1449345583748141
 30
0.0
 40
0.0213132873183441
 50
343.6133223961184058
 51
75.423398733711025
  0
ARC
  5
16886
  8
0
 10
3741.6442085148078149
 20
190.1450848637765034
 30
0.0
 40
0.0218460615261517
 50
237.8465281933902986
 51
343.6133223961168142
  0
ARC
  5
16887
  8
0
 10
3741.6436444654368643
 20
190.1441875534059136
 30
0.0
 40
0.0207861947450847
 50
179.5504308533733138
 51
237.8465281933902986
  0
ARC
  5
16888
  8
0
 10
3741.6512526901829006
 20
190.1365265665195068
 30
0.0
 40
0.0569110222471084
 50
126.1141616507516972
 51
191.1926523819876991
  0
ARC
  5
16889
  8
0
 10
3741.6496064872358147
 20
190.1387829025680105
 30
0.0
 40
0.0541179886803436
 50
53.2753899126916295
 51
126.1141616507508019
  0
ARC
  5
1688A
  8
0
 10
3741.6491909828628195
 20
190.1382259600974862
 30
0.0
 40
0.0548128475146493
 50
336.5006514589380231
 51
53.2753899126916295
  0
ARC
  5
1688B
  8
0
 10
3741.6489645989358905
 20
190.1383243915699097
 30
0.0
 40
0.0550597046338736
 50
193.4906985736533898
 51
336.5006514589364883
  0
ARC
  5
1688C
  8
0
 10
3741.6483664057432179
 20
190.1387984324223908
 30
0.0
 40
0.0629921259999986
 50
108.5740908953241046
 51
194.1209659493806043
  0
ARC
  5
1688D
  8
0
 10
3741.6483664057432179
 20
190.1387984324223908
 30
0.0
 40
0.0629921259999977
 50
46.5869016619009599
 51
108.5740908953241046
  0
ARC
  5
1688E
  8
0
 10
3741.6483664057432179
 20
190.1387984324223908
 30
0.0
 40
0.0629921260000025
 50
326.0791648970724737
 51
46.5869016619009599
  0
ARC
  5
1688F
  8
0
 10
3741.6483664057432179
 20
190.1387984324223908
 30
0.0
 40
0.0629921260000002
 50
194.1209659493775064
 51
326.079164897073781
  0
ARC
  5
16890
  8
0
 10
3741.6428166529149166
 20
190.1452485650050903
 30
0.0
 40
0.0399772724486423
 50
110.4464100930904067
 51
202.07435465246391
  0
ARC
  5
16891
  8
0
 10
3741.6447886264809313
 20
190.145204657785996
 30
0.0
 40
0.0407485062535606
 50
31.7573441729636698
 51
113.0237852857218996
  0
ARC
  5
16892
  8
0
 10
3741.6443345009211043
 20
190.144951375926496
 30
0.0
 40
0.0412679571267722
 50
314.8502510597750756
 51
31.7245019672239685
  0
ARC
  5
16893
  8
0
 10
3741.6442406625360491
 20
190.1445509495273996
 30
0.0
 40
0.041051736891376
 50
200.4249233086912909
 51
315.3372576755278942
  0
ARC
  5
16894
  8
0
 10
3741.9011074679478952
 20
190.1497561087091981
 30
0.0
 40
0.021751132325462
 50
75.423398733711025
 51
180.4218813335947971
  0
ARC
  5
16895
  8
0
 10
3741.9012176622140942
 20
190.1501798603748909
 30
0.0
 40
0.0213132873183441
 50
343.6133223961184058
 51
75.423398733711025
  0
ARC
  5
16896
  8
0
 10
3741.9007065295081702
 20
190.1503301657764951
 30
0.0
 40
0.0218460615261517
 50
237.8465281933902986
 51
343.6133223961168142
  0
ARC
  5
16897
  8
0
 10
3741.900142480138129
 20
190.1494328554059052
 30
0.0
 40
0.0207861947450847
 50
179.5504308533733138
 51
237.8465281933902986
  0
ARC
  5
16898
  8
0
 10
3741.9077507048828011
 20
190.1417718685194984
 30
0.0
 40
0.0569110222471084
 50
126.1141616507516972
 51
191.1926523819876991
  0
ARC
  5
16899
  8
0
 10
3741.90610450193617
 20
190.1440282045680021
 30
0.0
 40
0.0541179886803436
 50
53.2753899126916295
 51
126.1141616507508019
  0
ARC
  5
1689A
  8
0
 10
3741.9056889975640843
 20
190.1434712620973926
 30
0.0
 40
0.0548128475146493
 50
336.5006514589380231
 51
53.2753899126916295
  0
ARC
  5
1689B
  8
0
 10
3741.9054626136357911
 20
190.1435696935699013
 30
0.0
 40
0.0550597046338736
 50
193.4906985736533898
 51
336.5006514589364883
  0
ARC
  5
1689C
  8
0
 10
3741.9048644204440279
 20
190.1440437344224108
 30
0.0
 40
0.0629921259999986
 50
108.5740908953241046
 51
194.1209659493806043
  0
ARC
  5
1689D
  8
0
 10
3741.9048644204440279
 20
190.1440437344224108
 30
0.0
 40
0.0629921259999977
 50
46.5869016619009599
 51
108.5740908953241046
  0
ARC
  5
1689E
  8
0
 10
3741.9048644204440279
 20
190.1440437344224108
 30
0.0
 40
0.0629921260000025
 50
326.0791648970724737
 51
46.5869016619009599
  0
ARC
  5
1689F
  8
0
 10
3741.9048644204440279
 20
190.1440437344224108
 30
0.0
 40
0.0629921260000002
 50
194.1209659493775064
 51
326.079164897073781
  0
ARC
  5
168A0
  8
0
 10
3741.8993146676148172
 20
190.1504938670051104
 30
0.0
 40
0.0399772724486423
 50
110.4464100930904067
 51
202.07435465246391
  0
ARC
  5
168A1
  8
0
 10
3741.9012866411808318
 20
190.1504499597859876
 30
0.0
 40
0.0407485062535606
 50
31.7573441729636698
 51
113.0237852857218996
  0
ARC
  5
168A2
  8
0
 10
3741.9008325156210049
 20
190.1501966779264876
 30
0.0
 40
0.0412679571267722
 50
314.8502510597750756
 51
31.7245019672239685
  0
ARC
  5
168A3
  8
0
 10
3741.9007386772359496
 20
190.1497962515273912
 30
0.0
 40
0.041051736891376
 50
200.4249233086912909
 51
315.3372576755278942
  0
ARC
  5
168A4
  8
0
 10
3741.7592197817698434
 20
190.2917115397162888
 30
0.0
 40
0.021751132325462
 50
75.423398733711025
 51
180.4218813335947971
  0
ARC
  5
168A5
  8
0
 10
3741.7593299760360424
 20
190.2921352913818964
 30
0.0
 40
0.0213132873183441
 50
343.6133223961184058
 51
75.423398733711025
  0
ARC
  5
168A6
  8
0
 10
3741.7588188433292089
 20
190.2922855967836142
 30
0.0
 40
0.0218460615261517
 50
237.8465281933902986
 51
343.6133223961168142
  0
ARC
  5
168A7
  8
0
 10
3741.7582547939591677
 20
190.2913882864129107
 30
0.0
 40
0.0207861947450847
 50
179.5504308533733138
 51
237.8465281933902986
  0
ARC
  5
168A8
  8
0
 10
3741.7658630187038398
 20
190.2837272995265039
 30
0.0
 40
0.0569110222471084
 50
126.1141616507516972
 51
191.1926523819876991
  0
ARC
  5
168A9
  8
0
 10
3741.7642168157581182
 20
190.2859836355750076
 30
0.0
 40
0.0541179886803436
 50
53.2753899126916295
 51
126.1141616507508019
  0
ARC
  5
168AA
  8
0
 10
3741.7638013113842135
 20
190.2854266931045117
 30
0.0
 40
0.0548128475146493
 50
336.5006514589380231
 51
53.2753899126916295
  0
ARC
  5
168AB
  8
0
 10
3741.7635749274568298
 20
190.2855251245769068
 30
0.0
 40
0.0550597046338736
 50
193.4906985736533898
 51
336.5006514589364883
  0
ARC
  5
168AC
  8
0
 10
3741.7629767342650666
 20
190.2859991654293879
 30
0.0
 40
0.0629921259999986
 50
108.5740908953241046
 51
194.1209659493806043
  0
ARC
  5
168AD
  8
0
 10
3741.7629767342650666
 20
190.2859991654293879
 30
0.0
 40
0.0629921259999977
 50
46.5869016619009599
 51
108.5740908953241046
  0
ARC
  5
168AE
  8
0
 10
3741.7629767342650666
 20
190.2859991654293879
 30
0.0
 40
0.0629921260000025
 50
326.0791648970724737
 51
46.5869016619009599
  0
ARC
  5
168AF
  8
0
 10
3741.7629767342650666
 20
190.2859991654293879
 30
0.0
 40
0.0629921260000002
 50
194.1209659493775064
 51
326.079164897073781
  0
ARC
  5
168B0
  8
0
 10
3741.7574269814358559
 20
190.2924492980120874
 30
0.0
 40
0.0399772724486423
 50
110.4464100930904067
 51
202.07435465246391
  0
ARC
  5
168B1
  8
0
 10
3741.7593989550018705
 20
190.2924053907929931
 30
0.0
 40
0.0407485062535606
 50
31.7573441729636698
 51
113.0237852857218996
  0
ARC
  5
168B2
  8
0
 10
3741.7589448294420436
 20
190.2921521089334931
 30
0.0
 40
0.0412679571267722
 50
314.8502510597750756
 51
31.7245019672239685
  0
ARC
  5
168B3
  8
0
 10
3741.7588509910569883
 20
190.2917516825343967
 30
0.0
 40
0.041051736891376
 50
200.4249233086912909
 51
315.3372576755278942
  0
LINE
  5
168B4
  8
0
 10
3748.6683416947139449
 20
189.5642258968748877
 30
0.0
 11
3748.6782598243139546
 21
189.5642258968748877
 31
0.0
  0
ARC
  5
168B5
  8
0
 10
3748.3426891236158554
 20
188.9851376561213954
 30
0.0
 40
0.6692913309957463
 50
45.4695897041468697
 51
59.9085180392604073
  0
LINE
  5
168B6
  8
0
 10
3748.6683416947139449
 20
187.7138321961749057
 30
0.0
 11
3748.6782598243139546
 21
187.7138321961749057
 31
0.0
  0
ARC
  5
168B7
  8
0
 10
3748.3426891234380491
 20
188.2929204371610865
 30
0.0
 40
0.6692913312860116
 50
300.0914819638978202
 51
314.5304104021029161
  0
LINE
  5
168B8
  8
0
 10
3746.6722787026142214
 20
181.8673755031749124
 30
0.0
 11
3746.6722787026142214
 21
181.8555644795748947
 31
0.0
  0
ENDSEC
  0
EOF
