  0
SECTION
  2
HEADER
  9
$ACADVER
  1
AC1009
  9
$INSBASE
 10
3542.3208854066569984
 20
198.0429482228063875
 30
0.0
  9
$EXTMIN
 10
3533.2263972176569951
 20
188.8755012822466881
 30
0.0
  9
$EXTMAX
 10
3551.4153735956570017
 20
199.3027907424564091
 30
0.0
  9
$LIMMIN
 10
0.0
 20
0.0
  9
$LIMMAX
 10
11.6929133858000007
 20
8.2677165353999982
  9
$ORTHOMODE
 70
     0
  9
$REGENMODE
 70
     1
  9
$FILLMODE
 70
     1
  9
$QTEXTMODE
 70
     0
  9
$MIRRTEXT
 70
     0
  9
$DRAGMODE
 70
     2
  9
$LTSCALE
 40
0.6431102362
  9
$OSMODE
 70
  3839
  9
$ATTMODE
 70
     1
  9
$TEXTSIZE
 40
0.2
  9
$TRACEWID
 40
0.05
  9
$TEXTSTYLE
  7
STANDARD
  9
$CLAYER
  8
0
  9
$CELTYPE
  6
BYLAYER
  9
$CECOLOR
 62
   256
  9
$DIMSCALE
 40
1.0
  9
$DIMASZ
 40
0.1875
  9
$DIMEXO
 40
0.0625
  9
$DIMDLI
 40
0.4443307087
  9
$DIMRND
 40
0.0
  9
$DIMDLE
 40
0.0
  9
$DIMEXE
 40
0.125
  9
$DIMTP
 40
0.01
  9
$DIMTM
 40
0.01
  9
$DIMTXT
 40
2.0
  9
$DIMCEN
 40
0.1052362205
  9
$DIMTSZ
 40
0.0
  9
$DIMTOL
 70
     1
  9
$DIMLIM
 70
     0
  9
$DIMTIH
 70
     1
  9
$DIMTOH
 70
     1
  9
$DIMSE1
 70
     0
  9
$DIMSE2
 70
     0
  9
$DIMTAD
 70
     0
  9
$DIMZIN
 70
     0
  9
$DIMBLK
  1

  9
$DIMASO
 70
     1
  9
$DIMSHO
 70
     1
  9
$DIMPOST
  1
\X
  9
$DIMAPOST
  1

  9
$DIMALT
 70
     1
  9
$DIMALTD
 70
     2
  9
$DIMALTF
 40
25.3999999999999986
  9
$DIMLFAC
 40
1.0
  9
$DIMTOFL
 70
     0
  9
$DIMTVP
 40
0.0
  9
$DIMTIX
 70
     0
  9
$DIMSOXD
 70
     0
  9
$DIMSAH
 70
     0
  9
$DIMBLK1
  1

  9
$DIMBLK2
  1

  9
$DIMSTYLE
  2
STANDARD
  9
$DIMCLRD
 70
     0
  9
$DIMCLRE
 70
     0
  9
$DIMCLRT
 70
     0
  9
$DIMTFAC
 40
1.0
  9
$DIMGAP
 40
0.09
  9
$LUNITS
 70
     2
  9
$LUPREC
 70
     4
  9
$SKETCHINC
 40
0.1
  9
$FILLETRAD
 40
0.0
  9
$AUNITS
 70
     0
  9
$AUPREC
 70
     0
  9
$MENU
  1
.
  9
$ELEVATION
 40
0.0
  9
$PELEVATION
 40
0.0
  9
$THICKNESS
 40
0.0
  9
$LIMCHECK
 70
     0
  9
$BLIPMODE
 70
     0
  9
$CHAMFERA
 40
0.0
  9
$CHAMFERB
 40
0.0
  9
$SKPOLY
 70
     0
  9
$TDCREATE
 40
2458060.468368056230247
  9
$TDUPDATE
 40
2459037.9578240741975605
  9
$TDINDWG
 40
0.7285603009
  9
$TDUSRTIMER
 40
0.7285603009
  9
$USRTIMER
 70
     1
  9
$ANGBASE
 50
0.0
  9
$ANGDIR
 70
     0
  9
$PDMODE
 70
     0
  9
$PDSIZE
 40
0.3125
  9
$PLINEWID
 40
0.0
  9
$COORDS
 70
     1
  9
$SPLFRAME
 70
     0
  9
$SPLINETYPE
 70
     6
  9
$SPLINESEGS
 70
     8
  9
$ATTDIA
 70
     1
  9
$ATTREQ
 70
     1
  9
$HANDLING
 70
     1
  9
$HANDSEED
  5
A5C5
  9
$SURFTAB1
 70
     6
  9
$SURFTAB2
 70
     6
  9
$SURFTYPE
 70
     6
  9
$SURFU
 70
     6
  9
$SURFV
 70
     6
  9
$UCSNAME
  2

  9
$UCSORG
 10
0.0
 20
0.0
 30
0.0
  9
$UCSXDIR
 10
1.0
 20
0.0
 30
0.0
  9
$UCSYDIR
 10
0.0
 20
1.0
 30
0.0
  9
$PUCSNAME
  2

  9
$PUCSORG
 10
0.0
 20
0.0
 30
0.0
  9
$PUCSXDIR
 10
1.0
 20
0.0
 30
0.0
  9
$PUCSYDIR
 10
0.0
 20
1.0
 30
0.0
  9
$USERI1
 70
     0
  9
$USERI2
 70
     0
  9
$USERI3
 70
     0
  9
$USERI4
 70
     0
  9
$USERI5
 70
     0
  9
$USERR1
 40
0.0
  9
$USERR2
 40
0.0
  9
$USERR3
 40
0.0
  9
$USERR4
 40
0.0
  9
$USERR5
 40
0.0
  9
$WORLDVIEW
 70
     1
  9
$SHADEDGE
 70
     3
  9
$SHADEDIF
 70
    70
  9
$TILEMODE
 70
     1
  9
$MAXACTVP
 70
    64
  9
$PLIMCHECK
 70
     0
  9
$PEXTMIN
 10
1.0000000000000000E+20
 20
1.0000000000000000E+20
 30
1.0000000000000000E+20
  9
$PEXTMAX
 10
-1.0000000000000000E+20
 20
-1.0000000000000000E+20
 30
-1.0000000000000000E+20
  9
$PLIMMIN
 10
0.0
 20
0.0
  9
$PLIMMAX
 10
12.0
 20
9.0
  9
$UNITMODE
 70
     0
  9
$VISRETAIN
 70
     1
  9
$PLINEGEN
 70
     0
  9
$PSLTSCALE
 70
     1
  0
ENDSEC
  0
SECTION
  2
TABLES
  0
TABLE
  2
VPORT
 70
     1
  0
VPORT
  2
*ACTIVE
 70
     0
 10
0.0
 20
0.0
 11
1.0
 21
1.0
 12
0.0
 22
0.0
 13
0.0
 23
0.0
 14
1.0
 24
1.0
 15
0.0
 25
0.0
 16
0.0
 26
0.0
 36
87.040725919329617
 17
3542.32080078125
 27
194.0891494750975994
 37
0.0
 40
20.9658497998956683
 41
3.314341846758349
 42
50.0
 43
0.0
 44
0.0
 50
0.0
 51
0.0
 71
     0
 72
   100
 73
     1
 74
     1
 75
     0
 76
     0
 77
     0
 78
     0
  0
ENDTAB
  0
TABLE
  2
LTYPE
 70
     2
  0
LTYPE
  2
CONTINUOUS
 70
     0
  3
Solid line
 72
    65
 73
     0
 40
0.0
  0
LTYPE
  2
PHANTOM2
 70
     0
  3
___ _ _ ___ _ _ ___ _ _ ___ _ _
 72
    65
 73
     6
 40
1.25
 49
0.625
 49
-0.125
 49
0.125
 49
-0.125
 49
0.125
 49
-0.125
  0
ENDTAB
  0
TABLE
  2
LAYER
 70
     2
  0
LAYER
  2
0
 70
     0
 62
   255
  6
CONTINUOUS
  0
LAYER
  2
DEFPOINTS
 70
     0
 62
     7
  6
CONTINUOUS
  0
ENDTAB
  0
TABLE
  2
STYLE
 70
     1
  0
STYLE
  2
STANDARD
 70
     0
 40
0.0
 41
0.8
 50
0.0
 71
     0
 42
0.2
  3
txt
  4

  0
ENDTAB
  0
TABLE
  2
VIEW
 70
     0
  0
ENDTAB
  0
TABLE
  2
UCS
 70
     0
  0
ENDTAB
  0
TABLE
  2
APPID
 70
     9
  0
APPID
  2
ACAD
 70
     0
  0
APPID
  2
ACAD_MLEADERVER
 70
     0
  0
APPID
  2
ACAD_EXEMPT_FROM_CAD_STANDARDS
 70
     0
  0
APPID
  2
ACAD_NAV_VCDISPLAY
 70
     0
  0
APPID
  2
ACAECLAYERSTANDARD
 70
     0
  0
APPID
  2
ACCMTRANSPARENCY
 70
     0
  0
APPID
  2
ACAD_DSTYLE_DIMJAG
 70
     0
  0
APPID
  2
ACAD_DSTYLE_DIMTALN
 70
     0
  0
APPID
  2
ACDBATTR
 70
     0
  0
ENDTAB
  0
TABLE
  2
DIMSTYLE
 70
     1
  0
DIMSTYLE
  2
STANDARD
 70
     0
  3

  4

  5

  6

  7

 40
1.0
 41
0.1875
 42
0.0625
 43
0.38
 44
0.125
 45
0.0
 46
0.0
 47
0.01
 48
0.01
140
0.15625
141
0.09
142
0.0
143
25.3999999999999986
144
1.0
145
0.0
146
1.0
147
0.09
 71
     1
 72
     0
 73
     1
 74
     1
 75
     0
 76
     0
 77
     0
 78
     4
170
     0
171
     2
172
     0
173
     0
174
     0
175
     0
176
     0
177
     0
178
     0
  0
ENDTAB
  0
ENDSEC
  0
SECTION
  2
BLOCKS
  0
BLOCK
  8
0
  2
$MODEL_SPACE
 70
     0
 10
0.0
 20
0.0
 30
0.0
  3
$MODEL_SPACE
  1

  0
ENDBLK
  5
21
  8
0
  0
BLOCK
 67
     1
  8
0
  2
$PAPER_SPACE
 70
     0
 10
0.0
 20
0.0
 30
0.0
  3
$PAPER_SPACE
  1

  0
ENDBLK
  5
1D
 67
     1
  8
0
  0
BLOCK
  8
0
  2
_FILLED
 70
     0
 10
0.0
 20
0.0
 30
0.0
  3
_FILLED
  1

  0
SOLID
  5
6F59
  8
0
  6
BYBLOCK
 62
     0
 10
0.0
 20
0.0
 30
0.0
 11
-1.0
 21
0.1666666667
 31
0.0
 12
-1.0
 22
-0.1666666667
 32
0.0
 13
-1.0
 23
-0.1666666667
 33
0.0
  0
ENDBLK
  5
6F5A
  8
0
  6
BYBLOCK
 62
     0
  0
ENDSEC
  0
SECTION
  2
ENTITIES
  0
ATTDEF
  5
3930
  8
DEFPOINTS
 10
3542.3110298584751945
 20
198.0466447501270864
 30
0.0
 40
0.001
  1
K-73081T-9GCH
  3

  2
MODELNUMBER
 70
     0
1001
ACDBATTR
1070
     0
1070
     1
  0
ATTDEF
  5
3931
  8
DEFPOINTS
 10
3542.3110298584751945
 20
198.0449780834605065
 30
0.0
 40
0.001
  1
COMPOSED
  3

  2
TRADENAME
 70
     0
1001
ACDBATTR
1070
     0
1070
     1
  0
ATTDEF
  5
3932
  8
DEFPOINTS
 10
3542.3110298584751945
 20
198.0433114167938129
 30
0.0
 40
0.001
  1
BATHROOM SINK FAUCET
  3

  2
PRODUCT
 70
     0
1001
ACDBATTR
1070
     0
1070
     1
  0
LINE
  5
A2C7
  8
0
 10
3541.3760035169070761
 20
198.0442815220955026
 30
0.0
 11
3541.3760035169070761
 21
189.0250356337955111
 31
0.0
  0
ARC
  5
A2C8
  8
0
 10
3541.5255970032430923
 20
189.0250947802749124
 30
0.0
 40
0.1495934980281571
 50
180.0226536833322939
 51
270.0049074530144821
  0
ARC
  5
A2C9
  8
0
 10
3541.5255642690590321
 20
189.0421187681783124
 30
0.0
 40
0.1495607562182457
 50
180.0133605948934132
 51
270.0174487862166188
  0
ARC
  5
A2CA
  8
0
 10
3542.3208854066569984
 20
198.0429389586481079
 30
0.0
 40
0.944882843560055
 50
0.0814103522716585
 51
179.9185896477283109
  0
LINE
  5
A2CB
  8
0
 10
3543.2657672964069207
 20
198.0442815220955026
 30
0.0
 11
3543.2657672964069207
 21
189.0250356337955111
 31
0.0
  0
ARC
  5
A2CC
  8
0
 10
3543.1161738100718139
 20
189.0250947802749124
 30
0.0
 40
0.1495934980281571
 50
269.9950925469855179
 51
359.9773463166675924
  0
ARC
  5
A2CD
  8
0
 10
3543.1162065442558742
 20
189.0421187681781987
 30
0.0
 40
0.1495607562181273
 50
269.98255121375729
 51
359.9866394040317914
  0
LINE
  5
A2CE
  8
0
 10
3541.525609816107135
 20
188.8755012827955113
 30
0.0
 11
3543.1161609972068618
 21
188.8755012827955113
 31
0.0
  0
LINE
  5
A2CF
  8
0
 10
3543.1161609972068618
 20
188.8925580188954996
 30
0.0
 11
3541.525609816107135
 21
188.8925580188954996
 31
0.0
  0
ARC
  5
A2D1
  8
0
 10
3542.3208854066569984
 20
198.0429482228063875
 30
0.0
 40
1.25984251965
 50
318.5903778915919133
 51
221.4096221084082003
  0
LINE
  5
A2D2
  8
0
 10
3533.2263972176569951
 20
198.3383252852871976
 30
0.0
 11
3533.2263972176569951
 21
197.7475711604251956
 31
0.0
  0
CIRCLE
  5
A2D3
  8
0
 10
3534.3287594224570967
 20
198.0429482228063875
 30
0.0
 40
1.0826771654
  0
LINE
  5
A2D4
  8
0
 10
3534.0333823598080016
 20
199.1453104276064039
 30
0.0
 11
3534.6241364851071012
 21
199.1453104276064039
 31
0.0
  0
LINE
  5
A2D5
  8
0
 10
3534.0333823598080016
 20
196.9405860181063872
 30
0.0
 11
3534.6241364851071012
 21
196.9405860181063872
 31
0.0
  0
LINE
  5
A2D6
  8
0
 10
3533.5217742801769418
 20
197.2359630806815005
 30
0.0
 11
3533.2263972176569951
 21
197.7475711604251956
 31
0.0
  0
LINE
  5
A2D7
  8
0
 10
3533.5217742801769418
 20
197.2359630806815005
 30
0.0
 11
3534.0333823598080016
 21
196.9405860181063872
 31
0.0
  0
LINE
  5
A2D8
  8
0
 10
3533.5217742801769418
 20
198.8499333650314895
 30
0.0
 11
3533.2263972176569951
 21
198.3383252852871976
 31
0.0
  0
LINE
  5
A2D9
  8
0
 10
3533.5217742801769418
 20
198.8499333650314895
 30
0.0
 11
3534.0333823598080016
 21
199.1453104276064039
 31
0.0
  0
LINE
  5
A2DA
  8
0
 10
3535.4311216272571983
 20
198.3383252852871976
 30
0.0
 11
3535.4311216272571983
 21
197.7475711604251956
 31
0.0
  0
LINE
  5
A2DB
  8
0
 10
3535.135744564738161
 20
197.2359630806815005
 30
0.0
 11
3535.4311216272571983
 21
197.7475711604251956
 31
0.0
  0
LINE
  5
A2DC
  8
0
 10
3535.135744564738161
 20
197.2359630806815005
 30
0.0
 11
3534.6241364851071012
 21
196.9405860181063872
 31
0.0
  0
LINE
  5
A2DD
  8
0
 10
3535.135744564738161
 20
198.8499333650314895
 30
0.0
 11
3535.4311216272571983
 21
198.3383252852871976
 31
0.0
  0
LINE
  5
A2DE
  8
0
 10
3535.135744564738161
 20
198.8499333650314895
 30
0.0
 11
3534.6241364851071012
 21
199.1453104276064039
 31
0.0
  0
LINE
  5
A2DF
  8
0
 10
3551.4153735956570017
 20
198.3383252852871976
 30
0.0
 11
3551.4153735956570017
 21
197.7475711604251956
 31
0.0
  0
CIRCLE
  5
A2E0
  8
0
 10
3550.3130113908578096
 20
198.0429482228063875
 30
0.0
 40
1.0826771654
  0
LINE
  5
A2E1
  8
0
 10
3550.6083884535069046
 20
199.1453104276064039
 30
0.0
 11
3550.0176343282078051
 21
199.1453104276064039
 31
0.0
  0
LINE
  5
A2E2
  8
0
 10
3550.6083884535069046
 20
196.9405860181063872
 30
0.0
 11
3550.0176343282078051
 21
196.9405860181063872
 31
0.0
  0
LINE
  5
A2E3
  8
0
 10
3551.1199965331379644
 20
197.2359630806815005
 30
0.0
 11
3551.4153735956570017
 21
197.7475711604251956
 31
0.0
  0
LINE
  5
A2E4
  8
0
 10
3551.1199965331379644
 20
197.2359630806815005
 30
0.0
 11
3550.6083884535069046
 21
196.9405860181063872
 31
0.0
  0
LINE
  5
A2E5
  8
0
 10
3551.1199965331379644
 20
198.8499333650314895
 30
0.0
 11
3551.4153735956570017
 21
198.3383252852871976
 31
0.0
  0
LINE
  5
A2E6
  8
0
 10
3551.1199965331379644
 20
198.8499333650314895
 30
0.0
 11
3550.6083884535069046
 21
199.1453104276064039
 31
0.0
  0
LINE
  5
A2E7
  8
0
 10
3549.2106491860581627
 20
198.3383252852871976
 30
0.0
 11
3549.2106491860581627
 21
197.7475711604251956
 31
0.0
  0
LINE
  5
A2E8
  8
0
 10
3549.5060262485772
 20
197.2359630806815005
 30
0.0
 11
3549.2106491860581627
 21
197.7475711604251956
 31
0.0
  0
LINE
  5
A2E9
  8
0
 10
3549.5060262485772
 20
197.2359630806815005
 30
0.0
 11
3550.0176343282078051
 21
196.9405860181063872
 31
0.0
  0
LINE
  5
A2EA
  8
0
 10
3549.5060262485772
 20
198.8499333650314895
 30
0.0
 11
3549.2106491860581627
 21
198.3383252852871976
 31
0.0
  0
LINE
  5
A2EB
  8
0
 10
3549.5060262485772
 20
198.8499333650314895
 30
0.0
 11
3550.0176343282078051
 21
199.1453104276064039
 31
0.0
  0
ENDSEC
  0
EOF
