  0
SECTION
  2
HEADER
  9
$ACADVER
  1
AC1009
  9
$INSBASE
 10
3561.3784734636901703
 20
200.0379418941294034
 30
0.0
  9
$EXTMIN
 10
3552.2110159834401202
 20
200.0329803444896015
 30
0.0
  9
$EXTMAX
 10
3562.6383159834399521
 20
206.5313954578294044
 30
0.0
  9
$LIMMIN
 10
0.0
 20
0.0
  9
$LIMMAX
 10
11.6929133858000007
 20
8.2677165353999982
  9
$ORTHOMODE
 70
     0
  9
$REGENMODE
 70
     1
  9
$FILLMODE
 70
     1
  9
$QTEXTMODE
 70
     0
  9
$MIRRTEXT
 70
     0
  9
$DRAGMODE
 70
     2
  9
$LTSCALE
 40
0.6431102362
  9
$OSMODE
 70
  3839
  9
$ATTMODE
 70
     1
  9
$TEXTSIZE
 40
0.2
  9
$TRACEWID
 40
0.05
  9
$TEXTSTYLE
  7
STANDARD
  9
$CLAYER
  8
0
  9
$CELTYPE
  6
BYLAYER
  9
$CECOLOR
 62
     1
  9
$DIMSCALE
 40
1.0
  9
$DIMASZ
 40
0.1875
  9
$DIMEXO
 40
0.0625
  9
$DIMDLI
 40
0.4443307087
  9
$DIMRND
 40
0.0
  9
$DIMDLE
 40
0.0
  9
$DIMEXE
 40
0.125
  9
$DIMTP
 40
0.01
  9
$DIMTM
 40
0.01
  9
$DIMTXT
 40
2.0
  9
$DIMCEN
 40
0.1052362205
  9
$DIMTSZ
 40
0.0
  9
$DIMTOL
 70
     1
  9
$DIMLIM
 70
     0
  9
$DIMTIH
 70
     1
  9
$DIMTOH
 70
     1
  9
$DIMSE1
 70
     0
  9
$DIMSE2
 70
     0
  9
$DIMTAD
 70
     0
  9
$DIMZIN
 70
     0
  9
$DIMBLK
  1

  9
$DIMASO
 70
     1
  9
$DIMSHO
 70
     1
  9
$DIMPOST
  1
\X
  9
$DIMAPOST
  1

  9
$DIMALT
 70
     1
  9
$DIMALTD
 70
     2
  9
$DIMALTF
 40
25.3999999999999986
  9
$DIMLFAC
 40
1.0
  9
$DIMTOFL
 70
     0
  9
$DIMTVP
 40
0.0
  9
$DIMTIX
 70
     0
  9
$DIMSOXD
 70
     0
  9
$DIMSAH
 70
     0
  9
$DIMBLK1
  1

  9
$DIMBLK2
  1

  9
$DIMSTYLE
  2
STANDARD
  9
$DIMCLRD
 70
     0
  9
$DIMCLRE
 70
     0
  9
$DIMCLRT
 70
     0
  9
$DIMTFAC
 40
1.0
  9
$DIMGAP
 40
0.09
  9
$LUNITS
 70
     2
  9
$LUPREC
 70
     4
  9
$SKETCHINC
 40
0.1
  9
$FILLETRAD
 40
0.0
  9
$AUNITS
 70
     0
  9
$AUPREC
 70
     0
  9
$MENU
  1
.
  9
$ELEVATION
 40
0.0
  9
$PELEVATION
 40
0.0
  9
$THICKNESS
 40
0.0
  9
$LIMCHECK
 70
     0
  9
$BLIPMODE
 70
     0
  9
$CHAMFERA
 40
0.0
  9
$CHAMFERB
 40
0.0
  9
$SKPOLY
 70
     0
  9
$TDCREATE
 40
2458060.468368056230247
  9
$TDUPDATE
 40
2459037.9490393521264195
  9
$TDINDWG
 40
0.7360140046
  9
$TDUSRTIMER
 40
0.7360140046
  9
$USRTIMER
 70
     1
  9
$ANGBASE
 50
0.0
  9
$ANGDIR
 70
     0
  9
$PDMODE
 70
     0
  9
$PDSIZE
 40
0.3125
  9
$PLINEWID
 40
0.0
  9
$COORDS
 70
     1
  9
$SPLFRAME
 70
     0
  9
$SPLINETYPE
 70
     6
  9
$SPLINESEGS
 70
     8
  9
$ATTDIA
 70
     1
  9
$ATTREQ
 70
     1
  9
$HANDLING
 70
     1
  9
$HANDSEED
  5
A5E2
  9
$SURFTAB1
 70
     6
  9
$SURFTAB2
 70
     6
  9
$SURFTYPE
 70
     6
  9
$SURFU
 70
     6
  9
$SURFV
 70
     6
  9
$UCSNAME
  2

  9
$UCSORG
 10
0.0
 20
0.0
 30
0.0
  9
$UCSXDIR
 10
1.0
 20
0.0
 30
0.0
  9
$UCSYDIR
 10
0.0
 20
1.0
 30
0.0
  9
$PUCSNAME
  2

  9
$PUCSORG
 10
0.0
 20
0.0
 30
0.0
  9
$PUCSXDIR
 10
1.0
 20
0.0
 30
0.0
  9
$PUCSYDIR
 10
0.0
 20
1.0
 30
0.0
  9
$USERI1
 70
     0
  9
$USERI2
 70
     0
  9
$USERI3
 70
     0
  9
$USERI4
 70
     0
  9
$USERI5
 70
     0
  9
$USERR1
 40
0.0
  9
$USERR2
 40
0.0
  9
$USERR3
 40
0.0
  9
$USERR4
 40
0.0
  9
$USERR5
 40
0.0
  9
$WORLDVIEW
 70
     1
  9
$SHADEDGE
 70
     3
  9
$SHADEDIF
 70
    70
  9
$TILEMODE
 70
     1
  9
$MAXACTVP
 70
    64
  9
$PLIMCHECK
 70
     0
  9
$PEXTMIN
 10
1.0000000000000000E+20
 20
1.0000000000000000E+20
 30
1.0000000000000000E+20
  9
$PEXTMAX
 10
-1.0000000000000000E+20
 20
-1.0000000000000000E+20
 30
-1.0000000000000000E+20
  9
$PLIMMIN
 10
0.0
 20
0.0
  9
$PLIMMAX
 10
12.0
 20
9.0
  9
$UNITMODE
 70
     0
  9
$VISRETAIN
 70
     1
  9
$PLINEGEN
 70
     0
  9
$PSLTSCALE
 70
     1
  0
ENDSEC
  0
SECTION
  2
TABLES
  0
TABLE
  2
VPORT
 70
     1
  0
VPORT
  2
*ACTIVE
 70
     0
 10
0.0
 20
0.0
 11
1.0
 21
1.0
 12
0.0
 22
0.0
 13
0.0
 23
0.0
 14
1.0
 24
1.0
 15
0.0
 25
0.0
 16
0.0
 26
0.0
 36
51.0086604171186195
 17
3557.4246826171870453
 27
203.2821914661901133
 37
0.0
 40
12.28666123247136
 41
3.314341846758349
 42
50.0
 43
0.0
 44
0.0
 50
0.0
 51
0.0
 71
     0
 72
   100
 73
     1
 74
     1
 75
     0
 76
     0
 77
     0
 78
     0
  0
ENDTAB
  0
TABLE
  2
LTYPE
 70
     2
  0
LTYPE
  2
CONTINUOUS
 70
     0
  3
Solid line
 72
    65
 73
     0
 40
0.0
  0
LTYPE
  2
PHANTOM2
 70
     0
  3
___ _ _ ___ _ _ ___ _ _ ___ _ _
 72
    65
 73
     6
 40
1.25
 49
0.625
 49
-0.125
 49
0.125
 49
-0.125
 49
0.125
 49
-0.125
  0
ENDTAB
  0
TABLE
  2
LAYER
 70
     2
  0
LAYER
  2
0
 70
     0
 62
   255
  6
CONTINUOUS
  0
LAYER
  2
DEFPOINTS
 70
     0
 62
     7
  6
CONTINUOUS
  0
ENDTAB
  0
TABLE
  2
STYLE
 70
     1
  0
STYLE
  2
STANDARD
 70
     0
 40
0.0
 41
0.8
 50
0.0
 71
     0
 42
0.2
  3
txt
  4

  0
ENDTAB
  0
TABLE
  2
VIEW
 70
     0
  0
ENDTAB
  0
TABLE
  2
UCS
 70
     0
  0
ENDTAB
  0
TABLE
  2
APPID
 70
     9
  0
APPID
  2
ACAD
 70
     0
  0
APPID
  2
ACAD_MLEADERVER
 70
     0
  0
APPID
  2
ACAD_EXEMPT_FROM_CAD_STANDARDS
 70
     0
  0
APPID
  2
ACAD_NAV_VCDISPLAY
 70
     0
  0
APPID
  2
ACAECLAYERSTANDARD
 70
     0
  0
APPID
  2
ACCMTRANSPARENCY
 70
     0
  0
APPID
  2
ACAD_DSTYLE_DIMJAG
 70
     0
  0
APPID
  2
ACAD_DSTYLE_DIMTALN
 70
     0
  0
APPID
  2
ACDBATTR
 70
     0
  0
ENDTAB
  0
TABLE
  2
DIMSTYLE
 70
     1
  0
DIMSTYLE
  2
STANDARD
 70
     0
  3

  4

  5

  6

  7

 40
1.0
 41
0.1875
 42
0.0625
 43
0.38
 44
0.125
 45
0.0
 46
0.0
 47
0.01
 48
0.01
140
0.15625
141
0.09
142
0.0
143
25.3999999999999986
144
1.0
145
0.0
146
1.0
147
0.09
 71
     1
 72
     0
 73
     1
 74
     1
 75
     0
 76
     0
 77
     0
 78
     4
170
     0
171
     2
172
     0
173
     0
174
     0
175
     0
176
     0
177
     0
178
     0
  0
ENDTAB
  0
ENDSEC
  0
SECTION
  2
BLOCKS
  0
BLOCK
  8
0
  2
$MODEL_SPACE
 70
     0
 10
0.0
 20
0.0
 30
0.0
  3
$MODEL_SPACE
  1

  0
ENDBLK
  5
21
  8
0
  0
BLOCK
 67
     1
  8
0
  2
$PAPER_SPACE
 70
     0
 10
0.0
 20
0.0
 30
0.0
  3
$PAPER_SPACE
  1

  0
ENDBLK
  5
1D
 67
     1
  8
0
  0
BLOCK
  8
0
  2
_FILLED
 70
     0
 10
0.0
 20
0.0
 30
0.0
  3
_FILLED
  1

  0
SOLID
  5
6F59
  8
0
  6
BYBLOCK
 62
     0
 10
0.0
 20
0.0
 30
0.0
 11
-1.0
 21
0.1666666667
 31
0.0
 12
-1.0
 22
-0.1666666667
 32
0.0
 13
-1.0
 23
-0.1666666667
 33
0.0
  0
ENDBLK
  5
6F5A
  8
0
  6
BYBLOCK
 62
     0
  0
ENDSEC
  0
SECTION
  2
ENTITIES
  0
ATTDEF
  5
3930
  8
DEFPOINTS
 10
3561.3668896297717765
 20
200.0363136778229887
 30
0.0
 40
0.001
  1
K-73081T-9ACH
  3

  2
MODELNUMBER
 70
     0
1001
ACDBATTR
1070
     0
1070
     1
  0
ATTDEF
  5
3931
  8
DEFPOINTS
 10
3561.3668896297717765
 20
200.0346470111562951
 30
0.0
 40
0.001
  1
COMPOSED
  3

  2
TRADENAME
 70
     0
1001
ACDBATTR
1070
     0
1070
     1
  0
ATTDEF
  5
3932
  8
DEFPOINTS
 10
3561.3668896297717765
 20
200.0329803444896015
 30
0.0
 40
0.001
  1
BATHROOM SINK FAUCET
  3

  2
PRODUCT
 70
     0
1001
ACDBATTR
1070
     0
1070
     1
  0
LINE
  5
A3D1
  8
0
 10
3562.2938227823401576
 20
206.181041446929413
 30
0.0
 11
3552.2604468228400947
 21
206.5313954578294044
 31
0.0
  0
ARC
  5
A3D2
  8
0
 10
3552.2604468228400947
 20
206.4998993948294128
 30
0.0
 40
0.0314960630000023
 50
90.0
 51
178.000000088310486
  0
LINE
  5
A3D3
  8
0
 10
3552.2289699463890429
 20
206.50099859152769
 30
0.0
 11
3552.2110159834401202
 21
206.0131070067438941
 31
0.0
  0
ARC
  5
A3D4
  8
0
 10
3552.2441375032908581
 20
206.0136057630255948
 30
0.0
 40
0.0331252748683591
 50
180.8627161558059129
 51
266.83754991409279
  0
LINE
  5
A3D5
  8
0
 10
3552.2423100764390256
 20
205.9805309335293941
 30
0.0
 11
3562.2902747886341785
 21
205.6296498990058126
 31
0.0
  0
LINE
  5
A3D6
  8
0
 10
3553.54851778284592
 20
205.9349171166695953
 30
0.0
 11
3553.5483271755419992
 21
205.9270887455485877
 31
0.0
  0
LINE
  5
A3D7
  8
0
 10
3553.5483271755419992
 20
205.9270887455485877
 30
0.0
 11
3552.6827954086511454
 21
205.9573137807772127
 31
0.0
  0
LINE
  5
A3D8
  8
0
 10
3552.6827954086511454
 20
205.9573137807772127
 30
0.0
 11
3552.6827916416668813
 21
205.9651489652958105
 31
0.0
  0
ARC
  5
A3D9
  8
0
 10
3545.0626608249858691
 20
203.0517917962079082
 30
0.0
 40
8.2157089065038829
 50
20.4557380702704386
 51
20.6939462705365216
  0
LINE
  5
A3DA
  8
0
 10
3552.7603072618780971
 20
205.9230479967239944
 30
0.0
 11
3553.4685367933770976
 21
205.8983160764504987
 31
0.0
  0
ARC
  5
A3DB
  8
0
 10
3552.8769922483988921
 20
206.1779915728108108
 30
0.0
 40
0.6543266248269953
 50
334.6957511092193727
 51
337.6709146601685916
  0
ARC
  5
A3DC
  8
0
 10
3553.2503527184258019
 20
205.965137103217387
 30
0.0
 40
0.1979783342864063
 50
316.1828675324209144
 51
340.6114610277966221
  0
LINE
  5
A3DD
  8
0
 10
3553.3932046255131354
 20
205.8280650291524978
 30
0.0
 11
3552.830555459045172
 21
205.8477131708887953
 31
0.0
  0
ARC
  5
A3DE
  8
0
 10
3552.9964840963398274
 20
205.983598702154211
 30
0.0
 40
0.2144695556061273
 50
196.6984619366905918
 51
219.3154047156581896
  0
ARC
  5
A3DF
  8
0
 10
3562.2927280756398432
 20
206.1495626148293923
 30
0.0
 40
0.0314961745999984
 50
359.9999999999968168
 51
87.9980049466107488
  0
LINE
  5
A3E0
  8
0
 10
3562.3242242502401496
 20
206.1495626148293923
 30
0.0
 11
3562.3229678027209957
 21
205.6610405768556973
 31
0.0
  0
ARC
  5
A3E1
  8
0
 10
3562.2913095733488262
 20
205.6612922128948071
 30
0.0
 40
0.0316592294230256
 50
268.1269487745028073
 51
359.5445929958794977
  0
ARC
  5
A3E2
  8
0
 10
3562.291770650871058
 20
205.5981006301593084
 30
0.0
 40
0.0315847109940767
 50
359.9581510555744899
 51
92.7145622851786158
  0
LINE
  5
A3E3
  8
0
 10
3562.3233553534400926
 20
205.598077560629406
 30
0.0
 11
3562.3233553534400926
 21
202.6757371697293877
 31
0.0
  0
ARC
  5
A3E4
  8
0
 10
3560.4649979778710076
 20
205.661962466677295
 30
0.0
 40
0.0314065060768055
 50
87.9714682189198527
 51
180.1461293118709079
  0
LINE
  5
A3E5
  8
0
 10
3560.4335915739388838
 20
205.6618823664294098
 30
0.0
 11
3560.4335915739388838
 21
202.6757371697293877
 31
0.0
  0
LINE
  5
A3E6
  8
0
 10
3560.4335915739397933
 20
200.4710127602293994
 30
0.0
 11
3560.4335915739397933
 21
200.352902524029389
 31
0.0
  0
LINE
  5
A3E7
  8
0
 10
3560.1186309440390687
 20
200.0694379570294075
 30
0.0
 11
3560.1186309440390687
 21
200.203296224829387
 31
0.0
  0
ARC
  5
A3E8
  8
0
 10
3560.1501270070398277
 20
200.203296224829387
 30
0.0
 40
0.0314960630000059
 50
90.0000000000521254
 51
179.9999999999951115
  0
ARC
  5
A3E9
  8
0
 10
3563.2475937330409579
 20
200.4906977996294017
 30
0.0
 40
0.9449691316805161
 50
181.1936382131623873
 51
188.3847588991733062
  0
LINE
  5
A3EA
  8
0
 10
3562.6068199204401026
 20
200.2347922878294071
 30
0.0
 11
3562.4611506289397767
 21
200.2347922878294071
 31
0.0
  0
LINE
  5
A3EB
  8
0
 10
3560.295796298139976
 20
200.2347922878294071
 30
0.0
 11
3560.1501270070398277
 21
200.2347922878294071
 31
0.0
  0
LINE
  5
A3EC
  8
0
 10
3562.6383159834390426
 20
200.0379418941294034
 30
0.0
 11
3560.1186309440390687
 21
200.0379418941294034
 31
0.0
  0
LINE
  5
A3ED
  8
0
 10
3562.6383159834399521
 20
200.0379418941294034
 30
0.0
 11
3562.6383159834399521
 21
200.203296224829387
 31
0.0
  0
ARC
  5
A3EE
  8
0
 10
3562.6068199204401026
 20
200.203296224829387
 30
0.0
 40
0.0314960630000059
 50
0.0000000000048853
 51
89.9999999999478888
  0
LINE
  5
A3EF
  8
0
 10
3560.1186309440390687
 20
200.0694379570294075
 30
0.0
 11
3560.1186309440399782
 21
200.0379418941294034
 31
0.0
  0
LINE
  5
A3F1
  8
0
 10
3562.4808356683402053
 20
202.6560521303294138
 30
0.0
 11
3562.4808356683402053
 21
200.4906977996294017
 31
0.0
  0
LINE
  5
A3F2
  8
0
 10
3562.4296545659399271
 20
200.352902524029389
 30
0.0
 11
3560.3272923612398699
 21
200.352902524029389
 31
0.0
  0
LINE
  5
A3F3
  8
0
 10
3562.4611506289397767
 20
200.4710127602293994
 30
0.0
 11
3560.2957962982400204
 21
200.4710127602293994
 31
0.0
  0
LINE
  5
A3F4
  8
0
 10
3562.4611506289397767
 20
202.6757371697293877
 30
0.0
 11
3560.2957962982400204
 21
202.6757371697293877
 31
0.0
  0
LINE
  5
A3F5
  8
0
 10
3562.4611506289397767
 20
200.3214064610293974
 30
0.0
 11
3562.4611506289397767
 21
200.069437957129395
 31
0.0
  0
LINE
  5
A3F6
  8
0
 10
3562.1781499189401075
 20
200.5274298334294087
 30
0.0
 11
3562.1781499189401075
 21
202.6193200964312098
 31
0.0
  0
LINE
  5
A3F7
  8
0
 10
3561.6654111814400494
 20
200.5274298334294087
 30
0.0
 11
3561.6654111814400494
 21
202.6193200964293908
 31
0.0
  0
LINE
  5
A3F8
  8
0
 10
3562.4611506289397767
 20
202.6757371697293877
 30
0.0
 11
3562.4808356683402053
 21
202.6560521304294014
 31
0.0
  0
LINE
  5
A3F9
  8
0
 10
3562.4808356683402053
 20
200.4906977996294017
 30
0.0
 11
3562.4611506289397767
 21
200.4710127602293994
 31
0.0
  0
ARC
  5
A3FA
  8
0
 10
3562.4293810729118377
 20
200.3211329680017059
 30
0.0
 40
0.03177073320888
 50
0.4932271989712005
 51
89.5067728010222368
  0
ARC
  5
A3FB
  8
0
 10
3562.4296545659399271
 20
200.069437957129395
 30
0.0
 40
0.0314960629999994
 50
270.0
 51
0.0
  0
ARC
  5
A3FC
  8
0
 10
3562.3279953145961372
 20
200.8143449201245119
 30
0.0
 40
0.3236879818167029
 50
242.4235592502737973
 51
298.1761719439414264
  0
ARC
  5
A3FD
  8
0
 10
3561.9217805501898511
 20
201.4046794667306983
 30
0.0
 40
0.9139431997453371
 50
253.7094092948881894
 51
286.2905907051385839
  0
ARC
  5
A3FE
  8
0
 10
3562.327992484420065
 20
202.3318642486144086
 30
0.0
 40
0.3241660976608236
 50
61.8685177975266072
 51
117.5317510082755064
  0
ARC
  5
A3FF
  8
0
 10
3561.9217805501898511
 20
201.7420704638387008
 30
0.0
 40
0.9139431990631663
 50
73.7094092823487443
 51
106.2905907176239992
  0
ARC
  5
A400
  8
0
 10
3561.8233613115571643
 20
200.3843910135101964
 30
0.0
 40
0.0315020221277707
 50
179.9862253068756104
 51
268.320518060891402
  0
LINE
  5
A401
  8
0
 10
3561.7918592903401986
 20
200.3843985870294091
 30
0.0
 11
3561.7918592903401986
 21
200.4710127602293994
 31
0.0
  0
LINE
  5
A402
  8
0
 10
3560.2761112587390926
 20
202.6560521303294138
 30
0.0
 11
3560.2761112587390926
 21
200.4906977996294017
 31
0.0
  0
LINE
  5
A403
  8
0
 10
3560.295796298139976
 20
200.3214064610293974
 30
0.0
 11
3560.295796298139976
 21
200.069437957129395
 31
0.0
  0
LINE
  5
A404
  8
0
 10
3560.5787970081391904
 20
200.5274298334294087
 30
0.0
 11
3560.5787970081391904
 21
202.6193200964312098
 31
0.0
  0
LINE
  5
A405
  8
0
 10
3561.091535745640158
 20
200.5274298334294087
 30
0.0
 11
3561.091535745640158
 21
202.6193200964293908
 31
0.0
  0
LINE
  5
A406
  8
0
 10
3560.295796298139976
 20
202.6757371697293877
 30
0.0
 11
3560.2761112587390926
 21
202.6560521304294014
 31
0.0
  0
LINE
  5
A407
  8
0
 10
3560.2761112587390926
 20
200.4906977996294017
 30
0.0
 11
3560.295796298139976
 21
200.4710127602293994
 31
0.0
  0
ARC
  5
A408
  8
0
 10
3560.3275658541670055
 20
200.3211329680017059
 30
0.0
 40
0.03177073320888
 50
90.4932271989777632
 51
179.5067728010288022
  0
ARC
  5
A409
  8
0
 10
3560.327292361138916
 20
200.069437957129395
 30
0.0
 40
0.0314960629999994
 50
180.0
 51
270.0
  0
ARC
  5
A40A
  8
0
 10
3560.4289516124840702
 20
200.8143449201245119
 30
0.0
 40
0.3236879818167029
 50
241.8238280560576925
 51
297.5764407497262027
  0
ARC
  5
A40B
  8
0
 10
3560.8351663768899016
 20
201.4046794667306983
 30
0.0
 40
0.9139431997453371
 50
253.7094092948613024
 51
286.2905907051118106
  0
ARC
  5
A40C
  8
0
 10
3560.4289544426587781
 20
202.3318642486144086
 30
0.0
 40
0.3241660976608236
 50
62.4682489917245221
 51
118.131482202473407
  0
ARC
  5
A40D
  8
0
 10
3560.8351663768899016
 20
201.7420704638387008
 30
0.0
 40
0.9139431990631663
 50
73.7094092823760292
 51
106.2905907176512983
  0
ARC
  5
A40E
  8
0
 10
3560.9335856155221336
 20
200.3843910135101964
 30
0.0
 40
0.0315020221277707
 50
271.679481939108598
 51
0.0137746931243221
  0
LINE
  5
A40F
  8
0
 10
3560.9650876367400087
 20
200.3843985870294091
 30
0.0
 11
3560.9650876367400087
 21
200.4710127602293994
 31
0.0
  0
ARC
  5
A410
  8
0
 10
3561.3784734635401037
 20
201.6297920397744008
 30
0.0
 40
1.139094240145009
 50
255.410033373018905
 51
284.589966626981095
  0
ARC
  5
A411
  8
0
 10
3561.3784734635401037
 20
201.5169578900843987
 30
0.0
 40
1.139094240145009
 50
75.4100333730189192
 51
104.589966626981095
  0
ENDSEC
  0
EOF
