  0
SECTION
  2
HEADER
  9
$ACADVER
  1
AC1009
  9
$INSBASE
 10
3523.9670809901431312
 20
216.8015124384025114
 30
0.0
  9
$EXTMIN
 10
3514.8725928011431279
 20
216.7969258949530058
 30
0.0
  9
$EXTMAX
 10
3533.0615691791431345
 20
223.2949660021025124
 30
0.0
  9
$LIMMIN
 10
0.0
 20
0.0
  9
$LIMMAX
 10
11.6929133858000007
 20
8.2677165353999982
  9
$ORTHOMODE
 70
     0
  9
$REGENMODE
 70
     1
  9
$FILLMODE
 70
     1
  9
$QTEXTMODE
 70
     0
  9
$MIRRTEXT
 70
     0
  9
$DRAGMODE
 70
     2
  9
$LTSCALE
 40
0.6431102362
  9
$OSMODE
 70
  3839
  9
$ATTMODE
 70
     1
  9
$TEXTSIZE
 40
0.2
  9
$TRACEWID
 40
0.05
  9
$TEXTSTYLE
  7
STANDARD
  9
$CLAYER
  8
0
  9
$CELTYPE
  6
BYLAYER
  9
$CECOLOR
 62
   256
  9
$DIMSCALE
 40
1.0
  9
$DIMASZ
 40
0.1875
  9
$DIMEXO
 40
0.0625
  9
$DIMDLI
 40
0.4443307087
  9
$DIMRND
 40
0.0
  9
$DIMDLE
 40
0.0
  9
$DIMEXE
 40
0.125
  9
$DIMTP
 40
0.01
  9
$DIMTM
 40
0.01
  9
$DIMTXT
 40
2.0
  9
$DIMCEN
 40
0.1052362205
  9
$DIMTSZ
 40
0.0
  9
$DIMTOL
 70
     1
  9
$DIMLIM
 70
     0
  9
$DIMTIH
 70
     1
  9
$DIMTOH
 70
     1
  9
$DIMSE1
 70
     0
  9
$DIMSE2
 70
     0
  9
$DIMTAD
 70
     0
  9
$DIMZIN
 70
     0
  9
$DIMBLK
  1

  9
$DIMASO
 70
     1
  9
$DIMSHO
 70
     1
  9
$DIMPOST
  1
\X
  9
$DIMAPOST
  1

  9
$DIMALT
 70
     1
  9
$DIMALTD
 70
     2
  9
$DIMALTF
 40
25.3999999999999986
  9
$DIMLFAC
 40
1.0
  9
$DIMTOFL
 70
     0
  9
$DIMTVP
 40
0.0
  9
$DIMTIX
 70
     0
  9
$DIMSOXD
 70
     0
  9
$DIMSAH
 70
     0
  9
$DIMBLK1
  1

  9
$DIMBLK2
  1

  9
$DIMSTYLE
  2
STANDARD
  9
$DIMCLRD
 70
     0
  9
$DIMCLRE
 70
     0
  9
$DIMCLRT
 70
     0
  9
$DIMTFAC
 40
1.0
  9
$DIMGAP
 40
0.09
  9
$LUNITS
 70
     2
  9
$LUPREC
 70
     4
  9
$SKETCHINC
 40
0.1
  9
$FILLETRAD
 40
0.0
  9
$AUNITS
 70
     0
  9
$AUPREC
 70
     0
  9
$MENU
  1
.
  9
$ELEVATION
 40
0.0
  9
$PELEVATION
 40
0.0
  9
$THICKNESS
 40
0.0
  9
$LIMCHECK
 70
     0
  9
$BLIPMODE
 70
     0
  9
$CHAMFERA
 40
0.0
  9
$CHAMFERB
 40
0.0
  9
$SKPOLY
 70
     0
  9
$TDCREATE
 40
2458060.468368056230247
  9
$TDUPDATE
 40
2459037.9486921299248934
  9
$TDINDWG
 40
0.7386528935
  9
$TDUSRTIMER
 40
0.7386528935
  9
$USRTIMER
 70
     1
  9
$ANGBASE
 50
0.0
  9
$ANGDIR
 70
     0
  9
$PDMODE
 70
     0
  9
$PDSIZE
 40
0.3125
  9
$PLINEWID
 40
0.0
  9
$COORDS
 70
     1
  9
$SPLFRAME
 70
     0
  9
$SPLINETYPE
 70
     6
  9
$SPLINESEGS
 70
     8
  9
$ATTDIA
 70
     1
  9
$ATTREQ
 70
     1
  9
$HANDLING
 70
     1
  9
$HANDSEED
  5
AC20
  9
$SURFTAB1
 70
     6
  9
$SURFTAB2
 70
     6
  9
$SURFTYPE
 70
     6
  9
$SURFU
 70
     6
  9
$SURFV
 70
     6
  9
$UCSNAME
  2

  9
$UCSORG
 10
0.0
 20
0.0
 30
0.0
  9
$UCSXDIR
 10
1.0
 20
0.0
 30
0.0
  9
$UCSYDIR
 10
0.0
 20
1.0
 30
0.0
  9
$PUCSNAME
  2

  9
$PUCSORG
 10
0.0
 20
0.0
 30
0.0
  9
$PUCSXDIR
 10
1.0
 20
0.0
 30
0.0
  9
$PUCSYDIR
 10
0.0
 20
1.0
 30
0.0
  9
$USERI1
 70
     0
  9
$USERI2
 70
     0
  9
$USERI3
 70
     0
  9
$USERI4
 70
     0
  9
$USERI5
 70
     0
  9
$USERR1
 40
0.0
  9
$USERR2
 40
0.0
  9
$USERR3
 40
0.0
  9
$USERR4
 40
0.0
  9
$USERR5
 40
0.0
  9
$WORLDVIEW
 70
     1
  9
$SHADEDGE
 70
     3
  9
$SHADEDIF
 70
    70
  9
$TILEMODE
 70
     1
  9
$MAXACTVP
 70
    64
  9
$PLIMCHECK
 70
     0
  9
$PEXTMIN
 10
1.0000000000000000E+20
 20
1.0000000000000000E+20
 30
1.0000000000000000E+20
  9
$PEXTMAX
 10
-1.0000000000000000E+20
 20
-1.0000000000000000E+20
 30
-1.0000000000000000E+20
  9
$PLIMMIN
 10
0.0
 20
0.0
  9
$PLIMMAX
 10
12.0
 20
9.0
  9
$UNITMODE
 70
     0
  9
$VISRETAIN
 70
     1
  9
$PLINEGEN
 70
     0
  9
$PSLTSCALE
 70
     1
  0
ENDSEC
  0
SECTION
  2
TABLES
  0
TABLE
  2
VPORT
 70
     1
  0
VPORT
  2
*ACTIVE
 70
     0
 10
0.0
 20
0.0
 11
1.0
 21
1.0
 12
0.0
 22
0.0
 13
0.0
 23
0.0
 14
1.0
 24
1.0
 15
0.0
 25
0.0
 16
0.0
 26
0.0
 36
80.1864739886601683
 17
3523.967041015625
 27
220.0459467731600967
 37
0.0
 40
19.3148385640490403
 41
3.314341846758349
 42
50.0
 43
0.0
 44
0.0
 50
0.0
 51
0.0
 71
     0
 72
   100
 73
     1
 74
     1
 75
     0
 76
     0
 77
     0
 78
     0
  0
ENDTAB
  0
TABLE
  2
LTYPE
 70
     2
  0
LTYPE
  2
CONTINUOUS
 70
     0
  3
Solid line
 72
    65
 73
     0
 40
0.0
  0
LTYPE
  2
PHANTOM2
 70
     0
  3
___ _ _ ___ _ _ ___ _ _ ___ _ _
 72
    65
 73
     6
 40
1.25
 49
0.625
 49
-0.125
 49
0.125
 49
-0.125
 49
0.125
 49
-0.125
  0
ENDTAB
  0
TABLE
  2
LAYER
 70
     2
  0
LAYER
  2
0
 70
     0
 62
   255
  6
CONTINUOUS
  0
LAYER
  2
DEFPOINTS
 70
     0
 62
     7
  6
CONTINUOUS
  0
ENDTAB
  0
TABLE
  2
STYLE
 70
     1
  0
STYLE
  2
STANDARD
 70
     0
 40
0.0
 41
0.8
 50
0.0
 71
     0
 42
0.2
  3
txt
  4

  0
ENDTAB
  0
TABLE
  2
VIEW
 70
     0
  0
ENDTAB
  0
TABLE
  2
UCS
 70
     0
  0
ENDTAB
  0
TABLE
  2
APPID
 70
     9
  0
APPID
  2
ACAD
 70
     0
  0
APPID
  2
ACAD_MLEADERVER
 70
     0
  0
APPID
  2
ACAD_EXEMPT_FROM_CAD_STANDARDS
 70
     0
  0
APPID
  2
ACAD_NAV_VCDISPLAY
 70
     0
  0
APPID
  2
ACAECLAYERSTANDARD
 70
     0
  0
APPID
  2
ACCMTRANSPARENCY
 70
     0
  0
APPID
  2
ACAD_DSTYLE_DIMJAG
 70
     0
  0
APPID
  2
ACAD_DSTYLE_DIMTALN
 70
     0
  0
APPID
  2
ACDBATTR
 70
     0
  0
ENDTAB
  0
TABLE
  2
DIMSTYLE
 70
     1
  0
DIMSTYLE
  2
STANDARD
 70
     0
  3

  4

  5

  6

  7

 40
1.0
 41
0.1875
 42
0.0625
 43
0.38
 44
0.125
 45
0.0
 46
0.0
 47
0.01
 48
0.01
140
0.15625
141
0.09
142
0.0
143
25.3999999999999986
144
1.0
145
0.0
146
1.0
147
0.09
 71
     1
 72
     0
 73
     1
 74
     1
 75
     0
 76
     0
 77
     0
 78
     4
170
     0
171
     2
172
     0
173
     0
174
     0
175
     0
176
     0
177
     0
178
     0
  0
ENDTAB
  0
ENDSEC
  0
SECTION
  2
BLOCKS
  0
BLOCK
  8
0
  2
$MODEL_SPACE
 70
     0
 10
0.0
 20
0.0
 30
0.0
  3
$MODEL_SPACE
  1

  0
ENDBLK
  5
21
  8
0
  0
BLOCK
 67
     1
  8
0
  2
$PAPER_SPACE
 70
     0
 10
0.0
 20
0.0
 30
0.0
  3
$PAPER_SPACE
  1

  0
ENDBLK
  5
1D
 67
     1
  8
0
  0
BLOCK
  8
0
  2
_FILLED
 70
     0
 10
0.0
 20
0.0
 30
0.0
  3
_FILLED
  1

  0
SOLID
  5
6F59
  8
0
  6
BYBLOCK
 62
     0
 10
0.0
 20
0.0
 30
0.0
 11
-1.0
 21
0.1666666667
 31
0.0
 12
-1.0
 22
-0.1666666667
 32
0.0
 13
-1.0
 23
-0.1666666667
 33
0.0
  0
ENDBLK
  5
6F5A
  8
0
  6
BYBLOCK
 62
     0
  0
ENDSEC
  0
SECTION
  2
ENTITIES
  0
ATTDEF
  5
3930
  8
DEFPOINTS
 10
3523.9672989673699703
 20
216.8002592282863077
 30
0.0
 40
0.001
  1
K-73081T-9ACH
  3

  2
MODELNUMBER
 70
     0
1001
ACDBATTR
1070
     0
1070
     1
  0
ATTDEF
  5
3931
  8
DEFPOINTS
 10
3523.9672989673699703
 20
216.7985925616196141
 30
0.0
 40
0.001
  1
COMPOSED
  3

  2
TRADENAME
 70
     0
1001
ACDBATTR
1070
     0
1070
     1
  0
ATTDEF
  5
3932
  8
DEFPOINTS
 10
3523.9672989673699703
 20
216.7969258949530058
 30
0.0
 40
0.001
  1
BATHROOM SINK FAUCET
  3

  2
PRODUCT
 70
     0
1001
ACDBATTR
1070
     0
1070
     1
  0
LINE
  5
A89F
  8
0
 10
3523.0221991003932089
 20
222.4565723122024963
 30
0.0
 11
3523.0221991003932089
 21
223.2585450796730981
 31
0.0
  0
ARC
  5
A8A0
  8
0
 10
3523.058829471845911
 20
223.2552794743972129
 30
0.0
 40
0.03677564806443
 50
100.5961609866619
 51
174.9055373093175092
  0
ARC
  5
A8A1
  8
0
 10
3523.2220370382437977
 20
219.5669840477314949
 30
0.0
 40
3.7283203550174679
 50
90.7719690631189877
 51
92.6129579808134338
  0
LINE
  5
A8A2
  8
0
 10
3523.685339128475789
 20
222.6015998697025111
 30
0.0
 11
3523.9670809902931978
 21
222.6015998697025111
 31
0.0
  0
ARC
  5
A8A3
  8
0
 10
3524.0220517090301655
 20
232.9705499286012014
 30
0.0
 40
10.3790599271796307
 50
268.5496983456808948
 51
269.6965423720835133
  0
ARC
  5
A8A4
  8
0
 10
3523.7590990603612227
 20
222.9991263806932125
 30
0.0
 40
0.4043115809522062
 50
259.488469979029901
 51
270.0368938079624854
  0
ARC
  5
A8A5
  8
0
 10
3523.694999255977109
 20
222.5810630738538123
 30
0.0
 40
0.0226953309530195
 50
103.1698488270105969
 51
115.1914223087891003
  0
ARC
  5
A8A6
  8
0
 10
3523.7936340891260443
 20
221.6788926472239041
 30
0.0
 40
0.9300798482528854
 50
91.9822721914429167
 51
96.4081018228254436
  0
LINE
  5
A8A8
  8
0
 10
3523.9631439824938752
 20
222.5944564380025099
 30
0.0
 11
3523.9631439824938752
 21
222.5924638456025093
 31
0.0
  0
ARC
  5
A8A9
  8
0
 10
3523.9664646232881751
 20
229.740291101855405
 30
0.0
 40
7.1478280275820048
 50
269.5311528092541948
 51
270.0049406935689831
  0
LINE
  5
A8AA
  8
0
 10
3523.9079751198869417
 20
222.5927023832819032
 30
0.0
 11
3523.9227590769928611
 21
222.5946279448025109
 31
0.0
  0
LINE
  5
A8AB
  8
0
 10
3523.9227590769928611
 20
222.5946279448025109
 30
0.0
 11
3523.9227590769928611
 21
222.5946279448025109
 31
0.0
  0
LINE
  5
A8AC
  8
0
 10
3523.9227590769928611
 20
222.5946279448025109
 30
0.0
 11
3523.9670809902931978
 21
222.5944397182998955
 31
0.0
  0
ARC
  5
A8AD
  8
0
 10
3523.716582787353218
 20
222.6127032530739029
 30
0.0
 40
0.0133133495568216
 50
236.5122432488446123
 51
267.8012970424881019
  0
LINE
  5
A8AE
  8
0
 10
3523.71607201819279
 20
222.5993997050024973
 30
0.0
 11
3523.7712464973928945
 21
222.5999156576025086
 31
0.0
  0
ARC
  5
A8AF
  8
0
 10
3523.7743392625648085
 20
222.6159155483240966
 30
0.0
 40
0.0162960639269226
 50
241.458902073282502
 51
259.0597029566583274
  0
LINE
  5
A8B0
  8
0
 10
3523.7219134339798075
 20
222.5988853436460886
 30
0.0
 11
3523.7753223878930839
 21
222.5993847864025099
 31
0.0
  0
LINE
  5
A8B1
  8
0
 10
3523.7753223878930839
 20
222.5993847864025099
 30
0.0
 11
3523.7912589259940432
 21
222.5980784456025106
 31
0.0
  0
LINE
  5
A8B2
  8
0
 10
3523.7912589259940432
 20
222.5980784456025106
 30
0.0
 11
3523.7425844360791416
 21
222.5970976919109034
 31
0.0
  0
LINE
  5
A8B3
  8
0
 10
3523.7425844360791416
 20
222.5970976919109034
 30
0.0
 11
3523.7219134339798075
 21
222.5988853436460886
 31
0.0
  0
LINE
  5
A8B4
  8
0
 10
3523.7465925460201106
 20
222.5968052371825934
 30
0.0
 11
3523.7951959338929555
 21
222.5978404625024893
 31
0.0
  0
LINE
  5
A8B5
  8
0
 10
3523.7904291319141521
 20
222.5980617258873906
 30
0.0
 11
3523.8196443010929215
 21
222.596705628602507
 31
0.0
  0
LINE
  5
A8B6
  8
0
 10
3523.8679211497760662
 20
222.5983904663366104
 30
0.0
 11
3523.7792537790928691
 21
222.5952960197024879
 31
0.0
  0
LINE
  5
A8B7
  8
0
 10
3523.7792537790928691
 20
222.5952960197024879
 30
0.0
 11
3523.7465925460201106
 21
222.5968052371825934
 31
0.0
  0
LINE
  5
A8B8
  8
0
 10
3523.7792999350572245
 20
222.5945203809814927
 30
0.0
 11
3523.8307798409941825
 21
222.5963170038025112
 31
0.0
  0
LINE
  5
A8B9
  8
0
 10
3523.8178436292078004
 20
222.5966427860595047
 30
0.0
 11
3523.8701161392928043
 21
222.5953263685024979
 31
0.0
  0
LINE
  5
A8BA
  8
0
 10
3523.8701161392928043
 20
222.5953263685024979
 30
0.0
 11
3523.834134681525029
 21
222.5937105242001905
 31
0.0
  0
LINE
  5
A8BB
  8
0
 10
3523.8347494612930859
 20
222.5937381325420006
 30
0.0
 11
3523.7189600171968777
 21
222.5967901571708865
 31
0.0
  0
LINE
  5
A8BC
  8
0
 10
3523.8329162064410411
 20
222.5932134334476018
 30
0.0
 11
3523.8705372586191515
 21
222.5948974394291895
 31
0.0
  0
LINE
  5
A8BD
  8
0
 10
3523.8705372586191515
 20
222.5948974394291895
 30
0.0
 11
3523.9075476466941836
 21
222.594770191402489
 31
0.0
  0
LINE
  5
A8BE
  8
0
 10
3523.9075476466941836
 20
222.594770191402489
 30
0.0
 11
3523.8927636895928117
 21
222.5928446298024994
 31
0.0
  0
LINE
  5
A8BF
  8
0
 10
3523.8927636895928117
 20
222.5928446298024994
 30
0.0
 11
3523.759359404019051
 21
222.5948148835610141
 31
0.0
  0
ARC
  5
A8C0
  8
0
 10
3523.7945165837568311
 20
222.6781431231949
 30
0.0
 40
0.0799831835016217
 50
253.8275134385633862
 51
271.3308637937552135
  0
LINE
  5
A8C1
  8
0
 10
3523.7958850298609832
 20
222.5981716470404876
 30
0.0
 11
3523.8489696024080331
 21
222.5992424539942931
 31
0.0
  0
ARC
  5
A8C2
  8
0
 10
3523.8460579406150828
 20
222.6653331664720099
 30
0.0
 40
0.0661548187980672
 50
255.363867602268698
 51
275.6788244858295229
  0
LINE
  5
A8C3
  8
0
 10
3523.8352500009928008
 20
222.6013250705024973
 30
0.0
 11
3523.7722388723927907
 21
222.6013250705024973
 31
0.0
  0
LINE
  5
A8C4
  8
0
 10
3523.9398045996940709
 20
222.6013250705024973
 30
0.0
 11
3523.9500332461930157
 21
222.6007067723024875
 31
0.0
  0
LINE
  5
A8C5
  8
0
 10
3523.9500332461930157
 20
222.6007067723024875
 30
0.0
 11
3523.9322369544929643
 21
222.599631027402495
 31
0.0
  0
LINE
  5
A8C6
  8
0
 10
3523.9322369544929643
 20
222.599631027402495
 30
0.0
 11
3523.9042120161930143
 21
222.6013250705024973
 31
0.0
  0
LINE
  5
A8C7
  8
0
 10
3523.9042120161930143
 20
222.6013250705024973
 30
0.0
 11
3523.9398045996940709
 21
222.6013250705024973
 31
0.0
  0
LINE
  5
A8C8
  8
0
 10
3523.8293419691931376
 20
222.6013250705024973
 30
0.0
 11
3523.8982959304930773
 21
222.6013250705024973
 31
0.0
  0
ARC
  5
A8C9
  8
0
 10
3523.9299406127511247
 20
222.8676145489860971
 30
0.0
 40
0.2681631448693593
 50
263.2230011519073969
 51
269.8586206831774916
  0
LINE
  5
A8CA
  8
0
 10
3523.9292789115911546
 20
222.5994522205023998
 30
0.0
 11
3523.8977559467930405
 21
222.5975467297024863
 31
0.0
  0
ARC
  5
A8CB
  8
0
 10
3523.8972781002989905
 20
223.1085557717356949
 30
0.0
 40
0.5110092654512127
 50
262.7786481742560909
 51
270.0535774852561985
  0
LINE
  5
A8CC
  8
0
 10
3523.8730694801929531
 20
222.5955048912024949
 30
0.0
 11
3523.9016210285931265
 21
222.597230766702495
 31
0.0
  0
LINE
  5
A8CD
  8
0
 10
3523.9016210285931265
 20
222.597230766702495
 30
0.0
 11
3523.9670809902931978
 21
222.5966186314934134
 31
0.0
  0
LINE
  5
A8CE
  8
0
 10
3523.9631439824938752
 20
222.596655447602501
 30
0.0
 11
3523.9631439824938752
 21
222.5946625782025023
 31
0.0
  0
LINE
  5
A8CF
  8
0
 10
3523.8730694801929531
 20
222.5955048912024949
 30
0.0
 11
3523.9670809902931978
 21
222.5946257620917947
 31
0.0
  0
LINE
  5
A8D0
  8
0
 10
3523.9670809902931978
 20
222.5968595837439068
 30
0.0
 11
3523.9045750444929581
 21
222.5974093301024936
 31
0.0
  0
LINE
  5
A8D1
  8
0
 10
3523.9045750444929581
 20
222.5974093301024936
 30
0.0
 11
3523.9366890694382164
 21
222.5993049087680049
 31
0.0
  0
LINE
  5
A8D2
  8
0
 10
3523.9280086540620687
 20
222.5993754363531139
 30
0.0
 11
3523.9670809902931978
 21
222.5990579771763009
 31
0.0
  0
LINE
  5
A8D3
  8
0
 10
3523.9670809902931978
 20
222.5992640765771
 30
0.0
 11
3523.9195298517201991
 21
222.5996535661527957
 31
0.0
  0
LINE
  5
A8D4
  8
0
 10
3523.9390560521269435
 20
222.5994936277845966
 30
0.0
 11
3523.9670809902931978
 21
222.6011876708680006
 31
0.0
  0
LINE
  5
A8D5
  8
0
 10
3523.9568523437928889
 20
222.6005693727024948
 30
0.0
 11
3523.9670809902931978
 21
222.6005002811747033
 31
0.0
  0
LINE
  5
A8D6
  8
0
 10
3523.9631439824938752
 20
222.6087433014023986
 30
0.0
 11
3523.9631439824938752
 21
222.6107358938023992
 31
0.0
  0
ARC
  5
A8D7
  8
0
 10
3523.9664646232799896
 20
215.4629086375495035
 30
0.0
 40
7.1478280275820048
 50
89.9950593063527862
 51
90.4688471906676028
  0
LINE
  5
A8D8
  8
0
 10
3523.9079751198869417
 20
222.6104973561230906
 30
0.0
 11
3523.9227590769928611
 21
222.6085717946023976
 31
0.0
  0
LINE
  5
A8D9
  8
0
 10
3523.9227590769928611
 20
222.6085717946023976
 30
0.0
 11
3523.9227590769928611
 21
222.6085717946023976
 31
0.0
  0
LINE
  5
A8DA
  8
0
 10
3523.9227590769928611
 20
222.6085717946023976
 30
0.0
 11
3523.9670809902931978
 21
222.608760021105013
 31
0.0
  0
ARC
  5
A8DB
  8
0
 10
3523.716582787353218
 20
222.5904964863312898
 30
0.0
 40
0.0133133495568216
 50
92.1987029574337384
 51
123.4877567510931016
  0
LINE
  5
A8DC
  8
0
 10
3523.71607201819279
 20
222.6038000344026102
 30
0.0
 11
3523.7712464973928945
 21
222.6032840818025988
 31
0.0
  0
ARC
  5
A8DD
  8
0
 10
3523.7743392625648085
 20
222.5872841910810109
 30
0.0
 40
0.0162960639269226
 50
100.9402970432627029
 51
118.5410979266577982
  0
LINE
  5
A8DE
  8
0
 10
3523.7219134339798075
 20
222.6043143957589905
 30
0.0
 11
3523.7753223878930839
 21
222.6038149530025976
 31
0.0
  0
LINE
  5
A8DF
  8
0
 10
3523.7753223878930839
 20
222.6038149530025976
 30
0.0
 11
3523.7912589259940432
 21
222.6051212938025969
 31
0.0
  0
LINE
  5
A8E0
  8
0
 10
3523.7912589259940432
 20
222.6051212938025969
 30
0.0
 11
3523.7425844360791416
 21
222.6061020474942893
 31
0.0
  0
LINE
  5
A8E1
  8
0
 10
3523.7425844360791416
 20
222.6061020474942893
 30
0.0
 11
3523.7219134339798075
 21
222.6043143957589905
 31
0.0
  0
LINE
  5
A8E2
  8
0
 10
3523.7465925460201106
 20
222.6063945022225141
 30
0.0
 11
3523.7951959338929555
 21
222.6053592769025897
 31
0.0
  0
LINE
  5
A8E3
  8
0
 10
3523.7904291319141521
 20
222.6051380135176885
 30
0.0
 11
3523.8196443010929215
 21
222.6064941108024868
 31
0.0
  0
LINE
  5
A8E4
  8
0
 10
3523.8679211497760662
 20
222.6048092730684118
 30
0.0
 11
3523.7792537790928691
 21
222.6079037197025912
 31
0.0
  0
LINE
  5
A8E5
  8
0
 10
3523.7792537790928691
 20
222.6079037197025912
 30
0.0
 11
3523.7465925460201106
 21
222.6063945022225141
 31
0.0
  0
LINE
  5
A8E6
  8
0
 10
3523.7792999350572245
 20
222.6086793584235863
 30
0.0
 11
3523.8307798409941825
 21
222.606882735602511
 31
0.0
  0
LINE
  5
A8E7
  8
0
 10
3523.8178436292078004
 20
222.6065569533454891
 30
0.0
 11
3523.8701161392928043
 21
222.6078733709024959
 31
0.0
  0
LINE
  5
A8E8
  8
0
 10
3523.8701161392928043
 20
222.6078733709024959
 30
0.0
 11
3523.834134681525029
 21
222.6094892152048033
 31
0.0
  0
LINE
  5
A8E9
  8
0
 10
3523.8347494612930859
 20
222.6094616068631069
 30
0.0
 11
3523.7278678790121376
 21
222.6066443792304028
 31
0.0
  0
LINE
  5
A8EA
  8
0
 10
3523.8317321630888728
 20
222.6100393064976117
 30
0.0
 11
3523.8705372586191515
 21
222.6083022999758043
 31
0.0
  0
LINE
  5
A8EB
  8
0
 10
3523.8705372586191515
 20
222.6083022999758043
 30
0.0
 11
3523.9075476466941836
 21
222.6084295480025048
 31
0.0
  0
LINE
  5
A8EC
  8
0
 10
3523.9075476466941836
 20
222.6084295480025048
 30
0.0
 11
3523.8927636895928117
 21
222.6103551096024091
 31
0.0
  0
LINE
  5
A8ED
  8
0
 10
3523.8927636895928117
 20
222.6103551096024091
 30
0.0
 11
3523.7614623715030575
 21
222.6084159146633112
 31
0.0
  0
ARC
  5
A8EE
  8
0
 10
3523.7945165837568311
 20
222.5250566162102075
 30
0.0
 40
0.0799831835016217
 50
88.6691362061927038
 51
106.1724865613815041
  0
LINE
  5
A8EF
  8
0
 10
3523.7958850298609832
 20
222.6050280923645914
 30
0.0
 11
3523.8489696024080331
 21
222.6039572854107007
 31
0.0
  0
ARC
  5
A8F0
  8
0
 10
3523.8460579406150828
 20
222.5378665729330123
 30
0.0
 40
0.0661548187980672
 50
84.3211755140921042
 51
104.6361323976767039
  0
LINE
  5
A8F1
  8
0
 10
3523.8352500009928008
 20
222.6018746689024965
 30
0.0
 11
3523.7722388723927907
 21
222.6018746689026102
 31
0.0
  0
LINE
  5
A8F2
  8
0
 10
3523.9398045996940709
 20
222.6018746689024113
 30
0.0
 11
3523.9500332461930157
 21
222.6024929671023926
 31
0.0
  0
LINE
  5
A8F3
  8
0
 10
3523.9500332461930157
 20
222.6024929671023926
 30
0.0
 11
3523.9322369544929643
 21
222.6035687120024136
 31
0.0
  0
LINE
  5
A8F4
  8
0
 10
3523.9322369544929643
 20
222.6035687120024136
 30
0.0
 11
3523.9042120161930143
 21
222.6018746689024965
 31
0.0
  0
LINE
  5
A8F5
  8
0
 10
3523.9042120161930143
 20
222.6018746689024965
 30
0.0
 11
3523.9398045996940709
 21
222.6018746689024113
 31
0.0
  0
LINE
  5
A8F6
  8
0
 10
3523.8293419691931376
 20
222.6018746689024965
 30
0.0
 11
3523.8982959304930773
 21
222.6018746689024965
 31
0.0
  0
ARC
  5
A8F7
  8
0
 10
3523.9299406127502152
 20
222.3355851904188114
 30
0.0
 40
0.2681631448693593
 50
90.141379316770383
 51
96.7769988480140029
  0
LINE
  5
A8F8
  8
0
 10
3523.9292789115911546
 20
222.6037475189025088
 30
0.0
 11
3523.8977559467930405
 21
222.6056530097025075
 31
0.0
  0
ARC
  5
A8F9
  8
0
 10
3523.897278100298081
 20
222.0946439676692137
 30
0.0
 40
0.5110092654512127
 50
89.946422514691605
 51
97.2213518256653515
  0
LINE
  5
A8FA
  8
0
 10
3523.8730694801929531
 20
222.6076948482024989
 30
0.0
 11
3523.9016210285931265
 21
222.6059689727024988
 31
0.0
  0
LINE
  5
A8FB
  8
0
 10
3523.9016210285931265
 20
222.6059689727024988
 30
0.0
 11
3523.9670809902931978
 21
222.6065811079114951
 31
0.0
  0
LINE
  5
A8FC
  8
0
 10
3523.9631439824938752
 20
222.6065442918024075
 30
0.0
 11
3523.9631439824938752
 21
222.6085371612024062
 31
0.0
  0
LINE
  5
A8FD
  8
0
 10
3523.8730694801929531
 20
222.6076948482024989
 30
0.0
 11
3523.9670809902931978
 21
222.6085739773131138
 31
0.0
  0
LINE
  5
A8FE
  8
0
 10
3523.9670809902931978
 20
222.6063401556610017
 30
0.0
 11
3523.9045750444929581
 21
222.6057904093023865
 31
0.0
  0
LINE
  5
A8FF
  8
0
 10
3523.9045750444929581
 20
222.6057904093023865
 30
0.0
 11
3523.9366890694382164
 21
222.6038948306369036
 31
0.0
  0
LINE
  5
A900
  8
0
 10
3523.9280086540620687
 20
222.6038243030517947
 30
0.0
 11
3523.9670809902931978
 21
222.6041417622286076
 31
0.0
  0
LINE
  5
A901
  8
0
 10
3523.9670809902931978
 20
222.6039356628278085
 30
0.0
 11
3523.9195298517201991
 21
222.6035461732521128
 31
0.0
  0
LINE
  5
A902
  8
0
 10
3523.9390560521269435
 20
222.6037061116203972
 30
0.0
 11
3523.9670809902931978
 21
222.6020120685369079
 31
0.0
  0
LINE
  5
A903
  8
0
 10
3523.9568523437928889
 20
222.6026303667024138
 30
0.0
 11
3523.9670809902931978
 21
222.6026994582302052
 31
0.0
  0
ARC
  5
A904
  8
0
 10
3523.845599069616128
 20
222.7401870875843883
 30
0.0
 40
0.2118718142993304
 50
198.1313341794514997
 51
220.8521088319550927
  0
ARC
  5
A905
  8
0
 10
3523.9481963061530223
 20
216.3944388688128129
 30
0.0
 40
6.2911088933262667
 50
89.8280089673615976
 51
92.2022144335751364
  0
ARC
  5
A906
  8
0
 10
3523.9417735443930724
 20
216.1405469315909897
 30
0.0
 40
6.5461205899645716
 50
89.7784927077476738
 51
92.3556109989985856
  0
ARC
  5
A907
  8
0
 10
3523.7109873755048284
 20
222.3441203877557939
 30
0.0
 40
0.3368115072990436
 50
90.7716396377287964
 51
101.4288958516736017
  0
ARC
  5
A908
  8
0
 10
3523.6820662850582266
 20
222.3350615743146079
 30
0.0
 40
0.346200544350821
 50
91.5473840378825372
 51
101.549485812112593
  0
ARC
  5
A909
  8
0
 10
3523.677987488395047
 20
222.9805915696099987
 30
0.0
 40
0.3132082604046815
 50
257.9783398699448185
 51
264.1452936833475746
  0
ARC
  5
A90A
  8
0
 10
3523.9564805132899892
 20
214.7901691145424081
 30
0.0
 40
7.9313334473864563
 50
89.9234223640363268
 51
92.6564566829043343
  0
ARC
  5
A90B
  8
0
 10
3523.6213633014549487
 20
222.1210867781024092
 30
0.0
 40
0.5927830909491778
 50
93.140822614888819
 51
97.852285487897575
  0
ARC
  5
A90C
  8
0
 10
3523.5409197341509753
 20
222.6978332868108907
 30
0.0
 40
0.0104924196155389
 50
92.9623054090775156
 51
131.186657244537912
  0
ARC
  5
A90D
  8
0
 10
3523.5998035550101122
 20
222.9650401577740979
 30
0.0
 40
0.2675270840998243
 50
255.7631348544832122
 51
270.7285466362599209
  0
LINE
  5
A90E
  8
0
 10
3523.9670809901431312
 20
222.7298300670898072
 30
0.0
 11
3523.6852421363228132
 21
222.7270022622159047
 31
0.0
  0
LINE
  5
A90F
  8
0
 10
3523.6852421363228132
 20
222.7270022622159047
 30
0.0
 11
3523.5550958617818651
 21
222.7219456276986023
 31
0.0
  0
LINE
  5
A910
  8
0
 10
3523.5339745980600128
 20
222.7208259636475134
 30
0.0
 11
3523.5340103265930338
 21
222.7057295490025126
 31
0.0
  0
ARC
  5
A911
  8
0
 10
3523.5521661301359018
 20
223.021844216626107
 30
0.0
 40
0.315691346639847
 50
259.5673209305302862
 51
266.7026219864098948
  0
ARC
  5
A912
  8
0
 10
3523.4956534196808207
 20
222.7178882888989051
 30
0.0
 40
0.0065491272129883
 50
220.9178261311959091
 51
264.2801870351461275
  0
ARC
  5
A913
  8
0
 10
3523.559828785721038
 20
222.43288923728241
 30
0.0
 40
0.2890951355686534
 50
90.9380603417642845
 51
103.8337472300010944
  0
LINE
  5
A914
  8
0
 10
3524.2488228521101519
 20
222.6015998697025111
 30
0.0
 11
3523.9670809902931978
 21
222.6015998697025111
 31
0.0
  0
ARC
  5
A915
  8
0
 10
3523.9146420713759653
 20
232.8051337055242982
 30
0.0
 40
10.2136327491543693
 50
270.2941697640933967
 51
271.4595895181440142
  0
ARC
  5
A916
  8
0
 10
3524.1740072822371985
 20
223.0083177533439027
 30
0.0
 40
0.4135417830995867
 50
271.9172434106170044
 51
280.4230123419159213
  0
ARC
  5
A917
  8
0
 10
3524.2391627246088319
 20
222.5810630738538123
 30
0.0
 40
0.0226953309530178
 50
64.808577691210175
 51
76.8301511729893747
  0
ARC
  5
A918
  8
0
 10
3524.1405250590801188
 20
221.6788540331154991
 30
0.0
 40
0.9301185372277886
 50
83.591990270819764
 51
89.3993576536353345
  0
LINE
  5
A91A
  8
0
 10
3523.9710179980929752
 20
222.5944564380025099
 30
0.0
 11
3523.9710179980929752
 21
222.5924638456025093
 31
0.0
  0
ARC
  5
A91B
  8
0
 10
3523.9676973572982206
 20
229.740291101855405
 30
0.0
 40
7.1478280275820048
 50
269.9950593064309032
 51
270.4688471907456915
  0
LINE
  5
A91C
  8
0
 10
3524.0261868606989992
 20
222.5927023832819032
 30
0.0
 11
3524.0114029035930798
 21
222.5946279448025109
 31
0.0
  0
LINE
  5
A91D
  8
0
 10
3524.0114029035930798
 20
222.5946279448025109
 30
0.0
 11
3524.0114029035930798
 21
222.5946279448025109
 31
0.0
  0
LINE
  5
A91E
  8
0
 10
3524.0114029035930798
 20
222.5946279448025109
 30
0.0
 11
3523.9670809902931978
 21
222.5944397182998955
 31
0.0
  0
ARC
  5
A91F
  8
0
 10
3524.2175791932331776
 20
222.6127032530739029
 30
0.0
 40
0.0133133495568216
 50
272.1987029575118981
 51
303.4877567511554162
  0
LINE
  5
A920
  8
0
 10
3524.2180899623931509
 20
222.5993997050024973
 30
0.0
 11
3524.1629154831939559
 21
222.5999156576025086
 31
0.0
  0
ARC
  5
A921
  8
0
 10
3524.1598227180211325
 20
222.6159155483240966
 30
0.0
 40
0.0162960639269226
 50
280.9402970433416726
 51
298.5410979267176117
  0
LINE
  5
A922
  8
0
 10
3524.2122485466061335
 20
222.5988853436460886
 30
0.0
 11
3524.158839592692857
 21
222.5993847864025099
 31
0.0
  0
LINE
  5
A923
  8
0
 10
3524.158839592692857
 20
222.5993847864025099
 30
0.0
 11
3524.1429030545928072
 21
222.5980784456025106
 31
0.0
  0
LINE
  5
A924
  8
0
 10
3524.1429030545928072
 20
222.5980784456025106
 30
0.0
 11
3524.1915775445067993
 21
222.5970976919109034
 31
0.0
  0
LINE
  5
A925
  8
0
 10
3524.1915775445067993
 20
222.5970976919109034
 30
0.0
 11
3524.2122485466061335
 21
222.5988853436460886
 31
0.0
  0
LINE
  5
A926
  8
0
 10
3524.1875694345658303
 20
222.5968052371825934
 30
0.0
 11
3524.1389660466929854
 21
222.5978404625024893
 31
0.0
  0
LINE
  5
A927
  8
0
 10
3524.1437328486731531
 20
222.5980617258873906
 30
0.0
 11
3524.1145176794930194
 21
222.596705628602507
 31
0.0
  0
LINE
  5
A928
  8
0
 10
3524.0662408308107842
 20
222.5983904663366104
 30
0.0
 11
3524.1549082014939813
 21
222.5952960197024879
 31
0.0
  0
LINE
  5
A929
  8
0
 10
3524.1549082014939813
 20
222.5952960197024879
 30
0.0
 11
3524.1875694345658303
 21
222.5968052371825934
 31
0.0
  0
LINE
  5
A92A
  8
0
 10
3524.1548620455291712
 20
222.5945203809814927
 30
0.0
 11
3524.1033821395931227
 21
222.5963170038025112
 31
0.0
  0
LINE
  5
A92B
  8
0
 10
3524.1163183513781405
 20
222.5966427860595047
 30
0.0
 11
3524.0640458412931366
 21
222.5953263685024979
 31
0.0
  0
LINE
  5
A92C
  8
0
 10
3524.0640458412931366
 20
222.5953263685024979
 30
0.0
 11
3524.1000272990609119
 21
222.5937105242001905
 31
0.0
  0
LINE
  5
A92D
  8
0
 10
3524.099412519292855
 20
222.5937381325420006
 30
0.0
 11
3524.2152019633899727
 21
222.5967901571708865
 31
0.0
  0
LINE
  5
A92E
  8
0
 10
3524.1013679827087799
 20
222.5932079631074885
 30
0.0
 11
3524.0636247219681536
 21
222.5948974394291895
 31
0.0
  0
LINE
  5
A92F
  8
0
 10
3524.0636247219681536
 20
222.5948974394291895
 30
0.0
 11
3524.026614333894031
 21
222.594770191402489
 31
0.0
  0
LINE
  5
A930
  8
0
 10
3524.026614333894031
 20
222.594770191402489
 30
0.0
 11
3524.0413982909931292
 21
222.5928446298024994
 31
0.0
  0
LINE
  5
A931
  8
0
 10
3524.0413982909931292
 20
222.5928446298024994
 30
0.0
 11
3524.1878427219530749
 21
222.5950074740414948
 31
0.0
  0
ARC
  5
A932
  8
0
 10
3524.1396453968300193
 20
222.6781431231949
 30
0.0
 40
0.0799831835016217
 50
268.6691362062447865
 51
286.1724865614365854
  0
LINE
  5
A933
  8
0
 10
3524.1382769507258672
 20
222.5981716470404876
 30
0.0
 11
3524.0851923781788173
 21
222.5992424539942931
 31
0.0
  0
ARC
  5
A934
  8
0
 10
3524.0881040399722224
 20
222.6653331664720099
 30
0.0
 40
0.0661548187980672
 50
264.3211755141705908
 51
284.6361323977308757
  0
LINE
  5
A935
  8
0
 10
3524.0989119795940496
 20
222.6013250705024973
 30
0.0
 11
3524.1619231081940598
 21
222.6013250705024973
 31
0.0
  0
LINE
  5
A936
  8
0
 10
3523.9943573808941437
 20
222.6013250705024973
 30
0.0
 11
3523.9841287343938347
 21
222.6007067723024875
 31
0.0
  0
LINE
  5
A937
  8
0
 10
3523.9841287343938347
 20
222.6007067723024875
 30
0.0
 11
3524.0019250260929766
 21
222.599631027402495
 31
0.0
  0
LINE
  5
A938
  8
0
 10
3524.0019250260929766
 20
222.599631027402495
 30
0.0
 11
3524.0299499643929266
 21
222.6013250705024973
 31
0.0
  0
LINE
  5
A939
  8
0
 10
3524.0299499643929266
 20
222.6013250705024973
 30
0.0
 11
3523.9943573808941437
 21
222.6013250705024973
 31
0.0
  0
LINE
  5
A93A
  8
0
 10
3524.1048200113928033
 20
222.6013250705024973
 30
0.0
 11
3524.0358660500928636
 21
222.6013250705024973
 31
0.0
  0
ARC
  5
A93B
  8
0
 10
3524.0042213678361804
 20
222.8676145489860971
 30
0.0
 40
0.2681631448693593
 50
270.1413793168225084
 51
276.7769988480926031
  0
LINE
  5
A93C
  8
0
 10
3524.0048830689947863
 20
222.5994522205023998
 30
0.0
 11
3524.0364060337929004
 21
222.5975467297024863
 31
0.0
  0
ARC
  5
A93D
  8
0
 10
3524.0368838802878599
 20
223.1085557717356949
 30
0.0
 40
0.5110092654512127
 50
269.9464225147436878
 51
277.2213518257439091
  0
LINE
  5
A93E
  8
0
 10
3524.0610925003929879
 20
222.5955048912024949
 30
0.0
 11
3524.0325409519928144
 21
222.597230766702495
 31
0.0
  0
LINE
  5
A93F
  8
0
 10
3524.0325409519928144
 20
222.597230766702495
 30
0.0
 11
3523.9670809902931978
 21
222.5966186314934134
 31
0.0
  0
LINE
  5
A940
  8
0
 10
3523.9710179980929752
 20
222.596655447602501
 30
0.0
 11
3523.9710179980929752
 21
222.5946625782025023
 31
0.0
  0
LINE
  5
A941
  8
0
 10
3524.0610925003929879
 20
222.5955048912024949
 30
0.0
 11
3523.9670809902931978
 21
222.5946257620917947
 31
0.0
  0
LINE
  5
A942
  8
0
 10
3523.9670809902931978
 20
222.5968595837439068
 30
0.0
 11
3524.0295869360929828
 21
222.5974093301024936
 31
0.0
  0
LINE
  5
A943
  8
0
 10
3524.0295869360929828
 20
222.5974093301024936
 30
0.0
 11
3523.9974729111490888
 21
222.5993049087680049
 31
0.0
  0
LINE
  5
A944
  8
0
 10
3524.0061533265229627
 20
222.5993754363531139
 30
0.0
 11
3523.9670809902931978
 21
222.5990579771763009
 31
0.0
  0
LINE
  5
A945
  8
0
 10
3523.9670809902931978
 20
222.5992640765771
 30
0.0
 11
3524.0146321288671061
 21
222.5996535661527957
 31
0.0
  0
LINE
  5
A946
  8
0
 10
3523.9951059284589974
 20
222.5994936277845966
 30
0.0
 11
3523.9670809902931978
 21
222.6011876708680006
 31
0.0
  0
LINE
  5
A947
  8
0
 10
3523.9773096367930521
 20
222.6005693727024948
 30
0.0
 11
3523.9670809902931978
 21
222.6005002811747033
 31
0.0
  0
LINE
  5
A948
  8
0
 10
3523.9710179980929752
 20
222.6087433014023986
 30
0.0
 11
3523.9710179980929752
 21
222.6107358938023992
 31
0.0
  0
ARC
  5
A949
  8
0
 10
3523.9676973573050418
 20
215.4629086375495035
 30
0.0
 40
7.1478280275820048
 50
89.531152809332383
 51
90.0049406936472565
  0
LINE
  5
A94A
  8
0
 10
3524.0261868606989992
 20
222.6104973561230906
 30
0.0
 11
3524.0114029035930798
 21
222.6085717946023976
 31
0.0
  0
LINE
  5
A94B
  8
0
 10
3524.0114029035930798
 20
222.6085717946023976
 30
0.0
 11
3524.0114029035930798
 21
222.6085717946023976
 31
0.0
  0
LINE
  5
A94C
  8
0
 10
3524.0114029035930798
 20
222.6085717946023976
 30
0.0
 11
3523.9670809902931978
 21
222.608760021105013
 31
0.0
  0
ARC
  5
A94D
  8
0
 10
3524.2175791932331776
 20
222.5904964863312898
 30
0.0
 40
0.0133133495568216
 50
56.5122432489069126
 51
87.8012970425662758
  0
LINE
  5
A94E
  8
0
 10
3524.2180899623931509
 20
222.6038000344026102
 30
0.0
 11
3524.1629154831939559
 21
222.6032840818025988
 31
0.0
  0
ARC
  5
A94F
  8
0
 10
3524.1598227180211325
 20
222.5872841910810109
 30
0.0
 40
0.0162960639269226
 50
61.4589020733422231
 51
79.0597029567372402
  0
LINE
  5
A950
  8
0
 10
3524.2122485466061335
 20
222.6043143957589905
 30
0.0
 11
3524.158839592692857
 21
222.6038149530025976
 31
0.0
  0
LINE
  5
A951
  8
0
 10
3524.158839592692857
 20
222.6038149530025976
 30
0.0
 11
3524.1429030545928072
 21
222.6051212938025969
 31
0.0
  0
LINE
  5
A952
  8
0
 10
3524.1429030545928072
 20
222.6051212938025969
 30
0.0
 11
3524.1915775445067993
 21
222.6061020474942893
 31
0.0
  0
LINE
  5
A953
  8
0
 10
3524.1915775445067993
 20
222.6061020474942893
 30
0.0
 11
3524.2122485466061335
 21
222.6043143957589905
 31
0.0
  0
LINE
  5
A954
  8
0
 10
3524.1875694345658303
 20
222.6063945022225141
 30
0.0
 11
3524.1389660466929854
 21
222.6053592769025897
 31
0.0
  0
LINE
  5
A955
  8
0
 10
3524.1437328486731531
 20
222.6051380135176885
 30
0.0
 11
3524.1145176794930194
 21
222.6064941108024868
 31
0.0
  0
LINE
  5
A956
  8
0
 10
3524.0662408308107842
 20
222.6048092730684118
 30
0.0
 11
3524.1549082014939813
 21
222.6079037197025912
 31
0.0
  0
LINE
  5
A957
  8
0
 10
3524.1549082014939813
 20
222.6079037197025912
 30
0.0
 11
3524.1875694345658303
 21
222.6063945022225141
 31
0.0
  0
LINE
  5
A958
  8
0
 10
3524.1548620455291712
 20
222.6086793584235863
 30
0.0
 11
3524.1033821395931227
 21
222.606882735602511
 31
0.0
  0
LINE
  5
A959
  8
0
 10
3524.1163183513781405
 20
222.6065569533454891
 30
0.0
 11
3524.0640458412931366
 21
222.6078733709024959
 31
0.0
  0
LINE
  5
A95A
  8
0
 10
3524.0640458412931366
 20
222.6078733709024959
 30
0.0
 11
3524.1000272990609119
 21
222.6094892152048033
 31
0.0
  0
LINE
  5
A95B
  8
0
 10
3524.099412519292855
 20
222.6094616068631069
 30
0.0
 11
3524.2062941015751676
 21
222.6066443792304028
 31
0.0
  0
LINE
  5
A95C
  8
0
 10
3524.1024298174979776
 20
222.6100393064976117
 30
0.0
 11
3524.0636247219681536
 21
222.6083022999758043
 31
0.0
  0
LINE
  5
A95D
  8
0
 10
3524.0636247219681536
 20
222.6083022999758043
 30
0.0
 11
3524.026614333894031
 21
222.6084295480025048
 31
0.0
  0
LINE
  5
A95E
  8
0
 10
3524.026614333894031
 20
222.6084295480025048
 30
0.0
 11
3524.0413982909931292
 21
222.6103551096024091
 31
0.0
  0
LINE
  5
A95F
  8
0
 10
3524.0413982909931292
 20
222.6103551096024091
 30
0.0
 11
3524.1726996090837929
 21
222.6084159146633112
 31
0.0
  0
ARC
  5
A960
  8
0
 10
3524.1396453968300193
 20
222.5250566162102075
 30
0.0
 40
0.0799831835016217
 50
73.8275134386184817
 51
91.3308637938073247
  0
LINE
  5
A961
  8
0
 10
3524.1382769507258672
 20
222.6050280923645914
 30
0.0
 11
3524.0851923781788173
 21
222.6039572854107007
 31
0.0
  0
ARC
  5
A962
  8
0
 10
3524.0881040399722224
 20
222.5378665729330123
 30
0.0
 40
0.0661548187980672
 50
75.3638676023232392
 51
95.6788244859078816
  0
LINE
  5
A963
  8
0
 10
3524.0989119795940496
 20
222.6018746689024965
 30
0.0
 11
3524.1619231081940598
 21
222.6018746689026102
 31
0.0
  0
LINE
  5
A964
  8
0
 10
3523.9943573808941437
 20
222.6018746689024113
 30
0.0
 11
3523.9841287343938347
 21
222.6024929671023926
 31
0.0
  0
LINE
  5
A965
  8
0
 10
3523.9841287343938347
 20
222.6024929671023926
 30
0.0
 11
3524.0019250260929766
 21
222.6035687120024136
 31
0.0
  0
LINE
  5
A966
  8
0
 10
3524.0019250260929766
 20
222.6035687120024136
 30
0.0
 11
3524.0299499643929266
 21
222.6018746689024965
 31
0.0
  0
LINE
  5
A967
  8
0
 10
3524.0299499643929266
 20
222.6018746689024965
 30
0.0
 11
3523.9943573808941437
 21
222.6018746689024113
 31
0.0
  0
LINE
  5
A968
  8
0
 10
3524.1048200113928033
 20
222.6018746689024965
 30
0.0
 11
3524.0358660500928636
 21
222.6018746689024965
 31
0.0
  0
ARC
  5
A969
  8
0
 10
3524.0042213678361804
 20
222.3355851904188114
 30
0.0
 40
0.2681631448693593
 50
83.2230011519859829
 51
89.8586206832296455
  0
LINE
  5
A96A
  8
0
 10
3524.0048830689947863
 20
222.6037475189025088
 30
0.0
 11
3524.0364060337929004
 21
222.6056530097025075
 31
0.0
  0
ARC
  5
A96B
  8
0
 10
3524.0368838802892242
 20
222.0946439676692137
 30
0.0
 40
0.5110092654512127
 50
82.7786481743346485
 51
90.053577485308395
  0
LINE
  5
A96C
  8
0
 10
3524.0610925003929879
 20
222.6076948482024989
 30
0.0
 11
3524.0325409519928144
 21
222.6059689727024988
 31
0.0
  0
LINE
  5
A96D
  8
0
 10
3524.0325409519928144
 20
222.6059689727024988
 30
0.0
 11
3523.9670809902931978
 21
222.6065811079114951
 31
0.0
  0
LINE
  5
A96E
  8
0
 10
3523.9710179980929752
 20
222.6065442918024075
 30
0.0
 11
3523.9710179980929752
 21
222.6085371612024062
 31
0.0
  0
LINE
  5
A96F
  8
0
 10
3524.0610925003929879
 20
222.6076948482024989
 30
0.0
 11
3523.9670809902931978
 21
222.6085739773131138
 31
0.0
  0
LINE
  5
A970
  8
0
 10
3523.9670809902931978
 20
222.6063401556610017
 30
0.0
 11
3524.0295869360929828
 21
222.6057904093023865
 31
0.0
  0
LINE
  5
A971
  8
0
 10
3524.0295869360929828
 20
222.6057904093023865
 30
0.0
 11
3523.9974729111490888
 21
222.6038948306369036
 31
0.0
  0
LINE
  5
A972
  8
0
 10
3524.0061533265229627
 20
222.6038243030517947
 30
0.0
 11
3523.9670809902931978
 21
222.6041417622286076
 31
0.0
  0
LINE
  5
A973
  8
0
 10
3523.9670809902931978
 20
222.6039356628278085
 30
0.0
 11
3524.0146321288671061
 21
222.6035461732521128
 31
0.0
  0
LINE
  5
A974
  8
0
 10
3523.9951059284589974
 20
222.6037061116203972
 30
0.0
 11
3523.9670809902931978
 21
222.6020120685369079
 31
0.0
  0
LINE
  5
A975
  8
0
 10
3523.9773096367930521
 20
222.6026303667024138
 30
0.0
 11
3523.9670809902931978
 21
222.6026994582302052
 31
0.0
  0
ARC
  5
A976
  8
0
 10
3524.1445678406239495
 20
222.905918545722102
 30
0.0
 40
0.5800838906973536
 50
200.2056565221386109
 51
203.5385998052138063
  0
ARC
  5
A977
  8
0
 10
3523.6036354675361508
 20
222.7033159489317882
 30
0.0
 40
0.004119305312157
 50
93.3404766084236286
 51
146.9436893998484095
  0
ARC
  5
A978
  8
0
 10
3523.7413029985268622
 20
221.5319230763263079
 30
0.0
 40
1.183567032540163
 50
90.7193661038669745
 51
96.6912226605949456
  0
ARC
  5
A979
  8
0
 10
3523.9563874542341182
 20
214.311257998508097
 30
0.0
 40
8.4072839663494925
 50
89.9271233559574483
 51
91.5672683798868974
  0
LINE
  5
A97A
  8
0
 10
3525.1954274467939285
 20
216.9983628321024867
 30
0.0
 11
3522.7387345334927886
 21
216.9983628321024867
 31
0.0
  0
LINE
  5
A97B
  8
0
 10
3525.2269235097928686
 20
216.8015124384025114
 30
0.0
 11
3522.7072384704938486
 21
216.8015124384025114
 31
0.0
  0
ARC
  5
A97C
  8
0
 10
3523.0564505405031923
 20
222.4570671649055953
 30
0.0
 40
0.0342550146517335
 50
180.8277315866208141
 51
249.1573859666713133
  0
ARC
  5
A97D
  8
0
 10
3523.0423233015299047
 20
222.6927692047231915
 30
0.0
 40
0.0812202003798121
 50
91.1173091088045481
 51
104.3457895373728945
  0
ARC
  5
A97E
  8
0
 10
3523.1582977527277762
 20
220.2532195931478043
 30
0.0
 40
2.5234941096789418
 50
89.6933082390134189
 51
92.6701182027277639
  0
LINE
  5
A97F
  8
0
 10
3522.7072384704938486
 20
216.8015124384025114
 30
0.0
 11
3522.7072384704938486
 21
216.966866769102495
 31
0.0
  0
ARC
  5
A980
  8
0
 10
3522.7387345334927886
 20
216.966866769102495
 30
0.0
 40
0.0314960630000001
 50
90.0
 51
180.0
  0
ARC
  5
A981
  8
0
 10
3523.0536928233159415
 20
217.0298565550253898
 30
0.0
 40
0.0314937230097895
 50
179.9957429353538032
 51
270.0042572465645208
  0
LINE
  5
A982
  8
0
 10
3523.0221991003932089
 20
217.0298588950024907
 30
0.0
 11
3523.0221991003932089
 21
222.3935442008028076
 31
0.0
  0
ARC
  5
A983
  8
0
 10
3523.0550836796451222
 20
222.3935442008028076
 30
0.0
 40
0.0328845792512316
 50
146.0677810871113138
 51
180.0000000000015916
  0
ARC
  5
A984
  8
0
 10
3523.0571453914230915
 20
222.3920490694329999
 30
0.0
 40
0.0354298917612848
 50
111.322404448728193
 51
145.9228243890306089
  0
ARC
  5
A985
  8
0
 10
3523.2385211884961791
 20
221.1219767681903079
 30
0.0
 40
1.3204402285689809
 50
93.1635448436909144
 51
97.1132895064378943
  0
ARC
  5
A986
  8
0
 10
3523.776010244932877
 20
210.2095601287703062
 30
0.0
 40
12.2460646115705298
 50
90.5499495166226467
 51
92.8568769131564409
  0
ARC
  5
A987
  8
0
 10
3523.9642159115851427
 20
197.564376984805989
 30
0.0
 40
24.892561408843541
 50
89.9934053829570502
 51
90.7037622403227033
  0
ARC
  5
A988
  8
0
 10
3523.0883266998598629
 20
222.3061361635795947
 30
0.0
 40
0.1268189420390555
 50
96.0279852665276934
 51
110.3318708039464013
  0
LINE
  5
A989
  8
0
 10
3524.9119628798930535
 20
222.4565723122024963
 30
0.0
 11
3524.9119628798930535
 21
223.2585450796730981
 31
0.0
  0
ARC
  5
A98A
  8
0
 10
3524.8773613275029675
 20
223.2571222690195896
 30
0.0
 40
0.0346307929042853
 50
2.354666879584749
 51
82.1436343317913895
  0
ARC
  5
A98B
  8
0
 10
3524.7121249420429194
 20
219.5669840477314949
 30
0.0
 40
3.7283203550174679
 50
87.3870420191865662
 51
89.2280309368810265
  0
ARC
  5
A98C
  8
0
 10
3524.0885629106701344
 20
222.7401870875843883
 30
0.0
 40
0.2118718142993296
 50
319.147891168046101
 51
341.8686658205484719
  0
ARC
  5
A98D
  8
0
 10
3523.9859656741327854
 20
216.3944388688128129
 30
0.0
 40
6.2911088933262667
 50
87.7977855664248494
 51
90.1719910326384166
  0
ARC
  5
A98E
  8
0
 10
3523.99238843589319
 20
216.1405469315909897
 30
0.0
 40
6.5461205899645716
 50
87.6443890010014144
 51
90.221507292252312
  0
ARC
  5
A98F
  8
0
 10
3524.2231746047809793
 20
222.3441203877557939
 30
0.0
 40
0.3368115072990436
 50
78.5711041483263557
 51
89.2283603622712036
  0
ARC
  5
A990
  8
0
 10
3524.2520956952280358
 20
222.3350615743146079
 30
0.0
 40
0.346200544350821
 50
78.4505141878873786
 51
88.452615962117477
  0
ARC
  5
A991
  8
0
 10
3524.2561744918912154
 20
222.9805915696099987
 30
0.0
 40
0.3132082604046815
 50
275.8547063166524254
 51
282.0216601300551815
  0
ARC
  5
A992
  8
0
 10
3523.9776814669971827
 20
214.7901691145424081
 30
0.0
 40
7.9313334473864563
 50
87.3435433170956941
 51
90.0765776359636732
  0
ARC
  5
A993
  8
0
 10
3524.3127986788322232
 20
222.1210867781024092
 30
0.0
 40
0.5927830909491778
 50
82.147714512102425
 51
86.8591773851111952
  0
ARC
  5
A994
  8
0
 10
3524.3932422461361966
 20
222.6978332868108907
 30
0.0
 40
0.0104924196155389
 50
48.8133427554621235
 51
87.0376945909224844
  0
ARC
  5
A995
  8
0
 10
3524.3343584252770597
 20
222.9650401577740979
 30
0.0
 40
0.2675270840998243
 50
269.2714533637400791
 51
284.2368651455167878
  0
LINE
  5
A996
  8
0
 10
3523.9670809901431312
 20
222.7298300670898072
 30
0.0
 11
3524.2489198439629945
 21
222.7270022622159047
 31
0.0
  0
LINE
  5
A997
  8
0
 10
3524.2489198439629945
 20
222.7270022622159047
 30
0.0
 11
3524.3790661185039426
 21
222.7219456276986023
 31
0.0
  0
LINE
  5
A998
  8
0
 10
3524.4001873822257949
 20
222.7208259636475134
 30
0.0
 11
3524.4001516536941381
 21
222.7057295490025126
 31
0.0
  0
ARC
  5
A999
  8
0
 10
3524.3819958501499059
 20
223.021844216626107
 30
0.0
 40
0.315691346639847
 50
273.2973780135903894
 51
280.4326790694697138
  0
ARC
  5
A99A
  8
0
 10
3524.4385085606058965
 20
222.7178882888989051
 30
0.0
 40
0.0065491272129883
 50
275.7198129648281224
 51
319.0821738688039773
  0
ARC
  5
A99B
  8
0
 10
3524.3743331945652244
 20
222.43288923728241
 30
0.0
 40
0.2890951355686534
 50
76.166252769998863
 51
89.0619396582357155
  0
ARC
  5
A99C
  8
0
 10
3523.7895941396632224
 20
222.905918545722102
 30
0.0
 40
0.5800838906973536
 50
336.4614001947862221
 51
339.7943434778613891
  0
ARC
  5
A99D
  8
0
 10
3524.3305265127510211
 20
222.7033159489317882
 30
0.0
 40
0.004119305312157
 50
33.0563106001515905
 51
86.6595233915763572
  0
ARC
  5
A99E
  8
0
 10
3524.1928589817589454
 20
221.5319230763263079
 30
0.0
 40
1.183567032540163
 50
83.308777339405097
 51
89.2806338961330113
  0
ARC
  5
A99F
  8
0
 10
3523.9777745260530537
 20
214.311257998508097
 30
0.0
 40
8.4072839663494925
 50
88.4327316201131026
 51
90.0728766440425517
  0
ARC
  5
A9A0
  8
0
 10
3524.8777114397839796
 20
222.4570671649055953
 30
0.0
 40
0.0342550146517315
 50
290.842614033328573
 51
359.1722684133808912
  0
ARC
  5
A9A1
  8
0
 10
3524.8918386787568124
 20
222.6927692047231915
 30
0.0
 40
0.0812202003798121
 50
75.6542104626270913
 51
88.8826908911954376
  0
ARC
  5
A9A2
  8
0
 10
3524.7758642275580314
 20
220.2532195931478043
 30
0.0
 40
2.5234941096789418
 50
87.3298817972722361
 51
90.3066917609865953
  0
LINE
  5
A9A3
  8
0
 10
3525.2269235097928686
 20
216.8015124384025114
 30
0.0
 11
3525.2269235097928686
 21
216.966866769102495
 31
0.0
  0
ARC
  5
A9A4
  8
0
 10
3525.1954274467939285
 20
216.966866769102495
 30
0.0
 40
0.0314960630000001
 50
0.0
 51
90.0
  0
ARC
  5
A9A5
  8
0
 10
3524.8804668168932039
 20
217.0298588950024907
 30
0.0
 40
0.0314960630000001
 50
270.0045657326388095
 51
0.0
  0
LINE
  5
A9A6
  8
0
 10
3524.9119628798930535
 20
217.0298588950024907
 30
0.0
 11
3524.9119628798930535
 21
222.3935442008028076
 31
0.0
  0
ARC
  5
A9A7
  8
0
 10
3524.8790783006420497
 20
222.3935442008028076
 30
0.0
 40
0.0328845792512316
 50
359.9999999999984084
 51
33.9322189128886791
  0
ARC
  5
A9A8
  8
0
 10
3524.8770165888631709
 20
222.3920490694329999
 30
0.0
 40
0.0354298917612848
 50
34.0771756109694124
 51
68.6775955512717502
  0
ARC
  5
A9A9
  8
0
 10
3524.6956407917900833
 20
221.1219767681903079
 30
0.0
 40
1.3204402285689809
 50
82.8867104935621342
 51
86.8364551563090856
  0
ARC
  5
A9AA
  8
0
 10
3524.1581517353538402
 20
210.2095601287703062
 30
0.0
 40
12.2460646115705298
 50
87.1431230868435449
 51
89.4500504833773533
  0
ARC
  5
A9AB
  8
0
 10
3523.9699460687020292
 20
197.564376984805989
 30
0.0
 40
24.892561408843541
 50
89.2962377596772967
 51
90.006594617042964
  0
ARC
  5
A9AC
  8
0
 10
3524.8458352804268543
 20
222.3061361635795947
 30
0.0
 40
0.1268189420390555
 50
69.6681291960535845
 51
83.9720147334723066
  0
LINE
  5
A9AD
  8
0
 10
3523.1718053995941773
 20
222.776677551002507
 30
0.0
 11
3524.7623565806929946
 21
222.776677551002507
 31
0.0
  0
LINE
  5
A9AE
  8
0
 10
3523.1718053995941773
 20
223.2949660021025124
 30
0.0
 11
3524.7623565806929946
 21
223.2949660021025124
 31
0.0
  0
LINE
  5
A9B0
  8
0
 10
3514.9237739035429513
 20
216.8015124384025114
 30
0.0
 11
3517.0261361082430085
 21
216.8015124384025114
 31
0.0
  0
LINE
  5
A9B1
  8
0
 10
3514.8725928011431279
 20
219.4196226746024934
 30
0.0
 11
3514.8725928011431279
 21
217.2542683439025097
 31
0.0
  0
LINE
  5
A9B2
  8
0
 10
3514.9237739035429513
 20
217.116473068302497
 30
0.0
 11
3517.0261361082430085
 21
217.116473068302497
 31
0.0
  0
LINE
  5
A9B3
  8
0
 10
3514.8922778405440113
 20
217.2345833045025074
 30
0.0
 11
3517.057632171242858
 21
217.2345833045025074
 31
0.0
  0
LINE
  5
A9B4
  8
0
 10
3514.8922778405440113
 20
219.4393077140024957
 30
0.0
 11
3517.057632171242858
 21
219.4393077140024957
 31
0.0
  0
LINE
  5
A9B5
  8
0
 10
3514.8922778405440113
 20
217.0849770053025054
 30
0.0
 11
3514.8922778405440113
 21
216.833008501402503
 31
0.0
  0
LINE
  5
A9B6
  8
0
 10
3515.1752785505432257
 20
217.291000377702602
 30
0.0
 11
3515.1752785505432257
 21
219.3828906407042894
 31
0.0
  0
LINE
  5
A9B7
  8
0
 10
3515.688017288042829
 20
217.2910003777024883
 30
0.0
 11
3515.688017288042829
 21
219.3828906407024988
 31
0.0
  0
LINE
  5
A9B8
  8
0
 10
3514.8922778405440113
 20
219.4393077140024957
 30
0.0
 11
3514.8725928011431279
 21
219.4196226747025094
 31
0.0
  0
LINE
  5
A9B9
  8
0
 10
3514.8725928011431279
 20
217.2542683439025097
 30
0.0
 11
3514.8922778405440113
 21
217.2345833045025074
 31
0.0
  0
ARC
  5
A9BA
  8
0
 10
3514.9240473965710407
 20
217.0847035122748991
 30
0.0
 40
0.03177073320888
 50
90.4932271989777632
 51
179.5067728010288022
  0
ARC
  5
A9BB
  8
0
 10
3514.9237739035429513
 20
216.833008501402503
 30
0.0
 40
0.0314960629999994
 50
180.0
 51
270.0
  0
ARC
  5
A9BC
  8
0
 10
3515.0254331548881055
 20
217.5779154643977051
 30
0.0
 40
0.3236879818167029
 50
241.8238280560576925
 51
297.5764407497262027
  0
ARC
  5
A9BD
  8
0
 10
3515.4316479192930274
 20
218.1682500110038916
 30
0.0
 40
0.9139431997453371
 50
253.7094092948613024
 51
286.2905907051118106
  0
ARC
  5
A9BE
  8
0
 10
3515.0254359850628134
 20
219.0954347928876018
 30
0.0
 40
0.3241660976608236
 50
62.4682489917245221
 51
118.131482202473407
  0
ARC
  5
A9BF
  8
0
 10
3515.4316479192930274
 20
218.5056410081118941
 30
0.0
 40
0.9139431990631663
 50
73.7094092823760292
 51
106.2905907176512983
  0
ARC
  5
A9C0
  8
0
 10
3515.5300671579248046
 20
217.1479615577833897
 30
0.0
 40
0.0315020221277707
 50
271.679481939108598
 51
0.0137746931243221
  0
LINE
  5
A9C1
  8
0
 10
3515.5615691791431345
 20
217.1479691313024887
 30
0.0
 11
3515.5615691791431345
 21
217.2345833045025074
 31
0.0
  0
LINE
  5
A9C2
  8
0
 10
3517.0773172107428763
 20
219.4196226746024934
 30
0.0
 11
3517.0773172107428763
 21
217.2542683439025097
 31
0.0
  0
LINE
  5
A9C3
  8
0
 10
3517.0576321713438119
 20
217.0849770053025054
 30
0.0
 11
3517.0576321713438119
 21
216.833008501402503
 31
0.0
  0
LINE
  5
A9C4
  8
0
 10
3516.7746314613427785
 20
217.291000377702602
 30
0.0
 11
3516.7746314613427785
 21
219.3828906407042894
 31
0.0
  0
LINE
  5
A9C5
  8
0
 10
3516.2618927238431752
 20
217.2910003777024883
 30
0.0
 11
3516.2618927238431752
 21
219.3828906407024988
 31
0.0
  0
LINE
  5
A9C6
  8
0
 10
3517.0576321713438119
 20
219.4393077140024957
 30
0.0
 11
3517.0773172107428763
 21
219.4196226747025094
 31
0.0
  0
LINE
  5
A9C7
  8
0
 10
3517.0773172107428763
 20
217.2542683439025097
 30
0.0
 11
3517.0576321713438119
 21
217.2345833045025074
 31
0.0
  0
ARC
  5
A9C8
  8
0
 10
3517.025862615315873
 20
217.0847035122748991
 30
0.0
 40
0.03177073320888
 50
0.4932271989712005
 51
89.5067728010222368
  0
ARC
  5
A9C9
  8
0
 10
3517.0261361083439624
 20
216.833008501402503
 30
0.0
 40
0.0314960629999994
 50
270.0
 51
0.0
  0
ARC
  5
A9CA
  8
0
 10
3516.9244768570001725
 20
217.5779154643977051
 30
0.0
 40
0.3236879818167029
 50
242.4235592502737973
 51
298.1761719439414264
  0
ARC
  5
A9CB
  8
0
 10
3516.5182620925929768
 20
218.1682500110038916
 30
0.0
 40
0.9139431997453371
 50
253.7094092948881894
 51
286.2905907051385839
  0
ARC
  5
A9CC
  8
0
 10
3516.9244740268231908
 20
219.0954347928876018
 30
0.0
 40
0.3241660976608236
 50
61.8685177975266072
 51
117.5317510082755064
  0
ARC
  5
A9CD
  8
0
 10
3516.5182620925929768
 20
218.5056410081118941
 30
0.0
 40
0.9139431990631663
 50
73.7094092823487443
 51
106.2905907176239992
  0
ARC
  5
A9CE
  8
0
 10
3516.4198428539611996
 20
217.1479615577833897
 30
0.0
 40
0.0315020221277707
 50
179.9862253068756104
 51
268.320518060891402
  0
LINE
  5
A9CF
  8
0
 10
3516.3883408327428697
 20
217.1479691313024887
 30
0.0
 11
3516.3883408327428697
 21
217.2345833045025074
 31
0.0
  0
ARC
  5
A9D0
  8
0
 10
3515.9749550059427747
 20
218.3933625840475941
 30
0.0
 40
1.139094240145009
 50
255.410033373018905
 51
284.589966626981095
  0
ARC
  5
A9D1
  8
0
 10
3515.9749550059427747
 20
218.2805284343575067
 30
0.0
 40
1.139094240145009
 50
75.4100333730189192
 51
104.589966626981095
  0
LINE
  5
A9D2
  8
0
 10
3533.0103880767428564
 20
216.8015124384025114
 30
0.0
 11
3530.9080258720441634
 21
216.8015124384025114
 31
0.0
  0
LINE
  5
A9D3
  8
0
 10
3533.0615691791431345
 20
219.4196226746024934
 30
0.0
 11
3533.0615691791431345
 21
217.2542683439025097
 31
0.0
  0
LINE
  5
A9D4
  8
0
 10
3533.0103880767428564
 20
217.116473068302497
 30
0.0
 11
3530.9080258720441634
 21
217.116473068302497
 31
0.0
  0
LINE
  5
A9D5
  8
0
 10
3533.0418841397431606
 20
217.2345833045025074
 30
0.0
 11
3530.8765298090429496
 21
217.2345833045025074
 31
0.0
  0
LINE
  5
A9D6
  8
0
 10
3533.0418841397431606
 20
219.4393077140024957
 30
0.0
 11
3530.8765298090429496
 21
219.4393077140024957
 31
0.0
  0
LINE
  5
A9D7
  8
0
 10
3533.0418841397431606
 20
217.0849770053025054
 30
0.0
 11
3533.0418841397431606
 21
216.833008501402503
 31
0.0
  0
LINE
  5
A9D8
  8
0
 10
3532.7588834297430367
 20
217.291000377702602
 30
0.0
 11
3532.7588834297430367
 21
219.3828906407042894
 31
0.0
  0
LINE
  5
A9D9
  8
0
 10
3532.2461446922429786
 20
217.2910003777024883
 30
0.0
 11
3532.2461446922429786
 21
219.3828906407024988
 31
0.0
  0
LINE
  5
A9DA
  8
0
 10
3533.0418841397431606
 20
219.4393077140024957
 30
0.0
 11
3533.0615691791431345
 21
219.4196226747025094
 31
0.0
  0
LINE
  5
A9DB
  8
0
 10
3533.0615691791431345
 20
217.2542683439025097
 30
0.0
 11
3533.0418841397431606
 21
217.2345833045025074
 31
0.0
  0
ARC
  5
A9DC
  8
0
 10
3533.0101145837161312
 20
217.0847035122748991
 30
0.0
 40
0.03177073320888
 50
0.4932271989712005
 51
89.5067728010222368
  0
ARC
  5
A9DD
  8
0
 10
3533.0103880767428564
 20
216.833008501402503
 30
0.0
 40
0.0314960629999994
 50
270.0
 51
0.0
  0
ARC
  5
A9DE
  8
0
 10
3532.9087288253990664
 20
217.5779154643977051
 30
0.0
 40
0.3236879818167029
 50
242.4235592502737973
 51
298.1761719439414264
  0
ARC
  5
A9DF
  8
0
 10
3532.5025140609927803
 20
218.1682500110038916
 30
0.0
 40
0.9139431997453371
 50
253.7094092948881894
 51
286.2905907051385839
  0
ARC
  5
A9E0
  8
0
 10
3532.9087259952229942
 20
219.0954347928876018
 30
0.0
 40
0.3241660976608236
 50
61.8685177975266072
 51
117.5317510082755064
  0
ARC
  5
A9E1
  8
0
 10
3532.5025140609927803
 20
218.5056410081118941
 30
0.0
 40
0.9139431990631663
 50
73.7094092823487443
 51
106.2905907176239992
  0
ARC
  5
A9E2
  8
0
 10
3532.404094822361003
 20
217.1479615577833897
 30
0.0
 40
0.0315020221277707
 50
179.9862253068756104
 51
268.320518060891402
  0
LINE
  5
A9E3
  8
0
 10
3532.3725928011440374
 20
217.1479691313024887
 30
0.0
 11
3532.3725928011440374
 21
217.2345833045025074
 31
0.0
  0
LINE
  5
A9E4
  8
0
 10
3530.8568447695429313
 20
219.4196226746024934
 30
0.0
 11
3530.8568447695429313
 21
217.2542683439025097
 31
0.0
  0
LINE
  5
A9E5
  8
0
 10
3530.8765298089429052
 20
217.0849770053025054
 30
0.0
 11
3530.8765298089429052
 21
216.833008501402503
 31
0.0
  0
LINE
  5
A9E6
  8
0
 10
3531.1595305189430292
 20
217.291000377702602
 30
0.0
 11
3531.1595305189430292
 21
219.3828906407042894
 31
0.0
  0
LINE
  5
A9E7
  8
0
 10
3531.6722692564430872
 20
217.2910003777024883
 30
0.0
 11
3531.6722692564430872
 21
219.3828906407024988
 31
0.0
  0
LINE
  5
A9E8
  8
0
 10
3530.8765298089429052
 20
219.4393077140024957
 30
0.0
 11
3530.8568447695429313
 21
219.4196226747025094
 31
0.0
  0
LINE
  5
A9E9
  8
0
 10
3530.8568447695429313
 20
217.2542683439025097
 30
0.0
 11
3530.8765298089429052
 21
217.2345833045025074
 31
0.0
  0
ARC
  5
A9EA
  8
0
 10
3530.9082993649708442
 20
217.0847035122748991
 30
0.0
 40
0.03177073320888
 50
90.4932271989777632
 51
179.5067728010288022
  0
ARC
  5
A9EB
  8
0
 10
3530.9080258719432095
 20
216.833008501402503
 30
0.0
 40
0.0314960629999994
 50
180.0
 51
270.0
  0
ARC
  5
A9EC
  8
0
 10
3531.0096851232869994
 20
217.5779154643977051
 30
0.0
 40
0.3236879818167029
 50
241.8238280560576925
 51
297.5764407497262027
  0
ARC
  5
A9ED
  8
0
 10
3531.4158998876941951
 20
218.1682500110038916
 30
0.0
 40
0.9139431997453371
 50
253.7094092948613024
 51
286.2905907051118106
  0
ARC
  5
A9EE
  8
0
 10
3531.0096879534639811
 20
219.0954347928876018
 30
0.0
 40
0.3241660976608236
 50
62.4682489917245221
 51
118.131482202473407
  0
ARC
  5
A9EF
  8
0
 10
3531.4158998876941951
 20
218.5056410081118941
 30
0.0
 40
0.9139431990631663
 50
73.7094092823760292
 51
106.2905907176512983
  0
ARC
  5
A9F0
  8
0
 10
3531.5143191263250628
 20
217.1479615577833897
 30
0.0
 40
0.0315020221277707
 50
271.679481939108598
 51
0.0137746931243221
  0
LINE
  5
A9F1
  8
0
 10
3531.545821147542938
 20
217.1479691313024887
 30
0.0
 11
3531.545821147542938
 21
217.2345833045025074
 31
0.0
  0
ARC
  5
A9F2
  8
0
 10
3531.9592069743430329
 20
218.3933625840475941
 30
0.0
 40
1.139094240145009
 50
255.410033373018905
 51
284.589966626981095
  0
ARC
  5
A9F3
  8
0
 10
3531.9592069743430329
 20
218.2805284343575067
 30
0.0
 40
1.139094240145009
 50
75.4100333730189192
 51
104.589966626981095
  0
ARC
  5
AAC4
  8
0
 10
3523.9752432313489408
 20
214.9660444767143019
 30
0.0
 40
7.645243595548763
 50
90.0611703272594042
 51
91.5324856417722259
  0
ARC
  5
AAC5
  8
0
 10
3523.9379407466121847
 20
213.4577220474783985
 30
0.0
 40
9.1536080513580398
 50
88.5887437784381149
 51
89.8176002525243717
  0
ENDSEC
  0
EOF
