  0
SECTION
  2
HEADER
  9
$ACADVER
  1
AC1009
  9
$INSBASE
 10
3524.190472298244913
 20
209.8657306055953029
 30
0.0
  9
$EXTMIN
 10
3513.3243305659948419
 20
209.8608504096494869
 30
0.0
  9
$EXTMAX
 10
3535.056614030494984
 20
216.3591841690247009
 30
0.0
  9
$LIMMIN
 10
0.0
 20
0.0
  9
$LIMMAX
 10
11.6929133858000007
 20
8.2677165353999982
  9
$ORTHOMODE
 70
     1
  9
$REGENMODE
 70
     1
  9
$FILLMODE
 70
     1
  9
$QTEXTMODE
 70
     0
  9
$MIRRTEXT
 70
     0
  9
$DRAGMODE
 70
     2
  9
$LTSCALE
 40
0.6431102362
  9
$OSMODE
 70
  3839
  9
$ATTMODE
 70
     1
  9
$TEXTSIZE
 40
0.2
  9
$TRACEWID
 40
0.05
  9
$TEXTSTYLE
  7
STANDARD
  9
$CLAYER
  8
0
  9
$CELTYPE
  6
BYLAYER
  9
$CECOLOR
 62
     1
  9
$DIMSCALE
 40
1.0
  9
$DIMASZ
 40
0.1875
  9
$DIMEXO
 40
0.0625
  9
$DIMDLI
 40
0.4443307087
  9
$DIMRND
 40
0.0
  9
$DIMDLE
 40
0.0
  9
$DIMEXE
 40
0.125
  9
$DIMTP
 40
0.01
  9
$DIMTM
 40
0.01
  9
$DIMTXT
 40
2.0
  9
$DIMCEN
 40
0.1052362205
  9
$DIMTSZ
 40
0.0
  9
$DIMTOL
 70
     1
  9
$DIMLIM
 70
     0
  9
$DIMTIH
 70
     1
  9
$DIMTOH
 70
     1
  9
$DIMSE1
 70
     0
  9
$DIMSE2
 70
     0
  9
$DIMTAD
 70
     0
  9
$DIMZIN
 70
     0
  9
$DIMBLK
  1

  9
$DIMASO
 70
     1
  9
$DIMSHO
 70
     1
  9
$DIMPOST
  1
\X
  9
$DIMAPOST
  1

  9
$DIMALT
 70
     1
  9
$DIMALTD
 70
     2
  9
$DIMALTF
 40
25.3999999999999986
  9
$DIMLFAC
 40
1.0
  9
$DIMTOFL
 70
     0
  9
$DIMTVP
 40
0.0
  9
$DIMTIX
 70
     0
  9
$DIMSOXD
 70
     0
  9
$DIMSAH
 70
     0
  9
$DIMBLK1
  1

  9
$DIMBLK2
  1

  9
$DIMSTYLE
  2
STANDARD
  9
$DIMCLRD
 70
     0
  9
$DIMCLRE
 70
     0
  9
$DIMCLRT
 70
     0
  9
$DIMTFAC
 40
1.0
  9
$DIMGAP
 40
0.09
  9
$LUNITS
 70
     2
  9
$LUPREC
 70
     4
  9
$SKETCHINC
 40
0.1
  9
$FILLETRAD
 40
0.0
  9
$AUNITS
 70
     0
  9
$AUPREC
 70
     0
  9
$MENU
  1
.
  9
$ELEVATION
 40
0.0
  9
$PELEVATION
 40
0.0
  9
$THICKNESS
 40
0.0
  9
$LIMCHECK
 70
     0
  9
$BLIPMODE
 70
     0
  9
$CHAMFERA
 40
0.0
  9
$CHAMFERB
 40
0.0
  9
$SKPOLY
 70
     0
  9
$TDCREATE
 40
2458060.468368056230247
  9
$TDUPDATE
 40
2459030.5856134258210659
  9
$TDINDWG
 40
0.7064885417
  9
$TDUSRTIMER
 40
0.7064885417
  9
$USRTIMER
 70
     1
  9
$ANGBASE
 50
0.0
  9
$ANGDIR
 70
     0
  9
$PDMODE
 70
     0
  9
$PDSIZE
 40
0.3125
  9
$PLINEWID
 40
0.0
  9
$COORDS
 70
     1
  9
$SPLFRAME
 70
     0
  9
$SPLINETYPE
 70
     6
  9
$SPLINESEGS
 70
     8
  9
$ATTDIA
 70
     1
  9
$ATTREQ
 70
     1
  9
$HANDLING
 70
     1
  9
$HANDSEED
  5
A926
  9
$SURFTAB1
 70
     6
  9
$SURFTAB2
 70
     6
  9
$SURFTYPE
 70
     6
  9
$SURFU
 70
     6
  9
$SURFV
 70
     6
  9
$UCSNAME
  2

  9
$UCSORG
 10
0.0
 20
0.0
 30
0.0
  9
$UCSXDIR
 10
1.0
 20
0.0
 30
0.0
  9
$UCSYDIR
 10
0.0
 20
1.0
 30
0.0
  9
$PUCSNAME
  2

  9
$PUCSORG
 10
0.0
 20
0.0
 30
0.0
  9
$PUCSXDIR
 10
1.0
 20
0.0
 30
0.0
  9
$PUCSYDIR
 10
0.0
 20
1.0
 30
0.0
  9
$USERI1
 70
     0
  9
$USERI2
 70
     0
  9
$USERI3
 70
     0
  9
$USERI4
 70
     0
  9
$USERI5
 70
     0
  9
$USERR1
 40
0.0
  9
$USERR2
 40
0.0
  9
$USERR3
 40
0.0
  9
$USERR4
 40
0.0
  9
$USERR5
 40
0.0
  9
$WORLDVIEW
 70
     1
  9
$SHADEDGE
 70
     3
  9
$SHADEDIF
 70
    70
  9
$TILEMODE
 70
     1
  9
$MAXACTVP
 70
    64
  9
$PLIMCHECK
 70
     0
  9
$PEXTMIN
 10
1.0000000000000000E+20
 20
1.0000000000000000E+20
 30
1.0000000000000000E+20
  9
$PEXTMAX
 10
-1.0000000000000000E+20
 20
-1.0000000000000000E+20
 30
-1.0000000000000000E+20
  9
$PLIMMIN
 10
0.0
 20
0.0
  9
$PLIMMAX
 10
12.0
 20
9.0
  9
$UNITMODE
 70
     0
  9
$VISRETAIN
 70
     1
  9
$PLINEGEN
 70
     0
  9
$PSLTSCALE
 70
     1
  0
ENDSEC
  0
SECTION
  2
TABLES
  0
TABLE
  2
VPORT
 70
     1
  0
VPORT
  2
*ACTIVE
 70
     0
 10
0.0
 20
0.0
 11
1.0
 21
1.0
 12
0.0
 22
0.0
 13
0.0
 23
0.0
 14
1.0
 24
1.0
 15
0.0
 25
0.0
 16
0.0
 26
0.0
 36
86.8732057399307251
 17
3524.1904296875
 27
213.1100135226957946
 37
0.0
 40
22.6831744756703415
 41
3.0287253141831241
 42
50.0
 43
0.0
 44
0.0
 50
0.0
 51
0.0
 71
     0
 72
   100
 73
     1
 74
     1
 75
     0
 76
     0
 77
     0
 78
     0
  0
ENDTAB
  0
TABLE
  2
LTYPE
 70
     2
  0
LTYPE
  2
CONTINUOUS
 70
     0
  3
Solid line
 72
    65
 73
     0
 40
0.0
  0
LTYPE
  2
PHANTOM2
 70
     0
  3
___ _ _ ___ _ _ ___ _ _ ___ _ _
 72
    65
 73
     6
 40
1.25
 49
0.625
 49
-0.125
 49
0.125
 49
-0.125
 49
0.125
 49
-0.125
  0
ENDTAB
  0
TABLE
  2
LAYER
 70
     2
  0
LAYER
  2
0
 70
     0
 62
   255
  6
CONTINUOUS
  0
LAYER
  2
DEFPOINTS
 70
     0
 62
     7
  6
CONTINUOUS
  0
ENDTAB
  0
TABLE
  2
STYLE
 70
     1
  0
STYLE
  2
STANDARD
 70
     0
 40
0.0
 41
0.8
 50
0.0
 71
     0
 42
0.2
  3
txt
  4

  0
ENDTAB
  0
TABLE
  2
VIEW
 70
     0
  0
ENDTAB
  0
TABLE
  2
UCS
 70
     0
  0
ENDTAB
  0
TABLE
  2
APPID
 70
     9
  0
APPID
  2
ACAD
 70
     0
  0
APPID
  2
ACAD_MLEADERVER
 70
     0
  0
APPID
  2
ACAD_EXEMPT_FROM_CAD_STANDARDS
 70
     0
  0
APPID
  2
ACAD_NAV_VCDISPLAY
 70
     0
  0
APPID
  2
ACAECLAYERSTANDARD
 70
     0
  0
APPID
  2
ACCMTRANSPARENCY
 70
     0
  0
APPID
  2
ACAD_DSTYLE_DIMJAG
 70
     0
  0
APPID
  2
ACAD_DSTYLE_DIMTALN
 70
     0
  0
APPID
  2
ACDBATTR
 70
     0
  0
ENDTAB
  0
TABLE
  2
DIMSTYLE
 70
     1
  0
DIMSTYLE
  2
STANDARD
 70
     0
  3

  4

  5

  6

  7

 40
1.0
 41
0.1875
 42
0.0625
 43
0.38
 44
0.125
 45
0.0
 46
0.0
 47
0.01
 48
0.01
140
0.15625
141
0.09
142
0.0
143
25.3999999999999986
144
1.0
145
0.0
146
1.0
147
0.09
 71
     1
 72
     0
 73
     1
 74
     1
 75
     0
 76
     0
 77
     0
 78
     4
170
     0
171
     2
172
     0
173
     0
174
     0
175
     0
176
     0
177
     0
178
     0
  0
ENDTAB
  0
ENDSEC
  0
SECTION
  2
BLOCKS
  0
BLOCK
  8
0
  2
$MODEL_SPACE
 70
     0
 10
0.0
 20
0.0
 30
0.0
  3
$MODEL_SPACE
  1

  0
ENDBLK
  5
21
  8
0
  0
BLOCK
 67
     1
  8
0
  2
$PAPER_SPACE
 70
     0
 10
0.0
 20
0.0
 30
0.0
  3
$PAPER_SPACE
  1

  0
ENDBLK
  5
1D
 67
     1
  8
0
  0
BLOCK
  8
0
  2
_FILLED
 70
     0
 10
0.0
 20
0.0
 30
0.0
  3
_FILLED
  1

  0
SOLID
  5
6F59
  8
0
  6
BYBLOCK
 62
     0
 10
0.0
 20
0.0
 30
0.0
 11
-1.0
 21
0.1666666667
 31
0.0
 12
-1.0
 22
-0.1666666667
 32
0.0
 13
-1.0
 23
-0.1666666667
 33
0.0
  0
ENDBLK
  5
6F5A
  8
0
  6
BYBLOCK
 62
     0
  0
ENDSEC
  0
SECTION
  2
ENTITIES
  0
ATTDEF
  5
3930
  8
DEFPOINTS
 10
3524.1907043713349594
 20
209.8641837429827888
 30
0.0
 40
0.001
  1
K-73081T-4E
  3

  2
MODELNUMBER
 70
     0
1001
ACDBATTR
1070
     0
1070
     1
  0
ATTDEF
  5
3931
  8
DEFPOINTS
 10
3524.1907043713349594
 20
209.8625170763162089
 30
0.0
 40
0.001
  1
COMPOSED
  3

  2
TRADENAME
 70
     0
1001
ACDBATTR
1070
     0
1070
     1
  0
ATTDEF
  5
3932
  8
DEFPOINTS
 10
3524.1907043713349594
 20
209.8608504096494869
 30
0.0
 40
0.001
  1
BATHROOM SINK FAUCET
  3

  2
PRODUCT
 70
     0
1001
ACDBATTR
1070
     0
1070
     1
  0
LINE
  5
A506
  8
0
 10
3523.2455904084949907
 20
215.5207904791247984
 30
0.0
 11
3523.2455904084949907
 21
216.3227632465952865
 31
0.0
  0
ARC
  5
A507
  8
0
 10
3523.2822207799467833
 20
216.3194976413194013
 30
0.0
 40
0.03677564806443
 50
100.5961609866619
 51
174.9055373093175092
  0
ARC
  5
A508
  8
0
 10
3523.4454283463451247
 20
212.6312022146537117
 30
0.0
 40
3.7283203550174679
 50
90.7719690631189877
 51
92.6129579808134338
  0
LINE
  5
A509
  8
0
 10
3523.9086976660200889
 20
215.6658180366246995
 30
0.0
 11
3524.1904722983949796
 21
215.6658180366246995
 31
0.0
  0
ARC
  5
A50A
  8
0
 10
3524.2454430171310378
 20
226.0347680955233898
 30
0.0
 40
10.3790599271796307
 50
268.5496983456808948
 51
269.6965423720835133
  0
ARC
  5
A50B
  8
0
 10
3523.9824903684630044
 20
216.0633445476154009
 30
0.0
 40
0.4043115809522062
 50
259.488469979029901
 51
270.0368938079624854
  0
ARC
  5
A50C
  8
0
 10
3523.9183905640788907
 20
215.6452812407760007
 30
0.0
 40
0.0226953309530195
 50
103.1698488270105969
 51
115.1914223087891003
  0
ARC
  5
A50D
  8
0
 10
3524.0170253972269165
 20
214.7431108141460925
 30
0.0
 40
0.9300798482528854
 50
91.9822721914429167
 51
96.4081018228254436
  0
ARC
  5
A50E
  8
0
 10
3524.1824731216870532
 20
209.19897516024011
 30
0.0
 40
6.4765344875836552
 50
89.9292338854439492
 51
91.6660713684701847
  0
LINE
  5
A50F
  8
0
 10
3524.1865352905952022
 20
215.658674604924812
 30
0.0
 11
3524.1865352905952022
 21
215.6566820125246977
 31
0.0
  0
ARC
  5
A510
  8
0
 10
3524.1898559313899568
 20
222.8045092687775934
 30
0.0
 40
7.1478280275820048
 50
269.5311528092541948
 51
270.0049406935689831
  0
LINE
  5
A511
  8
0
 10
3524.1313664279891782
 20
215.6569205502040916
 30
0.0
 11
3524.1461503850950976
 21
215.658846111724813
 31
0.0
  0
LINE
  5
A512
  8
0
 10
3524.1461503850950976
 20
215.658846111724813
 30
0.0
 11
3524.1461503850950976
 21
215.658846111724813
 31
0.0
  0
LINE
  5
A513
  8
0
 10
3524.1461503850950976
 20
215.658846111724813
 30
0.0
 11
3524.1904722983949796
 21
215.6586578852221976
 31
0.0
  0
ARC
  5
A514
  8
0
 10
3523.9399740954549998
 20
215.6769214199960913
 30
0.0
 40
0.0133133495568216
 50
236.5122432488446123
 51
267.8012970424881019
  0
LINE
  5
A515
  8
0
 10
3523.9394633262950265
 20
215.6636178719247994
 30
0.0
 11
3523.994637805495131
 21
215.664133824524697
 31
0.0
  0
ARC
  5
A516
  8
0
 10
3523.997730570667045
 20
215.6801337152463134
 30
0.0
 40
0.0162960639269226
 50
241.458902073282502
 51
259.0597029566583274
  0
LINE
  5
A517
  8
0
 10
3523.945304742082044
 20
215.6631035105683054
 30
0.0
 11
3523.9987136959948657
 21
215.663602953324812
 31
0.0
  0
LINE
  5
A518
  8
0
 10
3523.9987136959948657
 20
215.663602953324812
 30
0.0
 11
3524.0146502340949155
 21
215.662296612524699
 31
0.0
  0
LINE
  5
A519
  8
0
 10
3524.0146502340949155
 20
215.662296612524699
 30
0.0
 11
3523.9659757441809234
 21
215.6613158588330919
 31
0.0
  0
LINE
  5
A51A
  8
0
 10
3523.9659757441809234
 20
215.6613158588330919
 30
0.0
 11
3523.945304742082044
 21
215.6631035105683054
 31
0.0
  0
LINE
  5
A51B
  8
0
 10
3523.9699838541218924
 20
215.6610234041048955
 30
0.0
 11
3524.018587241995192
 21
215.6620586294247914
 31
0.0
  0
LINE
  5
A51C
  8
0
 10
3524.0138204400150244
 20
215.6622798928096074
 30
0.0
 11
3524.043035609195158
 21
215.6609237955246954
 31
0.0
  0
LINE
  5
A51D
  8
0
 10
3524.0913124578769384
 20
215.6626086332589125
 30
0.0
 11
3524.0026450871951056
 21
215.6595141866247047
 31
0.0
  0
LINE
  5
A51E
  8
0
 10
3524.0026450871951056
 20
215.6595141866247047
 30
0.0
 11
3523.9699838541218924
 21
215.6610234041048955
 31
0.0
  0
LINE
  5
A51F
  8
0
 10
3524.0026912431590063
 20
215.6587385479037096
 30
0.0
 11
3524.0541711490950547
 21
215.6605351707248133
 31
0.0
  0
LINE
  5
A520
  8
0
 10
3524.0412349373100369
 20
215.6608609529818068
 30
0.0
 11
3524.0935074473950408
 21
215.6595445354246863
 31
0.0
  0
LINE
  5
A521
  8
0
 10
3524.0935074473950408
 20
215.6595445354246863
 30
0.0
 11
3524.057525989628175
 21
215.6579286911224074
 31
0.0
  0
LINE
  5
A522
  8
0
 10
3524.0581407693948677
 20
215.657956299464189
 30
0.0
 11
3523.9423513252982048
 21
215.6610083240931033
 31
0.0
  0
LINE
  5
A523
  8
0
 10
3524.0563075145419134
 20
215.6574316003697902
 30
0.0
 11
3524.0939285667200238
 21
215.6591156063514063
 31
0.0
  0
LINE
  5
A524
  8
0
 10
3524.0939285667200238
 20
215.6591156063514063
 30
0.0
 11
3524.1309389547941464
 21
215.6589883583247058
 31
0.0
  0
LINE
  5
A525
  8
0
 10
3524.1309389547941464
 20
215.6589883583247058
 30
0.0
 11
3524.1161549976941387
 21
215.6570627967246878
 31
0.0
  0
LINE
  5
A526
  8
0
 10
3524.1161549976941387
 20
215.6570627967246878
 30
0.0
 11
3523.9827507121199233
 21
215.6590330504832878
 31
0.0
  0
ARC
  5
A527
  8
0
 10
3524.0179078918581581
 20
215.7423612901172021
 30
0.0
 40
0.0799831835016217
 50
253.8275134385633862
 51
271.3308637937552135
  0
LINE
  5
A528
  8
0
 10
3524.0192763379618555
 20
215.6623898139627045
 30
0.0
 11
3524.0723609105089054
 21
215.6634606209165099
 31
0.0
  0
ARC
  5
A529
  8
0
 10
3524.0694492487168645
 20
215.7295513333941983
 30
0.0
 40
0.0661548187980672
 50
255.363867602268698
 51
275.6788244858295229
  0
LINE
  5
A52A
  8
0
 10
3524.0586413090950373
 20
215.6655432374247141
 30
0.0
 11
3523.9956301804950272
 21
215.6655432374247141
 31
0.0
  0
LINE
  5
A52B
  8
0
 10
3524.1631959077949432
 20
215.6655432374247141
 30
0.0
 11
3524.1734245542947974
 21
215.6649249392247043
 31
0.0
  0
LINE
  5
A52C
  8
0
 10
3524.1734245542947974
 20
215.6649249392247043
 30
0.0
 11
3524.1556282625952008
 21
215.6638491943247118
 31
0.0
  0
LINE
  5
A52D
  8
0
 10
3524.1556282625952008
 20
215.6638491943247118
 30
0.0
 11
3524.127603324294796
 21
215.6655432374247141
 31
0.0
  0
LINE
  5
A52E
  8
0
 10
3524.127603324294796
 20
215.6655432374247141
 30
0.0
 11
3524.1631959077949432
 21
215.6655432374247141
 31
0.0
  0
LINE
  5
A52F
  8
0
 10
3524.0527332772949194
 20
215.6655432374247141
 30
0.0
 11
3524.1216872385948591
 21
215.6655432374247141
 31
0.0
  0
ARC
  5
A530
  8
0
 10
3524.153331920851997
 20
215.931832715908314
 30
0.0
 40
0.2681631448693593
 50
263.2230011519073969
 51
269.8586206831774916
  0
LINE
  5
A531
  8
0
 10
3524.1526702196929364
 20
215.6636703874245882
 30
0.0
 11
3524.1211472548948223
 21
215.6617648966247032
 31
0.0
  0
ARC
  5
A532
  8
0
 10
3524.1206694083998627
 20
216.172773938657997
 30
0.0
 40
0.5110092654512127
 50
262.7786481742560909
 51
270.0535774852561985
  0
LINE
  5
A533
  8
0
 10
3524.0964607882951896
 20
215.6597230581247118
 30
0.0
 11
3524.1250123366949083
 21
215.6614489336247118
 31
0.0
  0
LINE
  5
A534
  8
0
 10
3524.1250123366949083
 20
215.6614489336247118
 30
0.0
 11
3524.1904722983949796
 21
215.6608367984156018
 31
0.0
  0
LINE
  5
A535
  8
0
 10
3524.1865352905952022
 20
215.6608736145248031
 30
0.0
 11
3524.1865352905952022
 21
215.6588807451246907
 31
0.0
  0
LINE
  5
A536
  8
0
 10
3524.0964607882951896
 20
215.6597230581247118
 30
0.0
 11
3524.1904722983949796
 21
215.6588439290140116
 31
0.0
  0
LINE
  5
A537
  8
0
 10
3524.1904722983949796
 20
215.6610777506660952
 30
0.0
 11
3524.1279663525951946
 21
215.6616274970247105
 31
0.0
  0
LINE
  5
A538
  8
0
 10
3524.1279663525951946
 20
215.6616274970247105
 30
0.0
 11
3524.1600803775390887
 21
215.6635230756901933
 31
0.0
  0
LINE
  5
A539
  8
0
 10
3524.1513999621638504
 20
215.6635936032753875
 30
0.0
 11
3524.1904722983949796
 21
215.6632761440984893
 31
0.0
  0
LINE
  5
A53A
  8
0
 10
3524.1904722983949796
 20
215.6634822434992884
 30
0.0
 11
3524.1429211598210713
 21
215.6638717330750126
 31
0.0
  0
LINE
  5
A53B
  8
0
 10
3524.16244736022918
 20
215.6637117947068134
 30
0.0
 11
3524.1904722983949796
 21
215.6654058377903027
 31
0.0
  0
LINE
  5
A53C
  8
0
 10
3524.1802436518942159
 20
215.6647875396247116
 30
0.0
 11
3524.1904722983949796
 21
215.6647184480968917
 31
0.0
  0
LINE
  5
A53D
  8
0
 10
3524.1865352905952022
 20
215.672961468324587
 30
0.0
 11
3524.1865352905952022
 21
215.6749540607245876
 31
0.0
  0
ARC
  5
A53E
  8
0
 10
3524.1898559313822261
 20
208.5271268044716919
 30
0.0
 40
7.1478280275820048
 50
89.9950593063527862
 51
90.4688471906676028
  0
LINE
  5
A53F
  8
0
 10
3524.1313664279891782
 20
215.6747155230453075
 30
0.0
 11
3524.1461503850950976
 21
215.672789961524586
 31
0.0
  0
LINE
  5
A540
  8
0
 10
3524.1461503850950976
 20
215.672789961524586
 30
0.0
 11
3524.1461503850950976
 21
215.672789961524586
 31
0.0
  0
LINE
  5
A541
  8
0
 10
3524.1461503850950976
 20
215.672789961524586
 30
0.0
 11
3524.1904722983949796
 21
215.6729781880272014
 31
0.0
  0
ARC
  5
A542
  8
0
 10
3523.9399740954549998
 20
215.6547146532535066
 30
0.0
 40
0.0133133495568216
 50
92.1987029574337384
 51
123.4877567510931016
  0
LINE
  5
A543
  8
0
 10
3523.9394633262950265
 20
215.6680182013249123
 30
0.0
 11
3523.994637805495131
 21
215.6675022487247873
 31
0.0
  0
ARC
  5
A544
  8
0
 10
3523.997730570667045
 20
215.6515023580031993
 30
0.0
 40
0.0162960639269226
 50
100.9402970432627029
 51
118.5410979266577982
  0
LINE
  5
A545
  8
0
 10
3523.945304742082044
 20
215.6685325626812926
 30
0.0
 11
3523.9987136959948657
 21
215.668033119924786
 31
0.0
  0
LINE
  5
A546
  8
0
 10
3523.9987136959948657
 20
215.668033119924786
 30
0.0
 11
3524.0146502340949155
 21
215.6693394607248138
 31
0.0
  0
LINE
  5
A547
  8
0
 10
3524.0146502340949155
 20
215.6693394607248138
 30
0.0
 11
3523.9659757441809234
 21
215.6703202144165061
 31
0.0
  0
LINE
  5
A548
  8
0
 10
3523.9659757441809234
 20
215.6703202144165061
 30
0.0
 11
3523.945304742082044
 21
215.6685325626812926
 31
0.0
  0
LINE
  5
A549
  8
0
 10
3523.9699838541218924
 20
215.6706126691447025
 30
0.0
 11
3524.018587241995192
 21
215.6695774438248066
 31
0.0
  0
LINE
  5
A54A
  8
0
 10
3524.0138204400150244
 20
215.6693561804399053
 30
0.0
 11
3524.043035609195158
 21
215.6707122777247889
 31
0.0
  0
LINE
  5
A54B
  8
0
 10
3524.0913124578769384
 20
215.6690274399906002
 30
0.0
 11
3524.0026450871951056
 21
215.672121886624808
 31
0.0
  0
LINE
  5
A54C
  8
0
 10
3524.0026450871951056
 20
215.672121886624808
 30
0.0
 11
3523.9699838541218924
 21
215.6706126691447025
 31
0.0
  0
LINE
  5
A54D
  8
0
 10
3524.0026912431590063
 20
215.6728975253458032
 30
0.0
 11
3524.0541711490950547
 21
215.6711009025246994
 31
0.0
  0
LINE
  5
A54E
  8
0
 10
3524.0412349373100369
 20
215.6707751202677059
 30
0.0
 11
3524.0935074473950408
 21
215.6720915378247128
 31
0.0
  0
LINE
  5
A54F
  8
0
 10
3524.0935074473950408
 20
215.6720915378247128
 30
0.0
 11
3524.057525989628175
 21
215.6737073821271053
 31
0.0
  0
LINE
  5
A550
  8
0
 10
3524.0581407693948677
 20
215.6736797737852953
 30
0.0
 11
3523.9512591871130098
 21
215.6708625461525912
 31
0.0
  0
LINE
  5
A551
  8
0
 10
3524.0551234711901998
 20
215.6742574734199138
 30
0.0
 11
3524.0939285667200238
 21
215.6725204668979927
 31
0.0
  0
LINE
  5
A552
  8
0
 10
3524.0939285667200238
 20
215.6725204668979927
 30
0.0
 11
3524.1309389547941464
 21
215.6726477149246932
 31
0.0
  0
LINE
  5
A553
  8
0
 10
3524.1309389547941464
 20
215.6726477149246932
 30
0.0
 11
3524.1161549976941387
 21
215.6745732765247112
 31
0.0
  0
LINE
  5
A554
  8
0
 10
3524.1161549976941387
 20
215.6745732765247112
 30
0.0
 11
3523.9848536796048393
 21
215.6726340815854996
 31
0.0
  0
ARC
  5
A555
  8
0
 10
3524.0179078918581581
 20
215.5892747831323959
 30
0.0
 40
0.0799831835016217
 50
88.6691362061927038
 51
106.1724865613815041
  0
LINE
  5
A556
  8
0
 10
3524.0192763379618555
 20
215.6692462592868083
 30
0.0
 11
3524.0723609105089054
 21
215.6681754523328891
 31
0.0
  0
ARC
  5
A557
  8
0
 10
3524.069449248715955
 20
215.6020847398552007
 30
0.0
 40
0.0661548187980672
 50
84.3211755140921042
 51
104.6361323976767039
  0
LINE
  5
A558
  8
0
 10
3524.0586413090950373
 20
215.6660928358247986
 30
0.0
 11
3523.9956301804950272
 21
215.6660928358247986
 31
0.0
  0
LINE
  5
A559
  8
0
 10
3524.1631959077949432
 20
215.6660928358245997
 30
0.0
 11
3524.1734245542947974
 21
215.6667111340246095
 31
0.0
  0
LINE
  5
A55A
  8
0
 10
3524.1734245542947974
 20
215.6667111340246095
 30
0.0
 11
3524.1556282625952008
 21
215.667786878924602
 31
0.0
  0
LINE
  5
A55B
  8
0
 10
3524.1556282625952008
 20
215.667786878924602
 30
0.0
 11
3524.127603324294796
 21
215.6660928358247133
 31
0.0
  0
LINE
  5
A55C
  8
0
 10
3524.127603324294796
 20
215.6660928358247133
 30
0.0
 11
3524.1631959077949432
 21
215.6660928358245997
 31
0.0
  0
LINE
  5
A55D
  8
0
 10
3524.0527332772949194
 20
215.6660928358247986
 30
0.0
 11
3524.1216872385948591
 21
215.6660928358247133
 31
0.0
  0
ARC
  5
A55E
  8
0
 10
3524.153331920851997
 20
215.3998033573411135
 30
0.0
 40
0.2681631448693593
 50
90.141379316770383
 51
96.7769988480140029
  0
LINE
  5
A55F
  8
0
 10
3524.1526702196929364
 20
215.6679656858248109
 30
0.0
 11
3524.1211472548948223
 21
215.6698711766246959
 31
0.0
  0
ARC
  5
A560
  8
0
 10
3524.1206694083989532
 20
215.1588621345914021
 30
0.0
 40
0.5110092654512127
 50
89.946422514691605
 51
97.2213518256653515
  0
LINE
  5
A561
  8
0
 10
3524.0964607882951896
 20
215.6719130151246873
 30
0.0
 11
3524.1250123366949083
 21
215.6701871396246872
 31
0.0
  0
LINE
  5
A562
  8
0
 10
3524.1250123366949083
 20
215.6701871396246872
 30
0.0
 11
3524.1904722983949796
 21
215.6707992748337119
 31
0.0
  0
LINE
  5
A563
  8
0
 10
3524.1865352905952022
 20
215.6707624587245959
 30
0.0
 11
3524.1865352905952022
 21
215.6727553281245946
 31
0.0
  0
LINE
  5
A564
  8
0
 10
3524.0964607882951896
 20
215.6719130151246873
 30
0.0
 11
3524.1904722983949796
 21
215.6727921442353022
 31
0.0
  0
LINE
  5
A565
  8
0
 10
3524.1904722983949796
 20
215.6705583225831901
 30
0.0
 11
3524.1279663525951946
 21
215.6700085762246033
 31
0.0
  0
LINE
  5
A566
  8
0
 10
3524.1279663525951946
 20
215.6700085762246033
 30
0.0
 11
3524.1600803775390887
 21
215.668112997559092
 31
0.0
  0
LINE
  5
A567
  8
0
 10
3524.1513999621638504
 20
215.6680424699740115
 30
0.0
 11
3524.1904722983949796
 21
215.668359929150796
 31
0.0
  0
LINE
  5
A568
  8
0
 10
3524.1904722983949796
 20
215.6681538297499969
 30
0.0
 11
3524.1429211598210713
 21
215.6677643401743865
 31
0.0
  0
LINE
  5
A569
  8
0
 10
3524.16244736022918
 20
215.667924278542614
 30
0.0
 11
3524.1904722983949796
 21
215.6662302354590963
 31
0.0
  0
LINE
  5
A56A
  8
0
 10
3524.1802436518942159
 20
215.6668485336246022
 30
0.0
 11
3524.1904722983949796
 21
215.6669176251523936
 31
0.0
  0
ARC
  5
A56B
  8
0
 10
3524.0689903777179097
 20
215.8044052545066052
 30
0.0
 40
0.2118718142993304
 50
198.1313341794514997
 51
220.8521088319550927
  0
ARC
  5
A56C
  8
0
 10
3524.1715876142538946
 20
209.4586570357350013
 30
0.0
 40
6.2911088933262667
 50
89.8280089673615976
 51
92.2022144335751364
  0
ARC
  5
A56D
  8
0
 10
3524.1651648524939446
 20
209.2047650985132066
 30
0.0
 40
6.5461205899645716
 50
89.7784927077476738
 51
92.3556109989985856
  0
ARC
  5
A56E
  8
0
 10
3523.9343786836079744
 20
215.4083385546780107
 30
0.0
 40
0.3368115072990436
 50
90.7716396377287964
 51
101.4288958516736017
  0
ARC
  5
A56F
  8
0
 10
3523.9054575931590989
 20
215.3992797412367963
 30
0.0
 40
0.346200544350821
 50
91.5473840378825372
 51
101.549485812112593
  0
ARC
  5
A570
  8
0
 10
3523.9013787964968287
 20
216.0448097365321871
 30
0.0
 40
0.3132082604046815
 50
257.9783398699448185
 51
264.1260820004063135
  0
ARC
  5
A571
  8
0
 10
3524.1798718213922257
 20
207.8543872814647102
 30
0.0
 40
7.9313334473864563
 50
89.9234223640363268
 51
92.6564566829043343
  0
ARC
  5
A572
  8
0
 10
3523.8447546095558209
 20
215.1853049450247113
 30
0.0
 40
0.5927830909491778
 50
93.140822614888819
 51
97.852285487897575
  0
ARC
  5
A573
  8
0
 10
3523.7643110422518475
 20
215.7620514537331076
 30
0.0
 40
0.0104924196155389
 50
92.9623054090775156
 51
131.186657244537912
  0
ARC
  5
A574
  8
0
 10
3523.8231948631118939
 20
216.0292583246962863
 30
0.0
 40
0.2675270840998243
 50
255.7631348544832122
 51
270.7267012074120203
  0
LINE
  5
A575
  8
0
 10
3524.190472298244913
 20
215.7940482340119956
 30
0.0
 11
3523.9086334444241402
 21
215.7912204291380931
 31
0.0
  0
LINE
  5
A576
  8
0
 10
3523.9086334444241402
 20
215.7912204291380931
 30
0.0
 11
3523.7784871698841016
 21
215.7861637946207907
 31
0.0
  0
LINE
  5
A577
  8
0
 10
3523.7573659061617946
 20
215.7850441305697871
 30
0.0
 11
3523.7574016346948156
 21
215.7699477159247863
 31
0.0
  0
ARC
  5
A578
  8
0
 10
3523.7755574382381383
 20
216.0860623835482954
 30
0.0
 40
0.315691346639847
 50
259.5673209305302862
 51
266.6775273744341916
  0
ARC
  5
A579
  8
0
 10
3523.7190447277830572
 20
215.7821064558210935
 30
0.0
 40
0.0065491272129883
 50
220.9178261311959091
 51
264.2801870351461275
  0
ARC
  5
A57A
  8
0
 10
3523.783220093824184
 20
215.4971074042045984
 30
0.0
 40
0.2890951355686534
 50
90.9380603417642845
 51
103.8337472300010944
  0
LINE
  5
A57B
  8
0
 10
3524.4722469307698702
 20
215.6658180366246995
 30
0.0
 11
3524.1904722983949796
 21
215.6658180366246995
 31
0.0
  0
ARC
  5
A57C
  8
0
 10
3524.1380333794782018
 20
225.8693518724464866
 30
0.0
 40
10.2136327491543693
 50
270.2941697640933967
 51
271.4595895181440142
  0
ARC
  5
A57D
  8
0
 10
3524.3973985903389803
 20
216.0725359202662048
 30
0.0
 40
0.4135417830995867
 50
271.9172434106170044
 51
280.4230123419159213
  0
ARC
  5
A57E
  8
0
 10
3524.4625540327110684
 20
215.6452812407760007
 30
0.0
 40
0.0226953309530178
 50
64.808577691210175
 51
76.8301511729893747
  0
ARC
  5
A57F
  8
0
 10
3524.3639163671809911
 20
214.7430722000376875
 30
0.0
 40
0.9301185372277886
 50
83.591990270819764
 51
89.3993576536353345
  0
ARC
  5
A580
  8
0
 10
3524.1984714751019965
 20
209.19897516024011
 30
0.0
 40
6.4765344875836552
 50
88.3339286315298153
 51
90.0707661145560508
  0
LINE
  5
A581
  8
0
 10
3524.1944093061952117
 20
215.658674604924812
 30
0.0
 11
3524.1944093061952117
 21
215.6566820125246977
 31
0.0
  0
ARC
  5
A582
  8
0
 10
3524.1910886654000024
 20
222.8045092687775934
 30
0.0
 40
7.1478280275820048
 50
269.9950593064309032
 51
270.4688471907456915
  0
LINE
  5
A583
  8
0
 10
3524.249578168800781
 20
215.6569205502040916
 30
0.0
 11
3524.2347942116948616
 21
215.658846111724813
 31
0.0
  0
LINE
  5
A584
  8
0
 10
3524.2347942116948616
 20
215.658846111724813
 30
0.0
 11
3524.2347942116948616
 21
215.658846111724813
 31
0.0
  0
LINE
  5
A585
  8
0
 10
3524.2347942116948616
 20
215.658846111724813
 30
0.0
 11
3524.1904722983949796
 21
215.6586578852221976
 31
0.0
  0
ARC
  5
A586
  8
0
 10
3524.4409705013349594
 20
215.6769214199960913
 30
0.0
 40
0.0133133495568216
 50
272.1987029575118981
 51
303.4877567511554162
  0
LINE
  5
A587
  8
0
 10
3524.4414812704949327
 20
215.6636178719247994
 30
0.0
 11
3524.3863067912948281
 21
215.664133824524697
 31
0.0
  0
ARC
  5
A588
  8
0
 10
3524.3832140261229142
 20
215.6801337152463134
 30
0.0
 40
0.0162960639269226
 50
280.9402970433416726
 51
298.5410979267176117
  0
LINE
  5
A589
  8
0
 10
3524.4356398547079152
 20
215.6631035105683054
 30
0.0
 11
3524.3822309007950935
 21
215.663602953324812
 31
0.0
  0
LINE
  5
A58A
  8
0
 10
3524.3822309007950935
 20
215.663602953324812
 30
0.0
 11
3524.3662943626950437
 21
215.662296612524699
 31
0.0
  0
LINE
  5
A58B
  8
0
 10
3524.3662943626950437
 20
215.662296612524699
 30
0.0
 11
3524.4149688526090358
 21
215.6613158588330919
 31
0.0
  0
LINE
  5
A58C
  8
0
 10
3524.4149688526090358
 20
215.6613158588330919
 30
0.0
 11
3524.4356398547079152
 21
215.6631035105683054
 31
0.0
  0
LINE
  5
A58D
  8
0
 10
3524.4109607426680668
 20
215.6610234041048955
 30
0.0
 11
3524.3623573547952219
 21
215.6620586294247914
 31
0.0
  0
LINE
  5
A58E
  8
0
 10
3524.3671241567740253
 20
215.6622798928096074
 30
0.0
 11
3524.3379089875948011
 21
215.6609237955246954
 31
0.0
  0
LINE
  5
A58F
  8
0
 10
3524.2896321389130208
 20
215.6626086332589125
 30
0.0
 11
3524.3782995095948536
 21
215.6595141866247047
 31
0.0
  0
LINE
  5
A590
  8
0
 10
3524.3782995095948536
 20
215.6595141866247047
 30
0.0
 11
3524.4109607426680668
 21
215.6610234041048955
 31
0.0
  0
LINE
  5
A591
  8
0
 10
3524.3782533536309529
 20
215.6587385479037096
 30
0.0
 11
3524.3267734476949045
 21
215.6605351707248133
 31
0.0
  0
LINE
  5
A592
  8
0
 10
3524.3397096594799223
 20
215.6608609529818068
 30
0.0
 11
3524.2874371493949184
 21
215.6595445354246863
 31
0.0
  0
LINE
  5
A593
  8
0
 10
3524.2874371493949184
 20
215.6595445354246863
 30
0.0
 11
3524.3234186071631484
 21
215.6579286911224074
 31
0.0
  0
LINE
  5
A594
  8
0
 10
3524.3228038273950915
 20
215.657956299464189
 30
0.0
 11
3524.4385932714908449
 21
215.6610083240931033
 31
0.0
  0
LINE
  5
A595
  8
0
 10
3524.3247592908110164
 20
215.6574261300297053
 30
0.0
 11
3524.2870160300690259
 21
215.6591156063514063
 31
0.0
  0
LINE
  5
A596
  8
0
 10
3524.2870160300690259
 20
215.6591156063514063
 30
0.0
 11
3524.2500056419939938
 21
215.6589883583247058
 31
0.0
  0
LINE
  5
A597
  8
0
 10
3524.2500056419939938
 20
215.6589883583247058
 30
0.0
 11
3524.264789599094911
 21
215.6570627967246878
 31
0.0
  0
LINE
  5
A598
  8
0
 10
3524.264789599094911
 20
215.6570627967246878
 30
0.0
 11
3524.4112340300548567
 21
215.6592256409637116
 31
0.0
  0
ARC
  5
A599
  8
0
 10
3524.3630367049318011
 20
215.7423612901172021
 30
0.0
 40
0.0799831835016217
 50
268.6691362062447865
 51
286.1724865614365854
  0
LINE
  5
A59A
  8
0
 10
3524.3616682588281037
 20
215.6623898139627045
 30
0.0
 11
3524.3085836862810538
 21
215.6634606209165099
 31
0.0
  0
ARC
  5
A59B
  8
0
 10
3524.3114953480740041
 20
215.7295513333941983
 30
0.0
 40
0.0661548187980672
 50
264.3211755141705908
 51
284.6361323977308757
  0
LINE
  5
A59C
  8
0
 10
3524.3223032876949219
 20
215.6655432374247141
 30
0.0
 11
3524.385314416294932
 21
215.6655432374247141
 31
0.0
  0
LINE
  5
A59D
  8
0
 10
3524.2177486889941065
 20
215.6655432374247141
 30
0.0
 11
3524.2075200424951618
 21
215.6649249392247043
 31
0.0
  0
LINE
  5
A59E
  8
0
 10
3524.2075200424951618
 20
215.6649249392247043
 30
0.0
 11
3524.2253163341952131
 21
215.6638491943247118
 31
0.0
  0
LINE
  5
A59F
  8
0
 10
3524.2253163341952131
 20
215.6638491943247118
 30
0.0
 11
3524.2533412724951631
 21
215.6655432374247141
 31
0.0
  0
LINE
  5
A5A0
  8
0
 10
3524.2533412724951631
 20
215.6655432374247141
 30
0.0
 11
3524.2177486889941065
 21
215.6655432374247141
 31
0.0
  0
LINE
  5
A5A1
  8
0
 10
3524.3282113194941303
 20
215.6655432374247141
 30
0.0
 11
3524.2592573581951001
 21
215.6655432374247141
 31
0.0
  0
ARC
  5
A5A2
  8
0
 10
3524.2276126759370527
 20
215.931832715908314
 30
0.0
 40
0.2681631448693593
 50
270.1413793168225084
 51
276.7769988480926031
  0
LINE
  5
A5A3
  8
0
 10
3524.2282743770970228
 20
215.6636703874245882
 30
0.0
 11
3524.2597973418937727
 21
215.6617648966247032
 31
0.0
  0
ARC
  5
A5A4
  8
0
 10
3524.260275188389187
 20
216.172773938657997
 30
0.0
 40
0.5110092654512127
 50
269.9464225147436878
 51
277.2213518257439091
  0
LINE
  5
A5A5
  8
0
 10
3524.2844838084952244
 20
215.6597230581247118
 30
0.0
 11
3524.2559322600950509
 21
215.6614489336247118
 31
0.0
  0
LINE
  5
A5A6
  8
0
 10
3524.2559322600950509
 20
215.6614489336247118
 30
0.0
 11
3524.1904722983949796
 21
215.6608367984156018
 31
0.0
  0
LINE
  5
A5A7
  8
0
 10
3524.1944093061952117
 20
215.6608736145248031
 30
0.0
 11
3524.1944093061952117
 21
215.6588807451246907
 31
0.0
  0
LINE
  5
A5A8
  8
0
 10
3524.2844838084952244
 20
215.6597230581247118
 30
0.0
 11
3524.1904722983949796
 21
215.6588439290140116
 31
0.0
  0
LINE
  5
A5A9
  8
0
 10
3524.1904722983949796
 20
215.6610777506660952
 30
0.0
 11
3524.2529782441952193
 21
215.6616274970247105
 31
0.0
  0
LINE
  5
A5AA
  8
0
 10
3524.2529782441952193
 20
215.6616274970247105
 30
0.0
 11
3524.220864219249961
 21
215.6635230756901933
 31
0.0
  0
LINE
  5
A5AB
  8
0
 10
3524.2295446346251993
 20
215.6635936032753875
 30
0.0
 11
3524.1904722983949796
 21
215.6632761440984893
 31
0.0
  0
LINE
  5
A5AC
  8
0
 10
3524.1904722983949796
 20
215.6634822434992884
 30
0.0
 11
3524.2380234369679783
 21
215.6638717330750126
 31
0.0
  0
LINE
  5
A5AD
  8
0
 10
3524.2184972365607791
 20
215.6637117947068134
 30
0.0
 11
3524.1904722983949796
 21
215.6654058377903027
 31
0.0
  0
LINE
  5
A5AE
  8
0
 10
3524.2007009448948338
 20
215.6647875396247116
 30
0.0
 11
3524.1904722983949796
 21
215.6647184480968917
 31
0.0
  0
LINE
  5
A5AF
  8
0
 10
3524.1944093061952117
 20
215.672961468324587
 30
0.0
 11
3524.1944093061952117
 21
215.6749540607245876
 31
0.0
  0
ARC
  5
A5B0
  8
0
 10
3524.1910886654068236
 20
208.5271268044716919
 30
0.0
 40
7.1478280275820048
 50
89.531152809332383
 51
90.0049406936472565
  0
LINE
  5
A5B1
  8
0
 10
3524.249578168800781
 20
215.6747155230453075
 30
0.0
 11
3524.2347942116948616
 21
215.672789961524586
 31
0.0
  0
LINE
  5
A5B2
  8
0
 10
3524.2347942116948616
 20
215.672789961524586
 30
0.0
 11
3524.2347942116948616
 21
215.672789961524586
 31
0.0
  0
LINE
  5
A5B3
  8
0
 10
3524.2347942116948616
 20
215.672789961524586
 30
0.0
 11
3524.1904722983949796
 21
215.6729781880272014
 31
0.0
  0
ARC
  5
A5B4
  8
0
 10
3524.4409705013349594
 20
215.6547146532535066
 30
0.0
 40
0.0133133495568216
 50
56.5122432489069126
 51
87.8012970425662758
  0
LINE
  5
A5B5
  8
0
 10
3524.4414812704949327
 20
215.6680182013249123
 30
0.0
 11
3524.3863067912948281
 21
215.6675022487247873
 31
0.0
  0
ARC
  5
A5B6
  8
0
 10
3524.3832140261229142
 20
215.6515023580031993
 30
0.0
 40
0.0162960639269226
 50
61.4589020733422231
 51
79.0597029567372402
  0
LINE
  5
A5B7
  8
0
 10
3524.4356398547079152
 20
215.6685325626812926
 30
0.0
 11
3524.3822309007950935
 21
215.668033119924786
 31
0.0
  0
LINE
  5
A5B8
  8
0
 10
3524.3822309007950935
 20
215.668033119924786
 30
0.0
 11
3524.3662943626950437
 21
215.6693394607248138
 31
0.0
  0
LINE
  5
A5B9
  8
0
 10
3524.3662943626950437
 20
215.6693394607248138
 30
0.0
 11
3524.4149688526090358
 21
215.6703202144165061
 31
0.0
  0
LINE
  5
A5BA
  8
0
 10
3524.4149688526090358
 20
215.6703202144165061
 30
0.0
 11
3524.4356398547079152
 21
215.6685325626812926
 31
0.0
  0
LINE
  5
A5BB
  8
0
 10
3524.4109607426671573
 20
215.6706126691447025
 30
0.0
 11
3524.3623573547952219
 21
215.6695774438248066
 31
0.0
  0
LINE
  5
A5BC
  8
0
 10
3524.3671241567740253
 20
215.6693561804399053
 30
0.0
 11
3524.3379089875948011
 21
215.6707122777247889
 31
0.0
  0
LINE
  5
A5BD
  8
0
 10
3524.2896321389130208
 20
215.6690274399906002
 30
0.0
 11
3524.3782995095948536
 21
215.672121886624808
 31
0.0
  0
LINE
  5
A5BE
  8
0
 10
3524.3782995095948536
 20
215.672121886624808
 30
0.0
 11
3524.4109607426680668
 21
215.6706126691447025
 31
0.0
  0
LINE
  5
A5BF
  8
0
 10
3524.3782533536309529
 20
215.6728975253458032
 30
0.0
 11
3524.3267734476949045
 21
215.6711009025246994
 31
0.0
  0
LINE
  5
A5C0
  8
0
 10
3524.3397096594799223
 20
215.6707751202677059
 30
0.0
 11
3524.2874371493949184
 21
215.6720915378247128
 31
0.0
  0
LINE
  5
A5C1
  8
0
 10
3524.2874371493949184
 20
215.6720915378247128
 30
0.0
 11
3524.3234186071631484
 21
215.6737073821271053
 31
0.0
  0
LINE
  5
A5C2
  8
0
 10
3524.3228038273950915
 20
215.6736797737852953
 30
0.0
 11
3524.4296854096760399
 21
215.6708625461525912
 31
0.0
  0
LINE
  5
A5C3
  8
0
 10
3524.3258211255988499
 20
215.6742574734199138
 30
0.0
 11
3524.2870160300690259
 21
215.6725204668979927
 31
0.0
  0
LINE
  5
A5C4
  8
0
 10
3524.2870160300690259
 20
215.6725204668979927
 30
0.0
 11
3524.2500056419939938
 21
215.6726477149246932
 31
0.0
  0
LINE
  5
A5C5
  8
0
 10
3524.2500056419939938
 20
215.6726477149246932
 30
0.0
 11
3524.264789599094911
 21
215.6745732765247112
 31
0.0
  0
LINE
  5
A5C6
  8
0
 10
3524.264789599094911
 20
215.6745732765247112
 30
0.0
 11
3524.3960909171860294
 21
215.6726340815854996
 31
0.0
  0
ARC
  5
A5C7
  8
0
 10
3524.3630367049318011
 20
215.5892747831323959
 30
0.0
 40
0.0799831835016217
 50
73.8275134386184817
 51
91.3308637938073247
  0
LINE
  5
A5C8
  8
0
 10
3524.3616682588281037
 20
215.6692462592868083
 30
0.0
 11
3524.3085836862810538
 21
215.6681754523328891
 31
0.0
  0
ARC
  5
A5C9
  8
0
 10
3524.3114953480740041
 20
215.6020847398552007
 30
0.0
 40
0.0661548187980672
 50
75.3638676023232392
 51
95.6788244859078816
  0
LINE
  5
A5CA
  8
0
 10
3524.3223032876949219
 20
215.6660928358247986
 30
0.0
 11
3524.385314416294932
 21
215.6660928358247986
 31
0.0
  0
LINE
  5
A5CB
  8
0
 10
3524.2177486889941065
 20
215.6660928358245997
 30
0.0
 11
3524.2075200424951618
 21
215.6667111340246095
 31
0.0
  0
LINE
  5
A5CC
  8
0
 10
3524.2075200424951618
 20
215.6667111340246095
 30
0.0
 11
3524.2253163341952131
 21
215.667786878924602
 31
0.0
  0
LINE
  5
A5CD
  8
0
 10
3524.2253163341952131
 20
215.667786878924602
 30
0.0
 11
3524.2533412724951631
 21
215.6660928358247133
 31
0.0
  0
LINE
  5
A5CE
  8
0
 10
3524.2533412724951631
 20
215.6660928358247133
 30
0.0
 11
3524.2177486889941065
 21
215.6660928358245997
 31
0.0
  0
LINE
  5
A5CF
  8
0
 10
3524.3282113194941303
 20
215.6660928358247986
 30
0.0
 11
3524.2592573581951001
 21
215.6660928358247133
 31
0.0
  0
ARC
  5
A5D0
  8
0
 10
3524.2276126759379622
 20
215.3998033573411135
 30
0.0
 40
0.2681631448693593
 50
83.2230011519859829
 51
89.8586206832296455
  0
LINE
  5
A5D1
  8
0
 10
3524.2282743770970228
 20
215.6679656858248109
 30
0.0
 11
3524.2597973418937727
 21
215.6698711766246959
 31
0.0
  0
ARC
  5
A5D2
  8
0
 10
3524.2602751883900964
 20
215.1588621345914021
 30
0.0
 40
0.5110092654512127
 50
82.7786481743346485
 51
90.053577485308395
  0
LINE
  5
A5D3
  8
0
 10
3524.2844838084952244
 20
215.6719130151246873
 30
0.0
 11
3524.2559322600950509
 21
215.6701871396246872
 31
0.0
  0
LINE
  5
A5D4
  8
0
 10
3524.2559322600950509
 20
215.6701871396246872
 30
0.0
 11
3524.1904722983949796
 21
215.6707992748337119
 31
0.0
  0
LINE
  5
A5D5
  8
0
 10
3524.1944093061952117
 20
215.6707624587245959
 30
0.0
 11
3524.1944093061952117
 21
215.6727553281245946
 31
0.0
  0
LINE
  5
A5D6
  8
0
 10
3524.2844838084952244
 20
215.6719130151246873
 30
0.0
 11
3524.1904722983949796
 21
215.6727921442353022
 31
0.0
  0
LINE
  5
A5D7
  8
0
 10
3524.1904722983949796
 20
215.6705583225831901
 30
0.0
 11
3524.2529782441952193
 21
215.6700085762246033
 31
0.0
  0
LINE
  5
A5D8
  8
0
 10
3524.2529782441952193
 20
215.6700085762246033
 30
0.0
 11
3524.220864219249961
 21
215.668112997559092
 31
0.0
  0
LINE
  5
A5D9
  8
0
 10
3524.2295446346251993
 20
215.6680424699740115
 30
0.0
 11
3524.1904722983949796
 21
215.668359929150796
 31
0.0
  0
LINE
  5
A5DA
  8
0
 10
3524.1904722983949796
 20
215.6681538297499969
 30
0.0
 11
3524.2380234369679783
 21
215.6677643401743865
 31
0.0
  0
LINE
  5
A5DB
  8
0
 10
3524.2184972365607791
 20
215.667924278542614
 30
0.0
 11
3524.1904722983949796
 21
215.6662302354590963
 31
0.0
  0
LINE
  5
A5DC
  8
0
 10
3524.2007009448948338
 20
215.6668485336246022
 30
0.0
 11
3524.1904722983949796
 21
215.6669176251523936
 31
0.0
  0
ARC
  5
A5DD
  8
0
 10
3524.3679591487248217
 20
215.9701367126442904
 30
0.0
 40
0.5800838906973536
 50
200.2056565221386109
 51
203.5385998052138063
  0
ARC
  5
A5DE
  8
0
 10
3523.8270267756379326
 20
215.767534115854005
 30
0.0
 40
0.004119305312157
 50
93.3404766084236286
 51
146.9436893998484095
  0
ARC
  5
A5DF
  8
0
 10
3523.9646943066290987
 20
214.59614124324861
 30
0.0
 40
1.183567032540163
 50
90.7193661038669745
 51
96.6912226605949456
  0
ARC
  5
A5E0
  8
0
 10
3524.1797787623349905
 20
207.3754761654303138
 30
0.0
 40
8.4072839663494925
 50
89.9271233559574483
 51
91.5672683798868974
  0
LINE
  5
A5E1
  8
0
 10
3516.7785825341138661
 20
211.3145495029247058
 30
0.0
 11
3513.3558266283807825
 21
211.3145494595090099
 31
0.0
  0
ARC
  5
A5E2
  8
0
 10
3513.3558266279469535
 20
211.283053397572786
 30
0.0
 40
0.0314960619519678
 50
89.9999992114422867
 51
180.0000017246117068
  0
LINE
  5
A5E3
  8
0
 10
3513.3243305659948419
 20
211.2830533966246946
 30
0.0
 11
3513.3243305659948419
 21
210.9917148572247072
 31
0.0
  0
ARC
  5
A5E4
  8
0
 10
3513.3558266262489269
 20
210.991714854478488
 30
0.0
 40
0.0314960602537156
 50
179.9999950041226953
 51
270.0000038779114107
  0
LINE
  5
A5E5
  8
0
 10
3513.3558266283807825
 20
210.9602187942246871
 30
0.0
 11
3516.7785825344940349
 21
210.9602187942246871
 31
0.0
  0
LINE
  5
A5E6
  8
0
 10
3515.9314565501949801
 20
210.960218811797489
 30
0.0
 11
3515.9314565501949801
 21
210.9484077530520096
 31
0.0
  0
LINE
  5
A5E7
  8
0
 10
3516.7787478669570191
 20
210.9484077706246978
 30
0.0
 11
3515.8541652335329672
 21
210.9484077706246978
 31
0.0
  0
ARC
  5
A5E8
  8
0
 10
3515.8558266289951462
 20
210.9169555568772125
 30
0.0
 40
0.0314960629999884
 50
93.023715950583977
 51
180.0000000000129887
  0
LINE
  5
A5E9
  8
0
 10
3515.8243305659948419
 20
210.9169555568772125
 30
0.0
 11
3515.8243305659948419
 21
210.0940770619247076
 31
0.0
  0
ARC
  5
A5EA
  8
0
 10
3515.7928345029940829
 20
210.0940770619247076
 30
0.0
 40
0.0314960630000001
 50
270.0
 51
0.0000000000016284
  0
LINE
  5
A5EB
  8
0
 10
3525.4188187548948008
 20
210.0625809990247888
 30
0.0
 11
3522.9621258415950251
 21
210.0625809990247888
 31
0.0
  0
LINE
  5
A5EC
  8
0
 10
3517.5448030069951528
 20
210.0625809990247888
 30
0.0
 11
3515.0881100934948336
 21
210.0625809990247888
 31
0.0
  0
ARC
  5
A5ED
  8
0
 10
3515.0881100934948336
 20
210.0310849360247971
 30
0.0
 40
0.0314960629999988
 50
90.0
 51
180.0000000000391083
  0
LINE
  5
A5EE
  8
0
 10
3515.056614030494984
 20
210.0310849360247119
 30
0.0
 11
3515.056614030494984
 21
209.8972266682251018
 31
0.0
  0
LINE
  5
A5EF
  8
0
 10
3525.4503148178951051
 20
209.8657306056466041
 30
0.0
 11
3522.9306297785951756
 21
209.8657306055440017
 31
0.0
  0
LINE
  5
A5F0
  8
0
 10
3517.5448030069960623
 20
209.8657306053246998
 30
0.0
 11
3515.0881100934948336
 21
209.8657306052247122
 31
0.0
  0
ARC
  5
A5F1
  8
0
 10
3515.0881100934948336
 20
209.8972266682245902
 30
0.0
 40
0.031496062999862
 50
179.9999999997492068
 51
270.000000000104194
  0
LINE
  5
A5F2
  8
0
 10
3516.7014565502950063
 20
210.960218811797489
 30
0.0
 11
3516.7014565502950063
 21
210.9484077530520096
 31
0.0
  0
ARC
  5
A5F3
  8
0
 10
3516.7772024218238585
 20
210.9170655439822895
 30
0.0
 40
0.0313803054728026
 50
359.7991794621632948
 51
87.1771046838628081
  0
LINE
  5
A5F4
  8
0
 10
3516.8085825345451667
 20
210.9169555568772125
 30
0.0
 11
3516.8085825345451667
 21
210.0940770619247076
 31
0.0
  0
ARC
  5
A5F5
  8
0
 10
3516.8400569270220331
 20
210.094055391401298
 30
0.0
 40
0.0314743999367723
 50
179.9605511262479922
 51
270.0394487820802851
  0
ARC
  5
A5F6
  8
0
 10
3517.5448030069951528
 20
210.0310849360247971
 30
0.0
 40
0.0314960629999988
 50
359.9999999999608917
 51
90.0
  0
LINE
  5
A5F7
  8
0
 10
3517.5762990699950024
 20
210.0310849360247119
 30
0.0
 11
3517.5762990699950024
 21
209.8972266682251018
 31
0.0
  0
ARC
  5
A5F8
  8
0
 10
3517.5448030069951528
 20
209.8972266682245902
 30
0.0
 40
0.031496062999862
 50
269.999999999895806
 51
0.0000000002507804
  0
ARC
  5
A5F9
  8
0
 10
3516.7787745601299321
 20
210.9900267686396091
 30
0.0
 40
0.0298085929315959
 50
269.6309005735698747
 51
0.3690993301934635
  0
LINE
  5
A5FA
  8
0
 10
3516.8085825345451667
 20
210.9902187942246883
 30
0.0
 11
3516.8085825345451667
 21
211.2845495029247047
 31
0.0
  0
ARC
  5
A5FB
  8
0
 10
3516.7785825344590194
 20
211.2845495028387006
 30
0.0
 40
0.0300000000860079
 50
0.0000001642660313
 51
89.9999999319701232
  0
ARC
  5
A5FC
  8
0
 10
3523.2798418486049741
 20
215.5212853318278121
 30
0.0
 40
0.0342550146517335
 50
180.8277315866208141
 51
249.1573859666713133
  0
ARC
  5
A5FD
  8
0
 10
3523.265714609630777
 20
215.7569873716454083
 30
0.0
 40
0.0812202003798121
 50
91.1173091088045481
 51
104.3462746351843009
  0
ARC
  5
A5FE
  8
0
 10
3523.3816890608300127
 20
213.3174377600699927
 30
0.0
 40
2.5234941096789418
 50
89.6933082390134189
 51
92.6701182027277639
  0
LINE
  5
A5FF
  8
0
 10
3522.9306297785951756
 20
209.8657306053246998
 30
0.0
 11
3522.9306297785951756
 21
210.0310849360247119
 31
0.0
  0
ARC
  5
A600
  8
0
 10
3522.9621258415950251
 20
210.0310849360247119
 30
0.0
 40
0.0314960630000001
 50
90.0
 51
180.0
  0
ARC
  5
A601
  8
0
 10
3523.2770864714948402
 20
210.0940770619247076
 30
0.0
 40
0.0314960630000001
 50
180.0
 51
270.0
  0
LINE
  5
A602
  8
0
 10
3523.2455904084949907
 20
210.0940770619247076
 30
0.0
 11
3523.2455904084949907
 21
215.457762367724996
 31
0.0
  0
ARC
  5
A603
  8
0
 10
3523.2784749877459944
 20
215.457762367724996
 30
0.0
 40
0.0328845792512316
 50
146.0677810871113138
 51
180.0000000000015916
  0
ARC
  5
A604
  8
0
 10
3523.2805366995248733
 20
215.456267236355302
 30
0.0
 40
0.0354298917612848
 50
111.322404448728193
 51
145.9228243890306089
  0
ARC
  5
A605
  8
0
 10
3523.4619124965979609
 20
214.1861949351124963
 30
0.0
 40
1.3204402285689809
 50
93.1635448436909144
 51
97.1132895064378943
  0
ARC
  5
A606
  8
0
 10
3523.999401553034204
 20
203.2737782956924946
 30
0.0
 40
12.2460646115705298
 50
90.5499495166226467
 51
92.8568769131564409
  0
ARC
  5
A607
  8
0
 10
3524.1876072196869245
 20
190.6285951517282058
 30
0.0
 40
24.892561408843541
 50
89.9934053829570502
 51
90.7037622403227033
  0
ARC
  5
A608
  8
0
 10
3523.3117180079611899
 20
215.3703543305018115
 30
0.0
 40
0.1268189420390555
 50
96.0279852665276934
 51
110.3318708039464013
  0
LINE
  5
A609
  8
0
 10
3525.1353541879948352
 20
215.5207904791247984
 30
0.0
 11
3525.1353541879948352
 21
216.3227632465952865
 31
0.0
  0
ARC
  5
A60A
  8
0
 10
3525.1007526356038397
 20
216.3213404359418917
 30
0.0
 40
0.0346307929042853
 50
2.354666879584749
 51
82.1436343317913895
  0
ARC
  5
A60B
  8
0
 10
3524.9355162501451559
 20
212.6312022146537117
 30
0.0
 40
3.7283203550174679
 50
87.3870420191865662
 51
89.2280309368810265
  0
ARC
  5
A60C
  8
0
 10
3524.3119542187710067
 20
215.8044052545066052
 30
0.0
 40
0.2118718142993296
 50
319.147891168046101
 51
341.8686658205484719
  0
ARC
  5
A60D
  8
0
 10
3524.2093569822350219
 20
209.4586570357350013
 30
0.0
 40
6.2911088933262667
 50
87.7977855664248494
 51
90.1719910326384166
  0
ARC
  5
A60E
  8
0
 10
3524.2157797439949718
 20
209.2047650985132066
 30
0.0
 40
6.5461205899645716
 50
87.6443890010014144
 51
90.221507292252312
  0
ARC
  5
A60F
  8
0
 10
3524.4465659128818515
 20
215.4083385546780107
 30
0.0
 40
0.3368115072990436
 50
78.5711041483263557
 51
89.2283603622712036
  0
ARC
  5
A610
  8
0
 10
3524.4754870033298175
 20
215.3992797412367963
 30
0.0
 40
0.346200544350821
 50
78.4505141878873786
 51
88.452615962117477
  0
ARC
  5
A611
  8
0
 10
3524.4795657999920877
 20
216.0448097365321871
 30
0.0
 40
0.3132082604046815
 50
275.8739179995936865
 51
282.0216601300551815
  0
ARC
  5
A612
  8
0
 10
3524.201072775098055
 20
207.8543872814647102
 30
0.0
 40
7.9313334473864563
 50
87.3435433170956941
 51
90.0765776359636732
  0
ARC
  5
A613
  8
0
 10
3524.536189986934005
 20
215.1853049450247113
 30
0.0
 40
0.5927830909491778
 50
82.147714512102425
 51
86.8591773851111952
  0
ARC
  5
A614
  8
0
 10
3524.6166335542379784
 20
215.7620514537331076
 30
0.0
 40
0.0104924196155389
 50
48.8133427554621235
 51
87.0376945909224844
  0
ARC
  5
A615
  8
0
 10
3524.557749733377932
 20
216.0292583246962863
 30
0.0
 40
0.2675270840998243
 50
269.2732987925879797
 51
284.2368651455167878
  0
LINE
  5
A616
  8
0
 10
3524.190472298244913
 20
215.7940482340119956
 30
0.0
 11
3524.4723111520647763
 21
215.7912204291380931
 31
0.0
  0
LINE
  5
A617
  8
0
 10
3524.4723111520647763
 20
215.7912204291380931
 30
0.0
 11
3524.6024574266048148
 21
215.7861637946207907
 31
0.0
  0
LINE
  5
A618
  8
0
 10
3524.6235786903271219
 20
215.7850441305697871
 30
0.0
 11
3524.6235429617950103
 21
215.7699477159247863
 31
0.0
  0
ARC
  5
A619
  8
0
 10
3524.6053871582521424
 20
216.0860623835482954
 30
0.0
 40
0.315691346639847
 50
273.3224726255658084
 51
280.4326790694697138
  0
ARC
  5
A61A
  8
0
 10
3524.6618998687072235
 20
215.7821064558210935
 30
0.0
 40
0.0065491272129883
 50
275.7198129648281224
 51
319.0821738688039773
  0
ARC
  5
A61B
  8
0
 10
3524.5977245026660967
 20
215.4971074042045984
 30
0.0
 40
0.2890951355686534
 50
76.166252769998863
 51
89.0619396582357155
  0
ARC
  5
A61C
  8
0
 10
3524.0129854477650042
 20
215.9701367126442904
 30
0.0
 40
0.5800838906973536
 50
336.4614001947862221
 51
339.7943434778613891
  0
ARC
  5
A61D
  8
0
 10
3524.5539178208518933
 20
215.767534115854005
 30
0.0
 40
0.004119305312157
 50
33.0563106001515905
 51
86.6595233915763572
  0
ARC
  5
A61E
  8
0
 10
3524.416250289861182
 20
214.59614124324861
 30
0.0
 40
1.183567032540163
 50
83.308777339405097
 51
89.2806338961330113
  0
ARC
  5
A61F
  8
0
 10
3524.2011658341548355
 20
207.3754761654303138
 30
0.0
 40
8.4072839663494925
 50
88.4327316201131026
 51
90.0728766440425517
  0
ARC
  5
A620
  8
0
 10
3525.1011027478848519
 20
215.5212853318278121
 30
0.0
 40
0.0342550146517315
 50
290.842614033328573
 51
359.1722684133824259
  0
ARC
  5
A621
  8
0
 10
3525.1152299868590489
 20
215.7569873716454083
 30
0.0
 40
0.0812202003798121
 50
75.6537253648156565
 51
88.8826908911954376
  0
ARC
  5
A622
  8
0
 10
3524.9992555356589037
 20
213.3174377600699927
 30
0.0
 40
2.5234941096789418
 50
87.3298817972722361
 51
90.3066917609865953
  0
LINE
  5
A623
  8
0
 10
3525.4503148178951051
 20
209.8657306053246998
 30
0.0
 11
3525.4503148178951051
 21
210.0310849360247119
 31
0.0
  0
ARC
  5
A624
  8
0
 10
3525.4188187548948008
 20
210.0310849360247119
 30
0.0
 40
0.0314960630000001
 50
0.0
 51
90.0
  0
ARC
  5
A625
  8
0
 10
3525.1038581249949857
 20
210.0940770619247076
 30
0.0
 40
0.0314960630000001
 50
270.0
 51
0.0
  0
LINE
  5
A626
  8
0
 10
3525.1353541879948352
 20
210.0940770619247076
 30
0.0
 11
3525.1353541879948352
 21
215.457762367724996
 31
0.0
  0
ARC
  5
A627
  8
0
 10
3525.102469608742922
 20
215.457762367724996
 30
0.0
 40
0.0328845792512316
 50
359.9999999999984084
 51
33.9322189128886791
  0
ARC
  5
A628
  8
0
 10
3525.1004078969640432
 20
215.456267236355302
 30
0.0
 40
0.0354298917612848
 50
34.0771756109694124
 51
68.6775955512717502
  0
ARC
  5
A629
  8
0
 10
3524.9190320998909556
 20
214.1861949351124963
 30
0.0
 40
1.3204402285689809
 50
82.8867104935621342
 51
86.8364551563090856
  0
ARC
  5
A62A
  8
0
 10
3524.3815430434551672
 20
203.2737782956924946
 30
0.0
 40
12.2460646115705298
 50
87.1431230868435449
 51
89.4500504833773533
  0
ARC
  5
A62B
  8
0
 10
3524.1933373768029014
 20
190.6285951517282058
 30
0.0
 40
24.892561408843541
 50
89.2962377596772967
 51
90.006594617042964
  0
ARC
  5
A62C
  8
0
 10
3525.0692265885290908
 20
215.3703543305018115
 30
0.0
 40
0.1268189420390555
 50
69.6681291960535845
 51
83.9720147334723066
  0
LINE
  5
A62D
  8
0
 10
3523.3951967076950496
 20
215.8408957179246954
 30
0.0
 11
3524.9857478887947764
 21
215.8408957179246954
 31
0.0
  0
LINE
  5
A62E
  8
0
 10
3523.3951967076950496
 20
216.3591841690247009
 30
0.0
 11
3524.9857478887947764
 21
216.3591841690247009
 31
0.0
  0
LINE
  5
A62F
  8
0
 10
3531.6023620623750503
 20
211.3145495029247058
 30
0.0
 11
3535.0251179681090434
 21
211.3145494595090099
 31
0.0
  0
ARC
  5
A630
  8
0
 10
3535.0251179685428724
 20
211.283053397572786
 30
0.0
 40
0.0314960619519678
 50
359.9999982753881795
 51
90.0000007885577276
  0
LINE
  5
A631
  8
0
 10
3535.056614030494984
 20
211.2830533966246946
 30
0.0
 11
3535.056614030494984
 21
210.9917148572247072
 31
0.0
  0
ARC
  5
A632
  8
0
 10
3535.025117970240899
 20
210.991714854478488
 30
0.0
 40
0.0314960602537156
 50
269.9999961220885893
 51
0.000004995877283
  0
LINE
  5
A633
  8
0
 10
3535.0251179681090434
 20
210.9602187942246871
 30
0.0
 11
3531.6023620619948815
 21
210.9602187942246871
 31
0.0
  0
LINE
  5
A634
  8
0
 10
3532.4494880462948458
 20
210.960218811797489
 30
0.0
 11
3532.4494880462948458
 21
210.9484077530520096
 31
0.0
  0
LINE
  5
A635
  8
0
 10
3531.6021967295328068
 20
210.9484077706246978
 30
0.0
 11
3532.5267793629568587
 21
210.9484077706246978
 31
0.0
  0
ARC
  5
A636
  8
0
 10
3532.5251179674951345
 20
210.9169555568772125
 30
0.0
 40
0.0314960629999884
 50
359.9999999999869829
 51
86.9762840494160088
  0
LINE
  5
A637
  8
0
 10
3532.5566140304940745
 20
210.9169555568772125
 30
0.0
 11
3532.5566140304940745
 21
210.0940770619247076
 31
0.0
  0
ARC
  5
A638
  8
0
 10
3532.5881100934948336
 20
210.0940770619247076
 30
0.0
 40
0.0314960630000001
 50
179.9999999999984084
 51
270.0
  0
LINE
  5
A639
  8
0
 10
3530.8361415894951278
 20
210.0625809990247888
 30
0.0
 11
3533.2928345029949924
 21
210.0625809990247888
 31
0.0
  0
ARC
  5
A63A
  8
0
 10
3533.2928345029949924
 20
210.0310849360247971
 30
0.0
 40
0.0314960629999988
 50
359.9999999999608917
 51
90.0
  0
LINE
  5
A63B
  8
0
 10
3533.3243305659948419
 20
210.0310849360247119
 30
0.0
 11
3533.3243305659948419
 21
209.8972266682251018
 31
0.0
  0
LINE
  5
A63C
  8
0
 10
3530.8361415894942184
 20
209.8657306053246998
 30
0.0
 11
3533.2928345029949924
 21
209.8657306052247122
 31
0.0
  0
ARC
  5
A63D
  8
0
 10
3533.2928345029949924
 20
209.8972266682245902
 30
0.0
 40
0.031496062999862
 50
269.999999999895806
 51
0.0000000002507804
  0
LINE
  5
A63E
  8
0
 10
3531.6794880461948196
 20
210.960218811797489
 30
0.0
 11
3531.6794880461948196
 21
210.9484077530520096
 31
0.0
  0
ARC
  5
A63F
  8
0
 10
3531.6037421746659675
 20
210.9170655439822895
 30
0.0
 40
0.0313803054728026
 50
92.8228953161371777
 51
180.2008205378367052
  0
LINE
  5
A640
  8
0
 10
3531.572362061945114
 20
210.9169555568772125
 30
0.0
 11
3531.572362061945114
 21
210.0940770619247076
 31
0.0
  0
ARC
  5
A641
  8
0
 10
3531.5408876694677929
 20
210.094055391401298
 30
0.0
 40
0.0314743999367723
 50
269.9605512179196012
 51
0.0394488737520043
  0
ARC
  5
A642
  8
0
 10
3530.8361415894951278
 20
210.0310849360247971
 30
0.0
 40
0.0314960629999988
 50
90.0
 51
180.0000000000391083
  0
LINE
  5
A643
  8
0
 10
3530.8046455264948236
 20
210.0310849360247119
 30
0.0
 11
3530.8046455264948236
 21
209.8972266682251018
 31
0.0
  0
ARC
  5
A644
  8
0
 10
3530.8361415894951278
 20
209.8972266682245902
 30
0.0
 40
0.031496062999862
 50
179.9999999997492068
 51
270.000000000104194
  0
ARC
  5
A645
  8
0
 10
3531.6021700363598939
 20
210.9900267686396091
 30
0.0
 40
0.0298085929315959
 50
179.6309006698064934
 51
270.3690994264301253
  0
LINE
  5
A646
  8
0
 10
3531.572362061945114
 20
210.9902187942246883
 30
0.0
 11
3531.572362061945114
 21
211.2845495029247047
 31
0.0
  0
ARC
  5
A647
  8
0
 10
3531.6023620620308066
 20
211.2845495028387006
 30
0.0
 40
0.0300000000860079
 50
90.0000000680298768
 51
179.9999998357340019
  0
ENDSEC
  0
EOF
