  0
SECTION
  2
HEADER
  9
$ACADVER
  1
AC1009
  9
$INSBASE
 10
3482.8117462950908703
 20
200.7202170234270966
 30
0.0
  9
$EXTMIN
 10
3473.4269974175790594
 20
200.7120833414452932
 30
-0.0015258207003583
  9
$EXTMAX
 10
3484.5924915816822249
 20
211.1676833853422011
 30
0.0000000349246037
  9
$LIMMIN
 10
0.0
 20
0.0
  9
$LIMMAX
 10
11.6929133858000007
 20
8.2677165353999982
  9
$ORTHOMODE
 70
     0
  9
$REGENMODE
 70
     1
  9
$FILLMODE
 70
     1
  9
$QTEXTMODE
 70
     0
  9
$MIRRTEXT
 70
     0
  9
$DRAGMODE
 70
     2
  9
$LTSCALE
 40
0.6431102362
  9
$OSMODE
 70
  2047
  9
$ATTMODE
 70
     1
  9
$TEXTSIZE
 40
0.2
  9
$TRACEWID
 40
0.05
  9
$TEXTSTYLE
  7
STANDARD
  9
$CLAYER
  8
0
  9
$CELTYPE
  6
BYLAYER
  9
$CECOLOR
 62
   256
  9
$DIMSCALE
 40
1.0
  9
$DIMASZ
 40
0.1875
  9
$DIMEXO
 40
0.0625
  9
$DIMDLI
 40
0.4443307087
  9
$DIMRND
 40
0.0
  9
$DIMDLE
 40
0.0
  9
$DIMEXE
 40
0.125
  9
$DIMTP
 40
0.01
  9
$DIMTM
 40
0.01
  9
$DIMTXT
 40
2.0
  9
$DIMCEN
 40
0.1052362205
  9
$DIMTSZ
 40
0.0
  9
$DIMTOL
 70
     1
  9
$DIMLIM
 70
     0
  9
$DIMTIH
 70
     1
  9
$DIMTOH
 70
     1
  9
$DIMSE1
 70
     0
  9
$DIMSE2
 70
     0
  9
$DIMTAD
 70
     0
  9
$DIMZIN
 70
     0
  9
$DIMBLK
  1

  9
$DIMASO
 70
     1
  9
$DIMSHO
 70
     1
  9
$DIMPOST
  1
\X
  9
$DIMAPOST
  1

  9
$DIMALT
 70
     1
  9
$DIMALTD
 70
     2
  9
$DIMALTF
 40
25.3999999999999986
  9
$DIMLFAC
 40
1.0
  9
$DIMTOFL
 70
     0
  9
$DIMTVP
 40
0.0
  9
$DIMTIX
 70
     0
  9
$DIMSOXD
 70
     0
  9
$DIMSAH
 70
     0
  9
$DIMBLK1
  1

  9
$DIMBLK2
  1

  9
$DIMSTYLE
  2
STANDARD
  9
$DIMCLRD
 70
     0
  9
$DIMCLRE
 70
     0
  9
$DIMCLRT
 70
     0
  9
$DIMTFAC
 40
1.0
  9
$DIMGAP
 40
0.09
  9
$LUNITS
 70
     2
  9
$LUPREC
 70
     4
  9
$SKETCHINC
 40
0.1
  9
$FILLETRAD
 40
0.0
  9
$AUNITS
 70
     0
  9
$AUPREC
 70
     0
  9
$MENU
  1
.
  9
$ELEVATION
 40
0.0
  9
$PELEVATION
 40
0.0
  9
$THICKNESS
 40
0.0
  9
$LIMCHECK
 70
     0
  9
$BLIPMODE
 70
     0
  9
$CHAMFERA
 40
0.0
  9
$CHAMFERB
 40
0.0
  9
$SKPOLY
 70
     0
  9
$TDCREATE
 40
2458060.468368056230247
  9
$TDUPDATE
 40
2459029.466944444924593
  9
$TDINDWG
 40
0.714509375
  9
$TDUSRTIMER
 40
0.714509375
  9
$USRTIMER
 70
     1
  9
$ANGBASE
 50
0.0
  9
$ANGDIR
 70
     0
  9
$PDMODE
 70
     0
  9
$PDSIZE
 40
0.3125
  9
$PLINEWID
 40
0.0
  9
$COORDS
 70
     1
  9
$SPLFRAME
 70
     0
  9
$SPLINETYPE
 70
     6
  9
$SPLINESEGS
 70
     8
  9
$ATTDIA
 70
     1
  9
$ATTREQ
 70
     1
  9
$HANDLING
 70
     1
  9
$HANDSEED
  5
EDB9
  9
$SURFTAB1
 70
     6
  9
$SURFTAB2
 70
     6
  9
$SURFTYPE
 70
     6
  9
$SURFU
 70
     6
  9
$SURFV
 70
     6
  9
$UCSNAME
  2

  9
$UCSORG
 10
0.0
 20
0.0
 30
0.0
  9
$UCSXDIR
 10
1.0
 20
0.0
 30
0.0
  9
$UCSYDIR
 10
0.0
 20
1.0
 30
0.0
  9
$PUCSNAME
  2

  9
$PUCSORG
 10
0.0
 20
0.0
 30
0.0
  9
$PUCSXDIR
 10
1.0
 20
0.0
 30
0.0
  9
$PUCSYDIR
 10
0.0
 20
1.0
 30
0.0
  9
$USERI1
 70
     0
  9
$USERI2
 70
     0
  9
$USERI3
 70
     0
  9
$USERI4
 70
     0
  9
$USERI5
 70
     0
  9
$USERR1
 40
0.0
  9
$USERR2
 40
0.0
  9
$USERR3
 40
0.0
  9
$USERR4
 40
0.0
  9
$USERR5
 40
0.0
  9
$WORLDVIEW
 70
     1
  9
$SHADEDGE
 70
     3
  9
$SHADEDIF
 70
    70
  9
$TILEMODE
 70
     1
  9
$MAXACTVP
 70
    64
  9
$PLIMCHECK
 70
     0
  9
$PEXTMIN
 10
1.0000000000000000E+20
 20
1.0000000000000000E+20
 30
1.0000000000000000E+20
  9
$PEXTMAX
 10
-1.0000000000000000E+20
 20
-1.0000000000000000E+20
 30
-1.0000000000000000E+20
  9
$PLIMMIN
 10
0.0
 20
0.0
  9
$PLIMMAX
 10
12.0
 20
9.0
  9
$UNITMODE
 70
     0
  9
$VISRETAIN
 70
     1
  9
$PLINEGEN
 70
     0
  9
$PSLTSCALE
 70
     1
  0
ENDSEC
  0
SECTION
  2
TABLES
  0
TABLE
  2
VPORT
 70
     1
  0
VPORT
  2
*ACTIVE
 70
     0
 10
0.0
 20
0.0
 11
1.0
 21
1.0
 12
-3.8023892894325408
 22
-0.4641777424898806
 13
0.0
 23
0.0
 14
1.0
 24
1.0
 15
0.0
 25
0.0
 16
0.0
 26
0.0
 36
32.8147386803597172
 17
3482.8121337890629547
 27
206.4040611058836134
 37
0.0
 40
10.5426091982151409
 41
2.6486111111111108
 42
50.0
 43
0.0
 44
0.0
 50
0.0
 51
0.0
 71
     0
 72
   100
 73
     1
 74
     1
 75
     0
 76
     0
 77
     0
 78
     0
  0
ENDTAB
  0
TABLE
  2
LTYPE
 70
     2
  0
LTYPE
  2
CONTINUOUS
 70
     0
  3
Solid line
 72
    65
 73
     0
 40
0.0
  0
LTYPE
  2
PHANTOM2
 70
     0
  3
___ _ _ ___ _ _ ___ _ _ ___ _ _
 72
    65
 73
     6
 40
1.25
 49
0.625
 49
-0.125
 49
0.125
 49
-0.125
 49
0.125
 49
-0.125
  0
ENDTAB
  0
TABLE
  2
LAYER
 70
     2
  0
LAYER
  2
0
 70
     0
 62
   255
  6
CONTINUOUS
  0
LAYER
  2
DEFPOINTS
 70
     0
 62
     7
  6
CONTINUOUS
  0
ENDTAB
  0
TABLE
  2
STYLE
 70
     1
  0
STYLE
  2
STANDARD
 70
     0
 40
0.0
 41
0.8
 50
0.0
 71
     0
 42
0.2
  3
txt
  4

  0
ENDTAB
  0
TABLE
  2
VIEW
 70
     0
  0
ENDTAB
  0
TABLE
  2
UCS
 70
     0
  0
ENDTAB
  0
TABLE
  2
APPID
 70
     9
  0
APPID
  2
ACAD
 70
     0
  0
APPID
  2
ACAD_MLEADERVER
 70
     0
  0
APPID
  2
ACAD_EXEMPT_FROM_CAD_STANDARDS
 70
     0
  0
APPID
  2
ACAD_NAV_VCDISPLAY
 70
     0
  0
APPID
  2
ACAECLAYERSTANDARD
 70
     0
  0
APPID
  2
ACCMTRANSPARENCY
 70
     0
  0
APPID
  2
ACAD_DSTYLE_DIMJAG
 70
     0
  0
APPID
  2
ACAD_DSTYLE_DIMTALN
 70
     0
  0
APPID
  2
ACDBATTR
 70
     0
  0
ENDTAB
  0
TABLE
  2
DIMSTYLE
 70
     1
  0
DIMSTYLE
  2
STANDARD
 70
     0
  3

  4

  5

  6

  7

 40
1.0
 41
0.1875
 42
0.0625
 43
0.38
 44
0.125
 45
0.0
 46
0.0
 47
0.01
 48
0.01
140
0.15625
141
0.09
142
0.0
143
25.3999999999999986
144
1.0
145
0.0
146
1.0
147
0.09
 71
     1
 72
     0
 73
     1
 74
     1
 75
     0
 76
     0
 77
     0
 78
     4
170
     0
171
     2
172
     0
173
     0
174
     0
175
     0
176
     0
177
     0
178
     0
  0
ENDTAB
  0
ENDSEC
  0
SECTION
  2
BLOCKS
  0
BLOCK
  8
0
  2
$MODEL_SPACE
 70
     0
 10
0.0
 20
0.0
 30
0.0
  3
$MODEL_SPACE
  1

  0
ENDBLK
  5
21
  8
0
  0
BLOCK
 67
     1
  8
0
  2
$PAPER_SPACE
 70
     0
 10
0.0
 20
0.0
 30
0.0
  3
$PAPER_SPACE
  1

  0
ENDBLK
  5
1D
 67
     1
  8
0
  0
BLOCK
  8
0
  2
_FILLED
 70
     0
 10
0.0
 20
0.0
 30
0.0
  3
_FILLED
  1

  0
SOLID
  5
D48F
  8
0
  6
BYBLOCK
 62
     0
 10
0.0
 20
0.0
 30
0.0
 11
-1.0
 21
0.1666666667
 31
0.0
 12
-1.0
 22
-0.1666666667
 32
0.0
 13
-1.0
 23
-0.1666666667
 33
0.0
  0
ENDBLK
  5
D490
  8
0
  6
BYBLOCK
 62
     0
  0
ENDSEC
  0
SECTION
  2
ENTITIES
  0
ATTDEF
  5
3930
  8
DEFPOINTS
 10
3482.8122103666742078
 20
200.7240074249833981
 30
0.0
 40
0.001
  1
K-73078T-4E
  3

  2
MODELNUMBER
 70
     0
1001
ACDBATTR
1070
     0
1070
     1
  0
ATTDEF
  5
3931
  8
DEFPOINTS
 10
3482.8122103666742078
 20
200.7223407583167045
 30
0.0
 40
0.001
  1
COMPOSED
  3

  2
TRADENAME
 70
     0
1001
ACDBATTR
1070
     0
1070
     1
  0
ATTDEF
  5
3932
  8
DEFPOINTS
 10
3482.8122103666742078
 20
200.7206740916500962
 30
0.0
 40
0.001
  1
BATH FAUCET
  3

  2
PRODUCT
 70
     0
1001
ACDBATTR
1070
     0
1070
     1
  0
LINE
  5
E6EF
  8
0
 10
3473.6452052282397744
 20
206.6953821360760912
 30
0.0
 11
3473.6622427778438578
 21
207.1832737209253139
 31
0.0
  0
LINE
  5
E6F0
  8
0
 10
3481.5833998383909602
 20
200.7202170234270966
 30
0.0
 11
3484.0400927517898708
 21
200.7202170234270966
 31
0.0
  0
LINE
  5
E6F1
  8
0
 10
3481.5833998383909602
 20
200.917067417127214
 30
0.0
 11
3484.0400927517898708
 21
200.917067417127214
 31
0.0
  0
LINE
  5
E6F2
  8
0
 10
3481.5519037754897909
 20
200.7517130864270882
 30
0.0
 11
3481.5519037754897909
 21
200.8855713541271939
 31
0.0
  0
LINE
  5
E6F3
  8
0
 10
3482.1739510195911862
 20
201.7241540313270889
 30
0.0
 11
3483.4495415706910535
 21
201.7241540312271866
 31
0.0
  0
LINE
  5
E6F4
  8
0
 10
3482.1424549565908819
 20
200.9761225352272049
 30
0.0
 11
3482.1424549565908819
 21
201.6926579683270973
 31
0.0
  0
LINE
  5
E6F5
  8
0
 10
3483.481037633690903
 20
200.9761225352272049
 30
0.0
 11
3483.481037633690903
 21
201.6926579683270973
 31
0.0
  0
LINE
  5
E6F6
  8
0
 10
3483.7566281848908147
 20
201.2792721415272013
 30
0.0
 11
3483.7566281848908147
 21
201.4215988780022997
 31
0.0
  0
LINE
  5
E6F7
  8
0
 10
3483.7566281848908147
 20
201.5306461924519965
 30
0.0
 11
3483.7566281848908147
 21
203.6158863148270939
 31
0.0
  0
LINE
  5
E6F8
  8
0
 10
3482.2602663100710743
 20
207.3075003813684134
 30
0.0
 11
3482.2605651926910468
 21
206.6747445827047045
 31
0.0
  0
LINE
  5
E6F9
  8
0
 10
3482.2605652515908332
 20
206.6354812300270964
 30
0.0
 11
3482.2605652452621143
 21
206.1077085487841885
 31
0.0
  0
LINE
  5
E6FA
  8
0
 10
3482.2605652447909961
 20
206.0684503652423984
 30
0.0
 11
3482.2605652426182132
 21
205.8873155185301869
 31
0.0
  0
LINE
  5
E6FB
  8
0
 10
3482.2605652353468031
 20
205.2810692035687055
 30
0.0
 11
3482.2605651926910468
 21
201.7241540313202961
 31
0.0
  0
LINE
  5
E6FC
  8
0
 10
3484.0715888147910846
 20
200.7517130864270882
 30
0.0
 11
3484.0715888147910846
 21
200.8855713541271939
 31
0.0
  0
LINE
  5
E6FD
  8
0
 10
3483.3629273974897842
 20
206.324535535424701
 30
0.0
 11
3483.7265325372468396
 21
206.3118399783407142
 31
0.0
  0
LINE
  5
E6FE
  8
0
 10
3483.7566281848908147
 20
206.8622852762956086
 30
0.0
 11
3483.3629273974897842
 21
206.8760336563528028
 31
0.0
  0
LINE
  5
E6FF
  8
0
 10
3482.2605651926910468
 20
206.9145291205157093
 30
0.0
 11
3473.6944601326449629
 21
207.2136650931743134
 31
0.0
  0
ARC
  5
E700
  8
0
 10
3482.0833998383909602
 20
200.9761225352272049
 30
0.0
 40
0.0590551181
 50
270.0
 51
0.0
  0
ARC
  5
E701
  8
0
 10
3482.1739510195911862
 20
201.6926579683270973
 30
0.0
 40
0.031496063
 50
90.0
 51
180.0
  0
ARC
  5
E702
  8
0
 10
3481.5833998383909602
 20
200.7517130864270882
 30
0.0
 40
0.031496063
 50
180.0
 51
270.0
  0
ARC
  5
E703
  8
0
 10
3481.5833998383909602
 20
200.8855713541271939
 30
0.0
 40
0.031496063
 50
90.0
 51
180.0
  0
ARC
  5
E704
  8
0
 10
3481.8983604683908197
 20
200.9485634801272056
 30
0.0
 40
0.031496063
 50
180.0
 51
270.0
  0
ARC
  5
E705
  8
0
 10
3483.3603616447899185
 20
201.4761225352270912
 30
0.0
 40
0.4
 50
343.0971412846827207
 51
16.9028587153173113
  0
ARC
  5
E706
  8
0
 10
3483.5400927517898708
 20
200.9761225352272049
 30
0.0
 40
0.0590551181
 50
180.0
 51
270.0
  0
ARC
  5
E707
  8
0
 10
3483.4495415706910535
 20
201.6926579683270973
 30
0.0
 40
0.031496063
 50
0.0
 51
90.0
  0
ARC
  5
E708
  8
0
 10
3484.0400927517898708
 20
200.8855713541271939
 30
0.0
 40
0.031496063
 50
0.0
 51
90.0
  0
ARC
  5
E709
  8
0
 10
3484.0400927517898708
 20
200.7517130864270882
 30
0.0
 40
0.031496063
 50
270.0
 51
0.0
  0
ARC
  5
E70A
  8
0
 10
3483.7251321218909652
 20
200.9485634801272056
 30
0.0
 40
0.031496063
 50
270.0
 51
0.0
  0
ARC
  5
E70B
  8
0
 10
3483.7253338112309393
 20
206.280567811130112
 30
0.0
 40
0.0312951335850426
 50
359.6007127020571943
 51
87.8048105357617459
  0
ARC
  5
E70C
  8
0
 10
3484.6808565699438986
 20
201.4761225352270912
 30
0.0
 40
0.9449593563950619
 50
167.9763013205848949
 51
192.0236986794149914
  0
LINE
  5
E70D
  8
0
 10
3481.8668644053400385
 20
200.9485634801272056
 30
0.0
 11
3481.8668644053400385
 21
206.3459778178830959
 31
0.0
  0
LINE
  5
E70E
  8
0
 10
3481.8668644053400385
 20
206.3767602098727991
 30
0.0
 11
3481.8668644053400385
 21
206.3767717417966026
 31
0.0
  0
LINE
  5
E70F
  8
0
 10
3483.7566281848407925
 20
200.9485634801272056
 30
0.0
 11
3483.7566281848407925
 21
201.421598877638786
 31
0.0
  0
LINE
  5
E710
  8
0
 10
3483.7566281848407925
 20
205.0902957634106087
 30
0.0
 11
3483.7566281848407925
 21
205.863449246930287
 31
0.0
  0
LINE
  5
E711
  8
0
 10
3483.7562406263018602
 20
206.3433126933672952
 30
0.0
 11
3483.7566281848407925
 21
206.8622852762973139
 31
0.0
  0
LINE
  5
E712
  8
0
 10
3482.2605651926910468
 20
211.1609650549270896
 30
0.0
 11
3483.3629273974897842
 21
211.1609650549270896
 31
0.0
  0
LINE
  5
E713
  8
0
 10
3483.3629273974897842
 20
211.1609650549270896
 30
0.0
 11
3483.3629273974897842
 21
201.7241540313270889
 31
0.0
  0
LINE
  5
E714
  8
0
 10
3483.3629273974897842
 20
201.7908863148271905
 30
0.0
 11
3483.3583527325909017
 21
201.7908863148271905
 31
0.0
  0
LINE
  5
E715
  8
0
 10
3483.3583527325909017
 20
201.7908863148271905
 30
0.0
 11
3483.3583527325909017
 21
201.7241540313270889
 31
0.0
  0
LINE
  5
E716
  8
0
 10
3474.1162591780921503
 20
206.6474173084727965
 30
0.0
 11
3474.1151599813911162
 21
206.615940432027088
 31
0.0
  0
LINE
  5
E717
  8
0
 10
3474.1151599813911162
 20
206.615940432027088
 30
0.0
 11
3474.9807740834371543
 21
206.5857125199906932
 31
0.0
  0
LINE
  5
E718
  8
0
 10
3474.9807740834371543
 20
206.5857125199906932
 30
0.0
 11
3474.9818732802909835
 21
206.6171893979368974
 31
0.0
  0
LINE
  5
E719
  8
0
 10
3474.9146726430230956
 20
206.5880208346906954
 30
0.0
 11
3474.9009826956908
 21
206.5569836369272139
 31
0.0
  0
LINE
  5
E71A
  8
0
 10
3474.9009826956908
 20
206.5569836369272139
 30
0.0
 11
3474.1927531496889969
 21
206.5817151186548131
 31
0.0
  0
LINE
  5
E71B
  8
0
 10
3474.1927531496889969
 20
206.5817151186548131
 30
0.0
 11
3474.1812614219370516
 21
206.6136321188608918
 31
0.0
  0
ARC
  5
E71C
  8
0
 10
3474.4070821950290338
 20
206.6297884400036935
 30
0.0
 40
0.1893485445698997
 50
195.0518481942669951
 51
220.4536686766433888
  0
LINE
  5
E71D
  8
0
 10
3474.2630010398538616
 20
206.50693286603979
 30
0.0
 11
3474.8256505263661893
 21
206.4867352526279944
 31
0.0
  0
ARC
  5
E71E
  8
0
 10
3474.704303618006179
 20
206.6072072871502883
 30
0.0
 40
0.1709929334113126
 50
315.2072888110312761
 51
343.3213938770240929
  0
ARC
  5
E71F
  8
0
 10
3473.6766821046098812
 20
206.6942829392993133
 30
0.0
 40
0.0314960629218606
 50
177.9999998444779976
 51
268.0000000454901965
  0
LINE
  5
E720
  8
0
 10
3473.6755829079438627
 20
206.6628060628777064
 30
0.0
 11
3482.2605651926910468
 21
206.3630118754271905
 31
0.0
  0
ARC
  5
E721
  8
0
 10
3481.8983071220909551
 20
206.3441466963271864
 30
0.0
 40
0.0314959908999948
 50
88.0751789044031028
 51
176.6670446810331896
  0
LINE
  5
E722
  8
0
 10
3483.7566281848908147
 20
206.2803497209270915
 30
0.0
 11
3483.7566281848908147
 21
206.1154177506805922
 31
0.0
  0
ARC
  5
E723
  8
0
 10
3483.7243335378561824
 20
206.3436732422370881
 30
0.0
 40
0.0319091254755751
 50
273.9516384121961892
 51
359.3525874536497895
  0
ARC
  5
E724
  8
0
 10
3484.6956499735611033
 20
204.8715206914650082
 30
0.0
 40
0.9641703437649699
 50
166.8850756487584874
 51
179.8669094293136936
  0
LINE
  5
E725
  8
0
 10
3483.7314822309908777
 20
204.8737603305270909
 30
0.0
 11
3483.7314822309908777
 21
203.4958075746270936
 31
0.0
  0
ARC
  5
E726
  8
0
 10
3484.6956538566578274
 20
203.4980476646279044
 30
0.0
 40
0.9641742278985443
 50
180.1331168315059017
 51
193.1148980904218888
  0
LINE
  5
E727
  8
0
 10
3483.7606273056908321
 20
203.1865960171271865
 30
0.0
 11
3483.7606273056908321
 21
205.2919010218271865
 31
0.0
  0
ARC
  5
E728
  8
0
 10
3483.7803095965359717
 20
205.2919010218271865
 30
0.0
 40
0.0196822908454308
 50
88.9754079392301662
 51
180.0000000000032117
  0
LINE
  5
E729
  8
0
 10
3483.7806615464410243
 20
205.3115801657158102
 30
0.0
 11
3484.4664317743909123
 21
205.2996128006271874
 31
0.0
  0
ARC
  5
E72A
  8
0
 10
3484.4660893991281227
 20
205.2799308853209936
 30
0.0
 40
0.0196848929623536
 50
359.999834111033806
 51
89.0034161350897648
  0
LINE
  5
E72B
  8
0
 10
3484.4857742920899
 20
205.2799308283271955
 30
0.0
 11
3484.4857742920899
 21
203.1985662103224115
 31
0.0
  0
ARC
  5
E72C
  8
0
 10
3484.4660893415270948
 20
203.1985662103224115
 30
0.0
 40
0.0196849505639563
 50
270.9967518333152157
 51
0.0000000000065138
  0
LINE
  5
E72D
  8
0
 10
3484.4664317754909462
 20
203.1788842384270879
 30
0.0
 11
3483.780655921944799
 21
203.1669139763731948
 31
0.0
  0
ARC
  5
E72E
  8
0
 10
3483.7803123449680243
 20
203.1865960170758001
 30
0.0
 40
0.0196850392775093
 50
179.9999998504924861
 51
271.0000747290848153
  0
ARC
  5
E72F
  8
0
 10
3483.7196461772109615
 20
204.6119790440417887
 30
0.0
 40
0.0314073248731327
 50
0.4471390661660537
 51
67.8608990338087921
  0
LINE
  5
E730
  8
0
 10
3483.7510525456859796
 20
204.6122241458535029
 30
0.0
 11
3483.7540401606579508
 21
204.2294030805364002
 31
0.0
  0
LINE
  5
E731
  8
0
 10
3483.7314822309908777
 20
204.2294059998272076
 30
0.0
 11
3483.7606273056908321
 21
204.2294059998272076
 31
0.0
  0
LINE
  5
E732
  8
0
 10
3483.7314822309908777
 20
204.2092056669270903
 30
0.0
 11
3483.7606273056908321
 21
204.2092056669270903
 31
0.0
  0
ARC
  5
E733
  8
0
 10
3484.6990416737908163
 20
203.6847839526271002
 30
0.0
 40
0.944927975400077
 50
175.8186788207007965
 51
184.1813211792992035
  0
LINE
  5
E734
  8
0
 10
3483.7566288128177803
 20
203.7536815445118918
 30
0.0
 11
3483.7566288128177803
 21
203.8304532439271952
 31
0.0
  0
LINE
  5
E735
  8
0
 10
3483.7566288128177803
 20
203.8304532439271952
 30
0.0
 11
3483.7314822309908777
 21
203.8304532439271952
 31
0.0
  0
LINE
  5
E736
  8
0
 10
3483.7369431454899313
 20
203.8304532439271952
 30
0.0
 11
3483.7369431454899313
 21
203.8403713735270912
 31
0.0
  0
LINE
  5
E737
  8
0
 10
3483.7369431454899313
 20
203.8403713735270912
 30
0.0
 11
3483.7316383112679432
 21
203.8493634220610033
 31
0.0
  0
LINE
  5
E738
  8
0
 10
3483.7314822309908777
 20
203.9741540313272026
 30
0.0
 11
3483.7566189847198075
 21
203.9743733964442072
 31
0.0
  0
LINE
  5
E739
  8
0
 10
3483.7566189847198075
 20
203.9743733964442072
 30
0.0
 11
3483.7561112362909626
 21
204.0325556061270902
 31
0.0
  0
LINE
  5
E73A
  8
0
 10
3483.7561112362909626
 20
204.0325556061270902
 30
0.0
 11
3483.7606273056908321
 21
204.0325556061270902
 31
0.0
  0
LINE
  5
E73B
  8
0
 10
3483.7314822309908777
 20
204.0517253512271054
 30
0.0
 11
3483.7606273056908321
 21
204.0517253512271054
 31
0.0
  0
LINE
  5
E73C
  8
0
 10
3482.2605651926910468
 20
211.1609650549270896
 30
0.0
 11
3482.2605651926910468
 21
210.1766145224557079
 31
0.0
  0
ARC
  5
E73D
  8
0
 10
3482.2727330783518482
 20
206.6352506363099053
 30
0.0
 40
0.0121700115670875
 50
82.3130052882000314
 51
178.9143118403887911
  0
ARC
  5
E73E
  8
0
 10
3482.2684913633479482
 20
206.67475818080311
 30
0.0
 40
0.0079261823212825
 50
180.0982962539721086
 51
209.1282533630071043
  0
LINE
  5
E73F
  8
0
 10
3482.2605651926910468
 20
206.0684453699261098
 30
0.0
 11
3482.260819727398939
 21
206.070425977265387
 31
0.0
  0
ARC
  5
E740
  8
0
 10
3481.3861261079268843
 20
206.1808393747332104
 30
0.0
 40
1.003273234685885
 50
24.1696327936470787
 51
29.2395274779243017
  0
ARC
  5
E741
  8
0
 10
3481.7193165608691743
 20
206.3303688909039124
 30
0.0
 40
0.6380678758288916
 50
10.7430674457363704
 51
24.1696327936470787
  0
ARC
  5
E742
  8
0
 10
3481.9631091260312132
 20
206.3766237951452069
 30
0.0
 40
0.3899261199819188
 50
359.2610444051798027
 51
10.7430674457363704
  0
ARC
  5
E743
  8
0
 10
3481.7992613737278589
 20
206.3787370908875971
 30
0.0
 40
0.5537875002815636
 50
353.0763383717485908
 51
359.2610444051798027
  0
ARC
  5
E744
  8
0
 10
3481.9400226377829313
 20
206.3616441213920893
 30
0.0
 40
0.4119922145189481
 50
344.5262375540115727
 51
353.0763383717485908
  0
ARC
  5
E745
  8
0
 10
3481.6022308806609544
 20
206.45515550531249
 30
0.0
 40
0.7624885056585464
 50
338.5936490780200074
 51
344.5262375540115727
  0
ARC
  5
E746
  8
0
 10
3481.6876762666202012
 20
206.4216588984918985
 30
0.0
 40
0.6707119473757065
 50
332.7539924947188865
 51
338.5936490780200074
  0
ARC
  5
E747
  8
0
 10
3480.4290412313857814
 20
207.0697875730556063
 30
0.0
 40
2.086421285732345
 50
331.4389345057124956
 51
332.7539924947188865
  0
ARC
  5
E748
  8
0
 10
3482.2687583469969468
 20
206.0683624155076927
 30
0.0
 40
0.0081935742450059
 50
151.4389345057124956
 51
179.4199089280677981
  0
ARC
  5
E749
  8
0
 10
3482.2726206992210791
 20
206.1078303473503865
 30
0.0
 40
0.0120560692211267
 50
180.5788505677612932
 51
277.5877529068831109
  0
ARC
  5
E74A
  8
0
 10
3481.7428168487490439
 20
206.3559218761270984
 30
0.0
 40
0.588401938302108
 50
1.5263524032293729
 51
28.3669228067608614
  0
ARC
  5
E74B
  8
0
 10
3481.9258611382310846
 20
206.3607993783417101
 30
0.0
 40
0.4052926760034933
 50
342.010321532313128
 51
1.526342318402071
  0
ARC
  5
E74C
  8
0
 10
3481.286035261278812
 20
206.5685664191310877
 30
0.0
 40
1.0780068025487279
 50
334.6904061164444215
 51
342.0101985175493269
  0
ARC
  5
E74D
  8
0
 10
3481.734891380731824
 20
205.6097377875769041
 30
0.0
 40
0.6199779812638861
 50
327.9830292322727132
 51
357.6386270883392058
  0
ARC
  5
E74E
  8
0
 10
3481.7384991466001338
 20
205.5597650564195078
 30
0.0
 40
0.6163280545137707
 50
2.2715313761326108
 51
32.1068149736752488
  0
ARC
  5
E74F
  8
0
 10
3482.1701481569830321
 20
205.84794804219149
 30
0.0
 40
0.011945835136038
 50
91.1522566911043839
 51
179.3687319513207967
  0
LINE
  5
E750
  8
0
 10
3482.1582030468898665
 20
205.8480796552271954
 30
0.0
 11
3482.1582030472909537
 21
205.3203068381272089
 31
0.0
  0
ARC
  5
E751
  8
0
 10
3482.1701463862009405
 20
205.3204368838505047
 30
0.0
 40
0.0119440468951516
 50
180.623843692388391
 51
268.8544821705439745
  0
ARC
  5
E752
  8
0
 10
3481.6991661250081052
 20
205.5841933128772041
 30
0.0
 40
0.5294816780825933
 50
330.1067122431275038
 51
29.8932877568724393
  0
LINE
  5
E753
  8
0
 10
3481.8668644053400385
 20
204.6434453699272069
 30
0.0
 11
3480.8775501110571895
 21
204.6434453662834869
 31
0.0
  0
ARC
  5
E754
  8
0
 10
3480.8775501111731501
 20
204.6119562066344031
 30
0.0
 40
0.031489159649172
 50
90.000000211020307
 51
179.5124425263815056
  0
LINE
  5
E755
  8
0
 10
3480.8460620916021071
 20
204.6122241598756943
 30
0.0
 11
3480.8435197148760381
 21
204.3208855748964083
 31
0.0
  0
ARC
  5
E756
  8
0
 10
3480.8750145776912177
 20
204.3206107793270121
 30
0.0
 40
0.0314960615998895
 50
179.5001017489018125
 51
269.9998266198022066
  0
LINE
  5
E757
  8
0
 10
3480.8750144823820847
 20
204.2891147177273012
 30
0.0
 11
3481.790190004939177
 21
204.2891099805908937
 31
0.0
  0
ARC
  5
E758
  8
0
 10
3481.7901895973550381
 20
204.210367948602709
 30
0.0
 40
0.0787420319892946
 50
13.1577864836868894
 51
89.9997034252779855
  0
LINE
  5
E759
  8
0
 10
3482.1699076040908949
 20
205.3084952240272116
 30
0.0
 11
3482.2767637043998548
 21
205.3084952240272116
 31
0.0
  0
LINE
  5
E75A
  8
0
 10
3482.169907934389812
 20
205.8598914617271873
 30
0.0
 11
3482.2768154213099479
 21
205.8598914617271873
 31
0.0
  0
ARC
  5
E75C
  8
0
 10
3473.6937250661922008
 20
207.182172114699199
 30
0.0
 40
0.0315015557698591
 50
88.6629222811586146
 51
177.9959637771916903
  0
ARC
  5
E75D
  8
0
 10
3484.8845829278379824
 20
205.9894334985413025
 30
0.0
 40
1.1349686929099181
 50
173.626897089593399
 51
186.373102910406601
  0
LINE
  5
E75E
  8
0
 10
3482.3474124969461627
 20
207.5353681299432083
 30
0.0
 11
3482.2842794245170808
 21
207.5170611860716008
 31
0.0
  0
ARC
  5
E75F
  8
0
 10
3482.2847641374792147
 20
207.5153896116825081
 30
0.0
 40
0.001740433162557
 50
106.1707801309042054
 51
148.4727329271723022
  0
ARC
  5
E760
  8
0
 10
3482.3037017571441538
 20
207.5058564449961125
 30
0.0
 40
0.0229365377776157
 50
152.9150854629752985
 51
176.4347583343588894
  0
ARC
  5
E761
  8
0
 10
3482.471055495670953
 20
207.4921117172544029
 30
0.0
 40
0.1908498295388088
 50
175.4406326050491032
 51
187.8445543785661016
  0
ARC
  5
E762
  8
0
 10
3482.3759560467910887
 20
207.4740822956142949
 30
0.0
 40
0.0943059538138719
 50
184.877789491098099
 51
203.6661098623164037
  0
ARC
  5
E763
  8
0
 10
3482.2920520899638177
 20
207.4374397003549007
 30
0.0
 40
0.0027522997534863
 50
206.1358232399622921
 51
258.0409129679316038
  0
ARC
  5
E764
  8
0
 10
3482.2914788294319806
 20
207.4365621604792977
 30
0.0
 40
0.0018150258458815
 50
270.0930533219071208
 51
331.1527105460456255
  0
ARC
  5
E765
  8
0
 10
3482.2516822405159473
 20
207.4516123954389002
 30
0.0
 40
0.0443448824122649
 50
338.9527185124092057
 51
1.2022643831863979
  0
ARC
  5
E766
  8
0
 10
3482.1514352948829583
 20
207.4602462517271988
 30
0.0
 40
0.1447871414748641
 50
356.9501319956924021
 51
7.2047797753895884
  0
ARC
  5
E767
  8
0
 10
3481.9767802783940169
 20
207.438167389154188
 30
0.0
 40
0.3208321668449087
 50
7.2047797753895884
 51
12.5374987093551695
  0
ARC
  5
E768
  8
0
 10
3482.2674221730221689
 20
207.5028007419907112
 30
0.0
 40
0.0230903639152377
 50
12.5374987093535797
 51
35.1384102525218296
  0
ARC
  5
E769
  8
0
 10
3482.2842212095429204
 20
207.5146241350811067
 30
0.0
 40
0.0025477191929415
 50
35.1384102525058495
 51
75.3107316684750856
  0
ARC
  5
E76A
  8
0
 10
3482.2846499642228082
 20
207.5162596987476888
 30
0.0
 40
0.0008568912643103
 50
75.3107316684750856
 51
99.0202985318173745
  0
ARC
  5
E76B
  8
0
 10
3482.2853075510461167
 20
207.5121173575550131
 30
0.0
 40
0.0050511028692553
 50
99.0202985318176445
 51
101.533037724859895
  0
ARC
  5
E76C
  8
0
 10
3482.2869985217648718
 20
207.4957534112583062
 30
0.0
 40
0.0019353328781952
 50
117.3579386166338026
 51
167.3347282650331067
  0
ARC
  5
E76D
  8
0
 10
3482.3370790201238378
 20
207.4844991757231014
 30
0.0
 40
0.0532647994003512
 50
167.3347282650331067
 51
174.5975070460382028
  0
ARC
  5
E76E
  8
0
 10
3482.3364452076361886
 20
207.4845591164668974
 30
0.0
 40
0.0526281588717868
 50
174.5975070460382028
 51
186.7238260647364996
  0
ARC
  5
E76F
  8
0
 10
3480.7874497754410186
 20
207.3019409135592923
 30
0.0
 40
1.5070949758525269
 50
6.2738456286323769
 51
6.7238260647365209
  0
ARC
  5
E770
  8
0
 10
3482.3221419553110536
 20
207.4706634485094128
 30
0.0
 40
0.0368439415779731
 50
186.2738456286323014
 51
201.6702909557151884
  0
ARC
  5
E771
  8
0
 10
3482.2970104778091809
 20
207.4606775106842065
 30
0.0
 40
0.009801195494851
 50
201.6702909556964016
 51
217.2843793296300134
  0
ARC
  5
E772
  8
0
 10
3482.2900019414341841
 20
207.4553414557236124
 30
0.0
 40
0.0009925029321899
 50
217.284379329660112
 51
263.018322870951522
  0
ARC
  5
E773
  8
0
 10
3482.2899691515540326
 20
207.4550736957135939
 30
0.0
 40
0.0007227426697956
 50
263.0183228710565118
 51
325.2091063676699036
  0
ARC
  5
E774
  8
0
 10
3482.2857482563790654
 20
207.4580062994839977
 30
0.0
 40
0.0058624042306217
 50
325.2091063676915041
 51
339.7629058303583065
  0
ARC
  5
E775
  8
0
 10
3482.2785173579532056
 20
207.460672068473599
 30
0.0
 40
0.0135690387975006
 50
339.7629058303598981
 51
0.4057701969236119
  0
ARC
  5
E776
  8
0
 10
3468.5997404243539677
 20
207.3637969957661085
 30
0.0
 40
13.6926890097189595
 50
0.4057701969236119
 51
0.4642072553355963
  0
ARC
  5
E777
  8
0
 10
3482.2460267684227802
 20
207.4743608766196132
 30
0.0
 40
0.0459547719585712
 50
0.4642072553355963
 51
12.7855130520610594
  0
ARC
  5
E778
  8
0
 10
3481.310110491775049
 20
207.261974757763511
 30
0.0
 40
1.0056667810408839
 50
12.7855130520610594
 51
13.3385866000239801
  0
ARC
  5
E779
  8
0
 10
3482.2814890429890511
 20
207.4922897709375036
 30
0.0
 40
0.0073575628866481
 50
13.3385866000287301
 51
39.4840560592711611
  0
ARC
  5
E77A
  8
0
 10
3482.2858545837420934
 20
207.4958864051677949
 30
0.0
 40
0.001701263403339
 50
39.4840560593382222
 51
69.7054631524686243
  0
ARC
  5
E77B
  8
0
 10
3482.2863149464269554
 20
207.4971312920017112
 30
0.0
 40
0.000373981582756
 50
69.7054631524680701
 51
102.8691262164756068
  0
ARC
  5
E77C
  8
0
 10
3482.2858268054378641
 20
207.4992679174368106
 30
0.0
 40
0.0018176958283808
 50
278.9357907804838987
 51
282.8691262163951023
  0
LINE
  5
E77D
  8
0
 10
3482.2914817771911657
 20
207.4347471370271876
 30
0.0
 11
3482.3477502634491429
 21
207.4286636718209991
 31
0.0
  0
ARC
  5
E77E
  8
0
 10
3482.348105537776064
 20
207.5105300637391963
 30
0.0
 40
0.0526978544372789
 50
133.1342730377947134
 51
169.0192979278384087
  0
ARC
  5
E77F
  8
0
 10
3482.3236233595062004
 20
207.5330439635087885
 30
0.0
 40
0.0196854879698665
 50
101.643437133683193
 51
125.9174925577541018
  0
ARC
  5
E780
  8
0
 10
3482.3234053108649277
 20
207.5336098215167056
 30
0.0
 40
0.0190875258148567
 50
89.9446565441275538
 51
101.3451829378241058
  0
ARC
  5
E781
  8
0
 10
3482.3201988675000393
 20
207.5184924620263871
 30
0.0
 40
0.0343565630378863
 50
42.0157444750729425
 51
84.6139999597256462
  0
ARC
  5
E782
  8
0
 10
3482.2919686051909594
 20
207.4891706152826885
 30
0.0
 40
0.0750123495278323
 50
19.9438434947955088
 51
44.2233347071470391
  0
ARC
  5
E783
  8
0
 10
3482.2678243279960952
 20
207.4804096065961119
 30
0.0
 40
0.1006970024248438
 50
1.318345657574316
 51
19.9438434947955088
  0
ARC
  5
E784
  8
0
 10
3482.2841529439929218
 20
207.4807853857545012
 30
0.0
 40
0.0843640629977149
 50
335.0351780558206087
 51
1.318345657574316
  0
ARC
  5
E785
  8
0
 10
3482.2705688296068729
 20
207.487109611415093
 30
0.0
 40
0.0993481877254027
 50
317.4819838532159224
 51
335.0351780558206087
  0
ARC
  5
E786
  8
0
 10
3482.3233251940791888
 20
207.4387367834846998
 30
0.0
 40
0.0277719034246795
 50
270.203324222959111
 51
317.4819838531947198
  0
ARC
  5
E787
  8
0
 10
3482.3233538014242185
 20
207.4306754063821074
 30
0.0
 40
0.0197104755629027
 50
218.2361066341389062
 51
270.2033242229330767
  0
ARC
  5
E788
  8
0
 10
3482.3549611496850957
 20
207.4555802055143943
 30
0.0
 40
0.0599506729270725
 50
205.4278288512878134
 51
218.2361066341389062
  0
ARC
  5
E789
  8
0
 10
3482.3339434745012113
 20
207.4455877666428876
 30
0.0
 40
0.0366785543145696
 50
198.5690037049398029
 51
205.4278288512892914
  0
ARC
  5
E78A
  8
0
 10
3482.3329896131981513
 20
207.4445446566467979
 30
0.0
 40
0.0261562326355984
 50
206.7163327703322011
 51
255.7459374029238006
  0
ARC
  5
E78B
  8
0
 10
3482.3300279432842217
 20
207.4328865183244091
 30
0.0
 40
0.0141277797916908
 50
255.7459374029238006
 51
289.9787785646739735
  0
ARC
  5
E78C
  8
0
 10
3482.3252427825859741
 20
207.4460488058637111
 30
0.0
 40
0.0281329065733482
 50
289.9787785646735188
 51
309.7130607297402207
  0
ARC
  5
E78D
  8
0
 10
3482.3105755314641101
 20
207.4637074032640101
 30
0.0
 40
0.0510883921408129
 50
309.7130607297402207
 51
316.6901760706905975
  0
ARC
  5
E78E
  8
0
 10
3482.287531967806899
 20
207.4802419624265042
 30
0.0
 40
0.0792878502150422
 50
319.4192205657764134
 51
358.7090814855475855
  0
ARC
  5
E78F
  8
0
 10
3482.2805957153868803
 20
207.4819599008006037
 30
0.0
 40
0.0862751726098346
 50
357.6721998789665804
 51
24.9186672426814688
  0
ARC
  5
E790
  8
0
 10
3482.2986595222828328
 20
207.4903530517813977
 30
0.0
 40
0.066356686177005
 50
24.9178398921876507
 51
42.7172144084532306
  0
ARC
  5
E791
  8
0
 10
3482.1056947045040033
 20
207.2808081482172895
 30
0.0
 40
0.3510388518083027
 50
46.4823131596055035
 51
47.3486062667953576
  0
ARC
  5
E792
  8
0
 10
3482.3283666055058347
 20
207.5225264980358872
 30
0.0
 40
0.0223892874778121
 50
47.3486062667975816
 51
84.7910422284362255
  0
ARC
  5
E793
  8
0
 10
3482.3303467212249416
 20
207.5243468952081116
 30
0.0
 40
0.0204764948806607
 50
89.8529048400266106
 51
126.2162014733955004
  0
ARC
  5
E794
  8
0
 10
3482.3492651876890704
 20
207.5055343836999953
 30
0.0
 40
0.0470153316939607
 50
131.2780640849483973
 51
148.296470509980594
  0
ARC
  5
E795
  8
0
 10
3482.3363801987038642
 20
207.5134934116294119
 30
0.0
 40
0.0318703963449516
 50
148.2964705099792013
 51
161.9209158971584941
  0
LINE
  5
E796
  8
0
 10
3482.3473182209668266
 20
207.7884177560939918
 30
0.0
 11
3482.2841851485381994
 21
207.7701108122224127
 31
0.0
  0
ARC
  5
E797
  8
0
 10
3482.2846698614989691
 20
207.7684392378334053
 30
0.0
 40
0.001740433162557
 50
106.1707801309042054
 51
148.4727329271723022
  0
ARC
  5
E798
  8
0
 10
3482.3036074811648177
 20
207.7589060711470097
 30
0.0
 40
0.0229365377776157
 50
152.9150854629752985
 51
176.4347583343588894
  0
ARC
  5
E799
  8
0
 10
3482.4709612196920716
 20
207.7451613434051865
 30
0.0
 40
0.1908498295388088
 50
175.4406326050491032
 51
187.8445543785661016
  0
ARC
  5
E79A
  8
0
 10
3482.3758617708131169
 20
207.7271319217651069
 30
0.0
 40
0.0943059538138719
 50
184.877789491098099
 51
203.6661098623164037
  0
ARC
  5
E79B
  8
0
 10
3482.2919578139849364
 20
207.6904893265057979
 30
0.0
 40
0.0027522997534863
 50
206.1358232399622921
 51
258.0409129679316038
  0
ARC
  5
E79C
  8
0
 10
3482.2913845534530992
 20
207.689611786630195
 30
0.0
 40
0.0018150258458815
 50
270.0930533219071208
 51
331.1527105460456255
  0
ARC
  5
E79D
  8
0
 10
3482.251587964537066
 20
207.7046620215897974
 30
0.0
 40
0.0443448824122649
 50
338.9527185124092057
 51
1.2022643831863979
  0
ARC
  5
E79E
  8
0
 10
3482.1513410189049864
 20
207.713295877878096
 30
0.0
 40
0.1447871414748641
 50
356.9501319956924021
 51
7.2047797753895884
  0
ARC
  5
E79F
  8
0
 10
3481.9766860024151356
 20
207.6912170153049999
 30
0.0
 40
0.3208321668449087
 50
7.2047797753895884
 51
12.5374987093551695
  0
ARC
  5
E7A0
  8
0
 10
3482.2673278970428328
 20
207.7558503681414948
 30
0.0
 40
0.0230903639152377
 50
12.5374987093535797
 51
35.1384102525218296
  0
ARC
  5
E7A1
  8
0
 10
3482.2841269335640391
 20
207.7676737612320039
 30
0.0
 40
0.0025477191929415
 50
35.1384102525058495
 51
75.3107316684750856
  0
ARC
  5
E7A2
  8
0
 10
3482.2845556882439269
 20
207.7693093248985861
 30
0.0
 40
0.0008568912643103
 50
75.3107316684750856
 51
99.0202985318173745
  0
ARC
  5
E7A3
  8
0
 10
3482.2852132750681449
 20
207.7651669837057966
 30
0.0
 40
0.0050511028692553
 50
99.0202985318176445
 51
101.533037724859895
  0
ARC
  5
E7A4
  8
0
 10
3482.2869042457859905
 20
207.7488030374092034
 30
0.0
 40
0.0019353328781952
 50
117.3579386166338026
 51
167.3347282650331067
  0
ARC
  5
E7A5
  8
0
 10
3482.3369847441449565
 20
207.7375488018739986
 30
0.0
 40
0.0532647994003512
 50
167.3347282650331067
 51
174.5975070460382028
  0
ARC
  5
E7A6
  8
0
 10
3482.3363509316568525
 20
207.7376087426177094
 30
0.0
 40
0.0526281588717868
 50
174.5975070460382028
 51
186.7238260647364996
  0
ARC
  5
E7A7
  8
0
 10
3480.7873554994621372
 20
207.5549905397101895
 30
0.0
 40
1.5070949758525269
 50
6.2738456286323769
 51
6.7238260647365209
  0
ARC
  5
E7A8
  8
0
 10
3482.3220476793321723
 20
207.72371307466031
 30
0.0
 40
0.0368439415779731
 50
186.2738456286323014
 51
201.6702909557151884
  0
ARC
  5
E7A9
  8
0
 10
3482.2969162018298448
 20
207.71372713683499
 30
0.0
 40
0.009801195494851
 50
201.6702909556964016
 51
217.2843793296300134
  0
ARC
  5
E7AA
  8
0
 10
3482.289907665454848
 20
207.7083910818743959
 30
0.0
 40
0.0009925029321899
 50
217.284379329660112
 51
263.018322870951522
  0
ARC
  5
E7AB
  8
0
 10
3482.2898748755760607
 20
207.7081233218644059
 30
0.0
 40
0.0007227426697956
 50
263.0183228710565118
 51
325.2091063676699036
  0
ARC
  5
E7AC
  8
0
 10
3482.2856539804001841
 20
207.7110559256348949
 30
0.0
 40
0.0058624042306217
 50
325.2091063676915041
 51
339.7629058303583065
  0
ARC
  5
E7AD
  8
0
 10
3482.2489103461271043
 20
207.7216717899970888
 30
0.0
 40
0.0440957059404834
 50
343.3375209388722169
 51
349.7401578905066799
  0
ARC
  5
E7AE
  8
0
 10
3482.1943790123359577
 20
207.7193496133133124
 30
0.0
 40
0.098078082398355
 50
356.766674024722704
 51
10.7124516566833794
  0
ARC
  5
E7AF
  8
0
 10
3481.3100162157970772
 20
207.5150243839142945
 30
0.0
 40
1.0056667810408839
 50
12.7855130520610594
 51
13.3385866000239801
  0
ARC
  5
E7B0
  8
0
 10
3482.2813947670110792
 20
207.7453393970882871
 30
0.0
 40
0.0073575628866481
 50
13.3385866000287301
 51
39.4840560592711611
  0
ARC
  5
E7B1
  8
0
 10
3482.285760307763212
 20
207.7489360313186921
 30
0.0
 40
0.001701263403339
 50
39.4840560593382222
 51
69.7054631524686243
  0
ARC
  5
E7B2
  8
0
 10
3482.2862206704480741
 20
207.7501809181526085
 30
0.0
 40
0.000373981582756
 50
69.7054631524680701
 51
102.8691262164756068
  0
ARC
  5
E7B3
  8
0
 10
3482.2857325294589828
 20
207.7523175435877079
 30
0.0
 40
0.0018176958283808
 50
278.9357907804838987
 51
282.8691262163951023
  0
LINE
  5
E7B4
  8
0
 10
3482.2913875012118297
 20
207.6877967631779995
 30
0.0
 11
3482.3476559874688974
 21
207.681713297971811
 31
0.0
  0
ARC
  5
E7B5
  8
0
 10
3482.3480112617971827
 20
207.7635796898900082
 30
0.0
 40
0.0526978544372789
 50
133.1342730377947134
 51
169.0192979278384087
  0
ARC
  5
E7B6
  8
0
 10
3482.3235290835268643
 20
207.7860935896596004
 30
0.0
 40
0.0196854879698665
 50
101.643437133683193
 51
125.9174925577541018
  0
ARC
  5
E7B7
  8
0
 10
3482.3233110348860464
 20
207.7866594476676028
 30
0.0
 40
0.0190875258148567
 50
89.9446565441275538
 51
101.3451829378241058
  0
ARC
  5
E7B8
  8
0
 10
3482.320104591521158
 20
207.771542088177199
 30
0.0
 40
0.0343565630378863
 50
42.0157444750729425
 51
84.6139999597256462
  0
ARC
  5
E7B9
  8
0
 10
3482.291874329212078
 20
207.7422202414336141
 30
0.0
 40
0.0750123495278323
 50
19.9438434947955088
 51
44.2233347071470391
  0
ARC
  5
E7BA
  8
0
 10
3482.2677300520181234
 20
207.7334592327468954
 30
0.0
 40
0.1006970024248438
 50
1.318345657574316
 51
19.9438434947955088
  0
ARC
  5
E7BB
  8
0
 10
3482.2840586680140404
 20
207.7338350119053985
 30
0.0
 40
0.0843640629977149
 50
335.0351780558206087
 51
1.318345657574316
  0
ARC
  5
E7BC
  8
0
 10
3482.2704745536279916
 20
207.7401592375659902
 30
0.0
 40
0.0993481877254027
 50
317.4819838532159224
 51
335.0351780558206087
  0
ARC
  5
E7BD
  8
0
 10
3482.3232309180998527
 20
207.691786409635597
 30
0.0
 40
0.0277719034246795
 50
270.203324222959111
 51
317.4819838531947198
  0
ARC
  5
E7BE
  8
0
 10
3482.3232595254448825
 20
207.6837250325330047
 30
0.0
 40
0.0197104755629027
 50
218.2361066341389062
 51
270.2033242229330767
  0
ARC
  5
E7BF
  8
0
 10
3482.3548668737062144
 20
207.7086298316652062
 30
0.0
 40
0.0599506729270725
 50
205.4278288512878134
 51
218.2361066341389062
  0
ARC
  5
E7C0
  8
0
 10
3482.3338491985218752
 20
207.6986373927936995
 30
0.0
 40
0.0366785543145696
 50
198.5690037049398029
 51
205.4278288512892914
  0
ARC
  5
E7C1
  8
0
 10
3482.3328953372188153
 20
207.6975942827976951
 30
0.0
 40
0.0261562326355984
 50
206.7163327703322011
 51
255.7459374029238006
  0
ARC
  5
E7C2
  8
0
 10
3482.3299336673048856
 20
207.6859361444753063
 30
0.0
 40
0.0141277797916908
 50
255.7459374029238006
 51
289.9787785646739735
  0
ARC
  5
E7C3
  8
0
 10
3482.3251485066070927
 20
207.6990984320146083
 30
0.0
 40
0.0281329065733482
 50
289.9787785646735188
 51
309.7130607297402207
  0
ARC
  5
E7C4
  8
0
 10
3482.310481255484774
 20
207.7167570294149073
 30
0.0
 40
0.0510883921408129
 50
309.7130607297402207
 51
316.6901760706905975
  0
ARC
  5
E7C5
  8
0
 10
3482.2874376918280177
 20
207.7332915885774014
 30
0.0
 40
0.0792878502150422
 50
319.4192205657764134
 51
358.7090814855475855
  0
ARC
  5
E7C6
  8
0
 10
3482.280501439407999
 20
207.7350095269513872
 30
0.0
 40
0.0862751726098346
 50
357.6721998789665804
 51
24.9186672426814688
  0
ARC
  5
E7C7
  8
0
 10
3482.2985652463039514
 20
207.7434026779322096
 30
0.0
 40
0.066356686177005
 50
24.9178398921876507
 51
42.7172144084532306
  0
ARC
  5
E7C8
  8
0
 10
3482.105600428525122
 20
207.5338577743681014
 30
0.0
 40
0.3510388518083027
 50
46.4823131596055035
 51
47.3486062667953576
  0
ARC
  5
E7C9
  8
0
 10
3482.3282723295269534
 20
207.7755761241868129
 30
0.0
 40
0.0223892874778121
 50
47.3486062667975816
 51
84.7910422284362255
  0
ARC
  5
E7CA
  8
0
 10
3482.3302524452460602
 20
207.7773965213590088
 30
0.0
 40
0.0204764948806607
 50
89.8529048400266106
 51
126.2162014733955004
  0
ARC
  5
E7CB
  8
0
 10
3482.3491709117101891
 20
207.7585840098508072
 30
0.0
 40
0.0470153316939607
 50
131.2780640849483973
 51
148.296470509980594
  0
ARC
  5
E7CC
  8
0
 10
3482.3362859227249828
 20
207.7665430377801954
 30
0.0
 40
0.0318703963449516
 50
148.2964705099792013
 51
161.9209158971584941
  0
LINE
  5
E7CD
  8
0
 10
3482.3457571412459401
 20
208.0422357999156873
 30
0.0
 11
3482.2826240688182224
 21
208.0239288560441082
 31
0.0
  0
ARC
  5
E7CE
  8
0
 10
3482.2831087817789921
 20
208.0222572816551008
 30
0.0
 40
0.001740433162557
 50
106.1707801309042054
 51
148.4727329271723022
  0
ARC
  5
E7CF
  8
0
 10
3482.3020464014439312
 20
208.0127241149687052
 30
0.0
 40
0.0229365377776157
 50
152.9150854629752985
 51
176.4347583343588894
  0
ARC
  5
E7D0
  8
0
 10
3482.4694001399711851
 20
207.9989793872269956
 30
0.0
 40
0.1908498295388088
 50
175.4406326050491032
 51
187.8445543785661016
  0
ARC
  5
E7D1
  8
0
 10
3482.3743006910917757
 20
207.9809499655868876
 30
0.0
 40
0.0943059538138719
 50
184.877789491098099
 51
203.6661098623164037
  0
ARC
  5
E7D2
  8
0
 10
3482.2903967342640499
 20
207.9443073703274933
 30
0.0
 40
0.0027522997534863
 50
206.1358232399622921
 51
258.0409129679316038
  0
ARC
  5
E7D3
  8
0
 10
3482.2898234737331222
 20
207.9434298304518904
 30
0.0
 40
0.0018150258458815
 50
270.0930533219071208
 51
331.1527105460456255
  0
ARC
  5
E7D4
  8
0
 10
3482.2500268848161795
 20
207.9584800654114929
 30
0.0
 40
0.0443448824122649
 50
338.9527185124092057
 51
1.2022643831863979
  0
ARC
  5
E7D5
  8
0
 10
3482.1497799391840999
 20
207.9671139216997915
 30
0.0
 40
0.1447871414748641
 50
356.9501319956924021
 51
7.2047797753895884
  0
ARC
  5
E7D6
  8
0
 10
3481.9751249226951586
 20
207.9450350591268091
 30
0.0
 40
0.3208321668449087
 50
7.2047797753895884
 51
12.5374987093551695
  0
ARC
  5
E7D7
  8
0
 10
3482.2657668173219463
 20
208.0096684119633039
 30
0.0
 40
0.0230903639152377
 50
12.5374987093535797
 51
35.1384102525218296
  0
ARC
  5
E7D8
  8
0
 10
3482.2825658538417883
 20
208.0214918050538131
 30
0.0
 40
0.0025477191929415
 50
35.1384102525058495
 51
75.3107316684750856
  0
ARC
  5
E7D9
  8
0
 10
3482.2829946085239499
 20
208.02312736872031
 30
0.0
 40
0.0008568912643103
 50
75.3107316684750856
 51
99.0202985318173745
  0
ARC
  5
E7DA
  8
0
 10
3482.2836521953468036
 20
208.0189850275274921
 30
0.0
 40
0.0050511028692553
 50
99.0202985318176445
 51
101.533037724859895
  0
ARC
  5
E7DB
  8
0
 10
3482.2853431660641945
 20
208.0026210812308989
 30
0.0
 40
0.0019353328781952
 50
117.3579386166338026
 51
167.3347282650331067
  0
ARC
  5
E7DC
  8
0
 10
3482.33542366442407
 20
207.9913668456956941
 30
0.0
 40
0.0532647994003512
 50
167.3347282650331067
 51
174.5975070460382028
  0
ARC
  5
E7DD
  8
0
 10
3482.3347898519368755
 20
207.9914267864394049
 30
0.0
 40
0.0526281588717868
 50
174.5975070460382028
 51
186.7238260647364996
  0
ARC
  5
E7DE
  8
0
 10
3480.7857944197421602
 20
207.8088085835319134
 30
0.0
 40
1.5070949758525269
 50
6.2738456286323769
 51
6.7238260647365209
  0
ARC
  5
E7DF
  8
0
 10
3482.3204865996131048
 20
207.9775311184820055
 30
0.0
 40
0.0368439415779731
 50
186.2738456286323014
 51
201.6702909557151884
  0
ARC
  5
E7E0
  8
0
 10
3482.2953551221098678
 20
207.9675451806567992
 30
0.0
 40
0.009801195494851
 50
201.6702909556964016
 51
217.2843793296300134
  0
ARC
  5
E7E1
  8
0
 10
3482.288346585734871
 20
207.9622091256962051
 30
0.0
 40
0.0009925029321899
 50
217.284379329660112
 51
263.018322870951522
  0
ARC
  5
E7E2
  8
0
 10
3482.2883137958551742
 20
207.9619413656861013
 30
0.0
 40
0.0007227426697956
 50
263.0183228710565118
 51
325.2091063676699036
  0
ARC
  5
E7E3
  8
0
 10
3482.2840929006788429
 20
207.9648739694567041
 30
0.0
 40
0.0058624042306217
 50
325.2091063676915041
 51
339.7629058303583065
  0
ARC
  5
E7E4
  8
0
 10
3482.266141710492775
 20
207.9704479215313029
 30
0.0
 40
0.0246529845716512
 50
342.040071920940477
 51
353.2253431467211158
  0
ARC
  5
E7E5
  8
0
 10
3482.1998643299680225
 20
207.9740504743515999
 30
0.0
 40
0.0909914637254044
 50
355.8967937584951073
 51
10.9909952902317904
  0
ARC
  5
E7E6
  8
0
 10
3481.3084551360761907
 20
207.7688424277361037
 30
0.0
 40
1.0056667810408839
 50
12.7855130520610594
 51
13.3385866000239801
  0
ARC
  5
E7E7
  8
0
 10
3482.2798336872888285
 20
207.9991574409100963
 30
0.0
 40
0.0073575628866481
 50
13.3385866000287301
 51
39.4840560592711611
  0
ARC
  5
E7E8
  8
0
 10
3482.2841992280418708
 20
208.0027540751403876
 30
0.0
 40
0.001701263403339
 50
39.4840560593382222
 51
69.7054631524686243
  0
ARC
  5
E7E9
  8
0
 10
3482.2846595907271876
 20
208.0039989619743039
 30
0.0
 40
0.000373981582756
 50
69.7054631524680701
 51
102.8691262164756068
  0
ARC
  5
E7EA
  8
0
 10
3482.2841714497390058
 20
208.0061355874094033
 30
0.0
 40
0.0018176958283808
 50
278.9357907804838987
 51
282.8691262163951023
  0
LINE
  5
E7EB
  8
0
 10
3482.2898264214909432
 20
207.9416148069998087
 30
0.0
 11
3482.3460949077489204
 21
207.9355313417935065
 31
0.0
  0
ARC
  5
E7EC
  8
0
 10
3482.3464501820749319
 20
208.017397733711789
 30
0.0
 40
0.0526978544372789
 50
133.1342730377947134
 51
169.0192979278384087
  0
ARC
  5
E7ED
  8
0
 10
3482.3219680038068873
 20
208.0399116334814096
 30
0.0
 40
0.0196854879698665
 50
101.643437133683193
 51
125.9174925577541018
  0
ARC
  5
E7EE
  8
0
 10
3482.3217499551651599
 20
208.0404774914892982
 30
0.0
 40
0.0190875258148567
 50
89.9446565441275538
 51
101.3451829378241058
  0
ARC
  5
E7EF
  8
0
 10
3482.3185435117989073
 20
208.0253601319990082
 30
0.0
 40
0.0343565630378863
 50
42.0157444750729425
 51
84.6139999597256462
  0
ARC
  5
E7F0
  8
0
 10
3482.2903132494911915
 20
207.9960382852553096
 30
0.0
 40
0.0750123495278323
 50
19.9438434947955088
 51
44.2233347071470391
  0
ARC
  5
E7F1
  8
0
 10
3482.2661689722967822
 20
207.9872772765687046
 30
0.0
 40
0.1006970024248438
 50
1.318345657574316
 51
19.9438434947955088
  0
ARC
  5
E7F2
  8
0
 10
3482.282497588293154
 20
207.9876530557270939
 30
0.0
 40
0.0843640629977149
 50
335.0351780558206087
 51
1.318345657574316
  0
ARC
  5
E7F3
  8
0
 10
3482.2689134739071051
 20
207.9939772813877141
 30
0.0
 40
0.0993481877254027
 50
317.4819838532159224
 51
335.0351780558206087
  0
ARC
  5
E7F4
  8
0
 10
3482.3216698383789662
 20
207.9456044534572925
 30
0.0
 40
0.0277719034246795
 50
270.203324222959111
 51
317.4819838531947198
  0
ARC
  5
E7F5
  8
0
 10
3482.321698445723996
 20
207.9375430763547001
 30
0.0
 40
0.0197104755629027
 50
218.2361066341389062
 51
270.2033242229330767
  0
ARC
  5
E7F6
  8
0
 10
3482.3533057939848732
 20
207.962447875486987
 30
0.0
 40
0.0599506729270725
 50
205.4278288512878134
 51
218.2361066341389062
  0
ARC
  5
E7F7
  8
0
 10
3482.3322881188009887
 20
207.952455436615395
 30
0.0
 40
0.0366785543145696
 50
198.5690037049398029
 51
205.4278288512892914
  0
ARC
  5
E7F8
  8
0
 10
3482.3313342574979288
 20
207.9514123266193906
 30
0.0
 40
0.0261562326355984
 50
206.7163327703322011
 51
255.7459374029238006
  0
ARC
  5
E7F9
  8
0
 10
3482.3283725875849086
 20
207.939754188297087
 30
0.0
 40
0.0141277797916908
 50
255.7459374029238006
 51
289.9787785646739735
  0
ARC
  5
E7FA
  8
0
 10
3482.3235874268880252
 20
207.9529164758363038
 30
0.0
 40
0.0281329065733482
 50
289.9787785646735188
 51
309.7130607297402207
  0
ARC
  5
E7FB
  8
0
 10
3482.308920175764797
 20
207.9705750732366027
 30
0.0
 40
0.0510883921408129
 50
309.7130607297402207
 51
316.6901760706905975
  0
ARC
  5
E7FC
  8
0
 10
3482.2858766121071312
 20
207.9871096323990969
 30
0.0
 40
0.0792878502150422
 50
319.4192205657764134
 51
358.7090814855475855
  0
ARC
  5
E7FD
  8
0
 10
3482.2789403596871125
 20
207.9888275707731964
 30
0.0
 40
0.0862751726098346
 50
357.6721998789665804
 51
24.9186672426814688
  0
ARC
  5
E7FE
  8
0
 10
3482.2970041665830649
 20
207.9972207217539903
 30
0.0
 40
0.066356686177005
 50
24.9178398921876507
 51
42.7172144084532306
  0
ARC
  5
E7FF
  8
0
 10
3482.1040393488060545
 20
207.7876758181897969
 30
0.0
 40
0.3510388518083027
 50
46.4823131596055035
 51
47.3486062667953576
  0
ARC
  5
E800
  8
0
 10
3482.3267112498069764
 20
208.0293941680085084
 30
0.0
 40
0.0223892874778121
 50
47.3486062667975816
 51
84.7910422284362255
  0
ARC
  5
E801
  8
0
 10
3482.3286913655260832
 20
208.0312145651807043
 30
0.0
 40
0.0204764948806607
 50
89.8529048400266106
 51
126.2162014733955004
  0
ARC
  5
E802
  8
0
 10
3482.3476098319888479
 20
208.012402053672588
 30
0.0
 40
0.0470153316939607
 50
131.2780640849483973
 51
148.296470509980594
  0
ARC
  5
E803
  8
0
 10
3482.3347248430040963
 20
208.0203610816020046
 30
0.0
 40
0.0318703963449516
 50
148.2964705099792013
 51
161.9209158971584941
  0
LINE
  5
E804
  8
0
 10
3482.347318226790776
 20
208.2923313306935995
 30
0.0
 11
3482.2841851543621488
 21
208.274024386821992
 31
0.0
  0
ARC
  5
E805
  8
0
 10
3482.2846698673238279
 20
208.272352812433013
 30
0.0
 40
0.001740433162557
 50
106.1707801309042054
 51
148.4727329271723022
  0
ARC
  5
E806
  8
0
 10
3482.3036074869892218
 20
208.2628196457465037
 30
0.0
 40
0.0229365377776157
 50
152.9150854629752985
 51
176.4347583343588894
  0
ARC
  5
E807
  8
0
 10
3482.4709612255160209
 20
208.2490749180049079
 30
0.0
 40
0.1908498295388088
 50
175.4406326050491032
 51
187.8445543785661016
  0
ARC
  5
E808
  8
0
 10
3482.3758617766370662
 20
208.2310454963647999
 30
0.0
 40
0.0943059538138719
 50
184.877789491098099
 51
203.6661098623164037
  0
ARC
  5
E809
  8
0
 10
3482.2919578198088857
 20
208.1944029011054056
 30
0.0
 40
0.0027522997534863
 50
206.1358232399622921
 51
258.0409129679316038
  0
ARC
  5
E80A
  8
0
 10
3482.2913845592770485
 20
208.1935253612298027
 30
0.0
 40
0.0018150258458815
 50
270.0930533219071208
 51
331.1527105460456255
  0
ARC
  5
E80B
  8
0
 10
3482.2515879703610153
 20
208.2085755961894051
 30
0.0
 40
0.0443448824122649
 50
338.9527185124092057
 51
1.2022643831863979
  0
ARC
  5
E80C
  8
0
 10
3482.1513410247289357
 20
208.2172094524777037
 30
0.0
 40
0.1447871414748641
 50
356.9501319956924021
 51
7.2047797753895884
  0
ARC
  5
E80D
  8
0
 10
3481.9766860082390849
 20
208.1951305899046929
 30
0.0
 40
0.3208321668449087
 50
7.2047797753895884
 51
12.5374987093551695
  0
ARC
  5
E80E
  8
0
 10
3482.2673279028667821
 20
208.2597639427411025
 30
0.0
 40
0.0230903639152377
 50
12.5374987093535797
 51
35.1384102525218296
  0
ARC
  5
E80F
  8
0
 10
3482.2841269393879884
 20
208.2715873358316969
 30
0.0
 40
0.0025477191929415
 50
35.1384102525058495
 51
75.3107316684750856
  0
ARC
  5
E810
  8
0
 10
3482.2845556940687857
 20
208.2732228994981938
 30
0.0
 40
0.0008568912643103
 50
75.3107316684750856
 51
99.0202985318173745
  0
ARC
  5
E811
  8
0
 10
3482.2852132808920942
 20
208.2690805583054043
 30
0.0
 40
0.0050511028692553
 50
99.0202985318176445
 51
101.533037724859895
  0
ARC
  5
E812
  8
0
 10
3482.2869042516099398
 20
208.2527166120088111
 30
0.0
 40
0.0019353328781952
 50
117.3579386166338026
 51
167.3347282650331067
  0
ARC
  5
E813
  8
0
 10
3482.3369847499689058
 20
208.2414623764736064
 30
0.0
 40
0.0532647994003512
 50
167.3347282650331067
 51
174.5975070460382028
  0
ARC
  5
E814
  8
0
 10
3482.336350937482166
 20
208.2415223172172887
 30
0.0
 40
0.0526281588717868
 50
174.5975070460382028
 51
186.7238260647364996
  0
ARC
  5
E815
  8
0
 10
3480.787355505286996
 20
208.0589041143097973
 30
0.0
 40
1.5070949758525269
 50
6.2738456286323769
 51
6.7238260647365209
  0
ARC
  5
E816
  8
0
 10
3482.3220476851570311
 20
208.2276266492598893
 30
0.0
 40
0.0368439415779731
 50
186.2738456286323014
 51
201.6702909557151884
  0
ARC
  5
E817
  8
0
 10
3482.2969162076551584
 20
208.2176407114347114
 30
0.0
 40
0.009801195494851
 50
201.6702909556964016
 51
217.2843793296300134
  0
ARC
  5
E818
  8
0
 10
3482.2899076712801616
 20
208.2123046564740889
 30
0.0
 40
0.0009925029321899
 50
217.284379329660112
 51
263.018322870951522
  0
ARC
  5
E819
  8
0
 10
3482.2898748814000101
 20
208.2120368964640136
 30
0.0
 40
0.0007227426697956
 50
263.0183228710565118
 51
325.2091063676699036
  0
ARC
  5
E81A
  8
0
 10
3482.2856539862241334
 20
208.2149695002345027
 30
0.0
 40
0.0058624042306217
 50
325.2091063676915041
 51
339.7629058303583065
  0
ARC
  5
E81B
  8
0
 10
3482.2373166190159282
 20
208.2287084665358918
 30
0.0
 40
0.0560991050047502
 50
343.6769562540599736
 51
348.71593639192929
  0
ARC
  5
E81C
  8
0
 10
3482.1923023487879618
 20
208.2229999000815042
 30
0.0
 40
0.1001675813461599
 50
356.985010580085202
 51
10.63962912133535
  0
ARC
  5
E81D
  8
0
 10
3481.3100162216210265
 20
208.0189379585139875
 30
0.0
 40
1.0056667810408839
 50
12.7855130520610594
 51
13.3385866000239801
  0
ARC
  5
E81E
  8
0
 10
3482.2813947728350286
 20
208.2492529716878948
 30
0.0
 40
0.0073575628866481
 50
13.3385866000287301
 51
39.4840560592711611
  0
ARC
  5
E81F
  8
0
 10
3482.2857603135871614
 20
208.2528496059182999
 30
0.0
 40
0.001701263403339
 50
39.4840560593382222
 51
69.7054631524686243
  0
ARC
  5
E820
  8
0
 10
3482.2862206762720234
 20
208.2540944927521878
 30
0.0
 40
0.000373981582756
 50
69.7054631524680701
 51
102.8691262164756068
  0
ARC
  5
E821
  8
0
 10
3482.2857325352838416
 20
208.2562311181872872
 30
0.0
 40
0.0018176958283808
 50
278.9357907804838987
 51
282.8691262163951023
  0
LINE
  5
E822
  8
0
 10
3482.291387507035779
 20
208.1917103377776073
 30
0.0
 11
3482.3476559932942109
 21
208.1856268725713903
 31
0.0
  0
ARC
  5
E823
  8
0
 10
3482.348011267621132
 20
208.2674932644897012
 30
0.0
 40
0.0526978544372789
 50
133.1342730377947134
 51
169.0192979278384087
  0
ARC
  5
E824
  8
0
 10
3482.3235290893521778
 20
208.2900071642592081
 30
0.0
 40
0.0196854879698665
 50
101.643437133683193
 51
125.9174925577541018
  0
ARC
  5
E825
  8
0
 10
3482.3233110407109052
 20
208.2905730222672105
 30
0.0
 40
0.0190875258148567
 50
89.9446565441275538
 51
101.3451829378241058
  0
ARC
  5
E826
  8
0
 10
3482.3201045973451073
 20
208.275455662776892
 30
0.0
 40
0.0343565630378863
 50
42.0157444750729425
 51
84.6139999597256462
  0
ARC
  5
E827
  8
0
 10
3482.2918743350360273
 20
208.2461338160331934
 30
0.0
 40
0.0750123495278323
 50
19.9438434947955088
 51
44.2233347071470391
  0
ARC
  5
E828
  8
0
 10
3482.2677300578420727
 20
208.2373728073465031
 30
0.0
 40
0.1006970024248438
 50
1.318345657574316
 51
19.9438434947955088
  0
ARC
  5
E829
  8
0
 10
3482.2840586738370803
 20
208.2377485865050915
 30
0.0
 40
0.0843640629977149
 50
335.0351780558206087
 51
1.318345657574316
  0
ARC
  5
E82A
  8
0
 10
3482.2704745594519409
 20
208.244072812165598
 30
0.0
 40
0.0993481877254027
 50
317.4819838532159224
 51
335.0351780558206087
  0
ARC
  5
E82B
  8
0
 10
3482.323230923923802
 20
208.1956999842352047
 30
0.0
 40
0.0277719034246795
 50
270.203324222959111
 51
317.4819838531947198
  0
ARC
  5
E82C
  8
0
 10
3482.3232595312679223
 20
208.1876386071326124
 30
0.0
 40
0.0197104755629027
 50
218.2361066341389062
 51
270.2033242229330767
  0
ARC
  5
E82D
  8
0
 10
3482.3548668795301637
 20
208.2125434062648992
 30
0.0
 40
0.0599506729270725
 50
205.4278288512878134
 51
218.2361066341389062
  0
ARC
  5
E82E
  8
0
 10
3482.3338492043458245
 20
208.2025509673933072
 30
0.0
 40
0.0366785543145696
 50
198.5690037049398029
 51
205.4278288512892914
  0
ARC
  5
E82F
  8
0
 10
3482.3328953430441288
 20
208.2015078573973028
 30
0.0
 40
0.0261562326355984
 50
206.7163327703322011
 51
255.7459374029238006
  0
ARC
  5
E830
  8
0
 10
3482.3299336731301992
 20
208.189849719074914
 30
0.0
 40
0.0141277797916908
 50
255.7459374029238006
 51
289.9787785646739735
  0
ARC
  5
E831
  8
0
 10
3482.3251485124319515
 20
208.2030120066141876
 30
0.0
 40
0.0281329065733482
 50
289.9787785646735188
 51
309.7130607297402207
  0
ARC
  5
E832
  8
0
 10
3482.3104812613100876
 20
208.2206706040144866
 30
0.0
 40
0.0510883921408129
 50
309.7130607297402207
 51
316.6901760706905975
  0
ARC
  5
E833
  8
0
 10
3482.287437697651967
 20
208.2372051631770091
 30
0.0
 40
0.0792878502150422
 50
319.4192205657764134
 51
358.7090814855475855
  0
ARC
  5
E834
  8
0
 10
3482.2805014452319483
 20
208.2389231015511086
 30
0.0
 40
0.0862751726098346
 50
357.6721998789665804
 51
24.9186672426814688
  0
ARC
  5
E835
  8
0
 10
3482.2985652521279007
 20
208.2473162525319026
 30
0.0
 40
0.066356686177005
 50
24.9178398921876507
 51
42.7172144084532306
  0
ARC
  5
E836
  8
0
 10
3482.1056004343499808
 20
208.0377713489677092
 30
0.0
 40
0.3510388518083027
 50
46.4823131596055035
 51
47.3486062667953576
  0
ARC
  5
E837
  8
0
 10
3482.3282723353509027
 20
208.2794896987863922
 30
0.0
 40
0.0223892874778121
 50
47.3486062667975816
 51
84.7910422284362255
  0
ARC
  5
E838
  8
0
 10
3482.3302524510709191
 20
208.2813100959585881
 30
0.0
 40
0.0204764948806607
 50
89.8529048400266106
 51
126.2162014733955004
  0
ARC
  5
E839
  8
0
 10
3482.3491709175341384
 20
208.2624975844505002
 30
0.0
 40
0.0470153316939607
 50
131.2780640849483973
 51
148.296470509980594
  0
ARC
  5
E83A
  8
0
 10
3482.3362859285489321
 20
208.2704566123798884
 30
0.0
 40
0.0318703963449516
 50
148.2964705099792013
 51
161.9209158971584941
  0
LINE
  5
E83B
  8
0
 10
3482.3473182271118276
 20
208.5442968961845907
 30
0.0
 11
3482.2841851546832004
 21
208.5259899523130116
 31
0.0
  0
ARC
  5
E83C
  8
0
 10
3482.2846698676439701
 20
208.5243183779240042
 30
0.0
 40
0.001740433162557
 50
106.1707801309042054
 51
148.4727329271723022
  0
ARC
  5
E83D
  8
0
 10
3482.3036074873098187
 20
208.5147852112374949
 30
0.0
 40
0.0229365377776157
 50
152.9150854629752985
 51
176.4347583343588894
  0
ARC
  5
E83E
  8
0
 10
3482.4709612258370726
 20
208.5010404834958138
 30
0.0
 40
0.1908498295388088
 50
175.4406326050491032
 51
187.8445543785661016
  0
ARC
  5
E83F
  8
0
 10
3482.3758617769572083
 20
208.4830110618557057
 30
0.0
 40
0.0943059538138719
 50
184.877789491098099
 51
203.6661098623164037
  0
ARC
  5
E840
  8
0
 10
3482.2919578201290278
 20
208.4463684665963967
 30
0.0
 40
0.0027522997534863
 50
206.1358232399622921
 51
258.0409129679316038
  0
ARC
  5
E841
  8
0
 10
3482.2913845595981002
 20
208.4454909267207938
 30
0.0
 40
0.0018150258458815
 50
270.0930533219071208
 51
331.1527105460456255
  0
ARC
  5
E842
  8
0
 10
3482.251587970682067
 20
208.4605411616803963
 30
0.0
 40
0.0443448824122649
 50
338.9527185124092057
 51
1.2022643831863979
  0
ARC
  5
E843
  8
0
 10
3482.1513410250490779
 20
208.4691750179686949
 30
0.0
 40
0.1447871414748641
 50
356.9501319956924021
 51
7.2047797753895884
  0
ARC
  5
E844
  8
0
 10
3481.9766860085601365
 20
208.4470961553957125
 30
0.0
 40
0.3208321668449087
 50
7.2047797753895884
 51
12.5374987093551695
  0
ARC
  5
E845
  8
0
 10
3482.2673279031869242
 20
208.5117295082320936
 30
0.0
 40
0.0230903639152377
 50
12.5374987093535797
 51
35.1384102525218296
  0
ARC
  5
E846
  8
0
 10
3482.2841269397081305
 20
208.5235529013226028
 30
0.0
 40
0.0025477191929415
 50
35.1384102525058495
 51
75.3107316684750856
  0
ARC
  5
E847
  8
0
 10
3482.2845556943889278
 20
208.5251884649892133
 30
0.0
 40
0.0008568912643103
 50
75.3107316684750856
 51
99.0202985318173745
  0
ARC
  5
E848
  8
0
 10
3482.2852132812117816
 20
208.5210461237963955
 30
0.0
 40
0.0050511028692553
 50
99.0202985318176445
 51
101.533037724859895
  0
ARC
  5
E849
  8
0
 10
3482.2869042519291725
 20
208.5046821774998023
 30
0.0
 40
0.0019353328781952
 50
117.3579386166338026
 51
167.3347282650331067
  0
ARC
  5
E84A
  8
0
 10
3482.3369847502899574
 20
208.4934279419645975
 30
0.0
 40
0.0532647994003512
 50
167.3347282650331067
 51
174.5975070460382028
  0
ARC
  5
E84B
  8
0
 10
3482.3363509378018534
 20
208.4934878827083082
 30
0.0
 40
0.0526281588717868
 50
174.5975070460382028
 51
186.7238260647364996
  0
ARC
  5
E84C
  8
0
 10
3480.7873555056071382
 20
208.3108696798007884
 30
0.0
 40
1.5070949758525269
 50
6.2738456286323769
 51
6.7238260647365209
  0
ARC
  5
E84D
  8
0
 10
3482.3220476854771732
 20
208.4795922147509089
 30
0.0
 40
0.0368439415779731
 50
186.2738456286323014
 51
201.6702909557151884
  0
ARC
  5
E84E
  8
0
 10
3482.2969162079748457
 20
208.4696062769257026
 30
0.0
 40
0.009801195494851
 50
201.6702909556964016
 51
217.2843793296300134
  0
ARC
  5
E84F
  8
0
 10
3482.2899076715989395
 20
208.4642702219649948
 30
0.0
 40
0.0009925029321899
 50
217.284379329660112
 51
263.018322870951522
  0
ARC
  5
E850
  8
0
 10
3482.2898748817210617
 20
208.4640024619550047
 30
0.0
 40
0.0007227426697956
 50
263.0183228710565118
 51
325.2091063676699036
  0
ARC
  5
E851
  8
0
 10
3482.2856539865438208
 20
208.4669350657254938
 30
0.0
 40
0.0058624042306217
 50
325.2091063676915041
 51
339.7629058303583065
  0
ARC
  5
E852
  8
0
 10
3482.2651676696291361
 20
208.4731715589522878
 30
0.0
 40
0.0272692969972679
 50
342.358294323142502
 51
352.6795238063253919
  0
ARC
  5
E853
  8
0
 10
3482.1998419636379367
 20
208.4759213658165891
 30
0.0
 40
0.0925822059949171
 50
356.1450140100232034
 51
10.9197165613222502
  0
ARC
  5
E854
  8
0
 10
3481.3100162219411686
 20
208.2709035240048934
 30
0.0
 40
1.0056667810408839
 50
12.7855130520610594
 51
13.3385866000239801
  0
ARC
  5
E855
  8
0
 10
3482.2813947731551707
 20
208.501218537178886
 30
0.0
 40
0.0073575628866481
 50
13.3385866000287301
 51
39.4840560592711611
  0
ARC
  5
E856
  8
0
 10
3482.2857603139068488
 20
208.504815171409291
 30
0.0
 40
0.001701263403339
 50
39.4840560593382222
 51
69.7054631524686243
  0
ARC
  5
E857
  8
0
 10
3482.286220676593075
 20
208.5060600582432073
 30
0.0
 40
0.000373981582756
 50
69.7054631524680701
 51
102.8691262164756068
  0
ARC
  5
E858
  8
0
 10
3482.2857325356030742
 20
208.5081966836783067
 30
0.0
 40
0.0018176958283808
 50
278.9357907804838987
 51
282.8691262163951023
  0
LINE
  5
E859
  8
0
 10
3482.2913875073559211
 20
208.4436759032685984
 30
0.0
 11
3482.3476559936129888
 21
208.4375924380624099
 31
0.0
  0
ARC
  5
E85A
  8
0
 10
3482.3480112679408194
 20
208.5194588299806924
 30
0.0
 40
0.0526978544372789
 50
133.1342730377947134
 51
169.0192979278384087
  0
ARC
  5
E85B
  8
0
 10
3482.3235290896718652
 20
208.5419727297501993
 30
0.0
 40
0.0196854879698665
 50
101.643437133683193
 51
125.9174925577541018
  0
ARC
  5
E85C
  8
0
 10
3482.3233110410310474
 20
208.5425385877582016
 30
0.0
 40
0.0190875258148567
 50
89.9446565441275538
 51
101.3451829378241058
  0
ARC
  5
E85D
  8
0
 10
3482.3201045976647947
 20
208.5274212282677979
 30
0.0
 40
0.0343565630378863
 50
42.0157444750729425
 51
84.6139999597256462
  0
ARC
  5
E85E
  8
0
 10
3482.2918743353561695
 20
208.498099381524213
 30
0.0
 40
0.0750123495278323
 50
19.9438434947955088
 51
44.2233347071470391
  0
ARC
  5
E85F
  8
0
 10
3482.2677300581622148
 20
208.4893383728374943
 30
0.0
 40
0.1006970024248438
 50
1.318345657574316
 51
19.9438434947955088
  0
ARC
  5
E860
  8
0
 10
3482.2840586741590414
 20
208.4897141519959973
 30
0.0
 40
0.0843640629977149
 50
335.0351780558206087
 51
1.318345657574316
  0
ARC
  5
E861
  8
0
 10
3482.270474559772083
 20
208.4960383776565891
 30
0.0
 40
0.0993481877254027
 50
317.4819838532159224
 51
335.0351780558206087
  0
ARC
  5
E862
  8
0
 10
3482.3232309242439442
 20
208.4476655497261959
 30
0.0
 40
0.0277719034246795
 50
270.203324222959111
 51
317.4819838531947198
  0
ARC
  5
E863
  8
0
 10
3482.3232595315898834
 20
208.4396041726236035
 30
0.0
 40
0.0197104755629027
 50
218.2361066341389062
 51
270.2033242229330767
  0
ARC
  5
E864
  8
0
 10
3482.3548668798498511
 20
208.4645089717558903
 30
0.0
 40
0.0599506729270725
 50
205.4278288512878134
 51
218.2361066341389062
  0
ARC
  5
E865
  8
0
 10
3482.3338492046668762
 20
208.4545165328842984
 30
0.0
 40
0.0366785543145696
 50
198.5690037049398029
 51
205.4278288512892914
  0
ARC
  5
E866
  8
0
 10
3482.3328953433638162
 20
208.4534734228882087
 30
0.0
 40
0.0261562326355984
 50
206.7163327703322011
 51
255.7459374029238006
  0
ARC
  5
E867
  8
0
 10
3482.3299336734498866
 20
208.4418152845659904
 30
0.0
 40
0.0141277797916908
 50
255.7459374029238006
 51
289.9787785646739735
  0
ARC
  5
E868
  8
0
 10
3482.3251485127520937
 20
208.4549775721052072
 30
0.0
 40
0.0281329065733482
 50
289.9787785646735188
 51
309.7130607297402207
  0
ARC
  5
E869
  8
0
 10
3482.310481261629775
 20
208.4726361695055061
 30
0.0
 40
0.0510883921408129
 50
309.7130607297402207
 51
316.6901760706905975
  0
ARC
  5
E86A
  8
0
 10
3482.2874376979730187
 20
208.4891707286680003
 30
0.0
 40
0.0792878502150422
 50
319.4192205657764134
 51
358.7090814855475855
  0
ARC
  5
E86B
  8
0
 10
3482.2805014455520904
 20
208.4908886670420998
 30
0.0
 40
0.0862751726098346
 50
357.6721998789665804
 51
24.9186672426814688
  0
ARC
  5
E86C
  8
0
 10
3482.2985652524489524
 20
208.4992818180228937
 30
0.0
 40
0.066356686177005
 50
24.9178398921876507
 51
42.7172144084532306
  0
ARC
  5
E86D
  8
0
 10
3482.1056004346701229
 20
208.2897369144587003
 30
0.0
 40
0.3510388518083027
 50
46.4823131596055035
 51
47.3486062667953576
  0
ARC
  5
E86E
  8
0
 10
3482.3282723356719544
 20
208.5314552642774117
 30
0.0
 40
0.0223892874778121
 50
47.3486062667975816
 51
84.7910422284362255
  0
ARC
  5
E86F
  8
0
 10
3482.3302524513910612
 20
208.5332756614496077
 30
0.0
 40
0.0204764948806607
 50
89.8529048400266106
 51
126.2162014733955004
  0
ARC
  5
E870
  8
0
 10
3482.3491709178538258
 20
208.5144631499414913
 30
0.0
 40
0.0470153316939607
 50
131.2780640849483973
 51
148.296470509980594
  0
ARC
  5
E871
  8
0
 10
3482.3362859288699838
 20
208.5224221778707943
 30
0.0
 40
0.0318703963449516
 50
148.2964705099792013
 51
161.9209158971584941
  0
LINE
  5
E872
  8
0
 10
3482.3473182272600752
 20
208.7962636360196882
 30
0.0
 11
3482.2841851548309933
 21
208.7779566921481091
 31
0.0
  0
ARC
  5
E873
  8
0
 10
3482.2846698677931272
 20
208.776285117758988
 30
0.0
 40
0.001740433162557
 50
106.1707801309042054
 51
148.4727329271723022
  0
ARC
  5
E874
  8
0
 10
3482.3036074874580663
 20
208.7667519510725924
 30
0.0
 40
0.0229365377776157
 50
152.9150854629752985
 51
176.4347583343588894
  0
ARC
  5
E875
  8
0
 10
3482.4709612259848655
 20
208.7530072233309113
 30
0.0
 40
0.1908498295388088
 50
175.4406326050491032
 51
187.8445543785661016
  0
ARC
  5
E876
  8
0
 10
3482.3758617771059107
 20
208.7349778016908033
 30
0.0
 40
0.0943059538138719
 50
184.877789491098099
 51
203.6661098623164037
  0
ARC
  5
E877
  8
0
 10
3482.2919578202768207
 20
208.698335206431409
 30
0.0
 40
0.0027522997534863
 50
206.1358232399622921
 51
258.0409129679316038
  0
ARC
  5
E878
  8
0
 10
3482.2913845597458931
 20
208.6974576665558061
 30
0.0
 40
0.0018150258458815
 50
270.0930533219071208
 51
331.1527105460456255
  0
ARC
  5
E879
  8
0
 10
3482.2515879708298598
 20
208.7125079015154085
 30
0.0
 40
0.0443448824122649
 50
338.9527185124092057
 51
1.2022643831863979
  0
ARC
  5
E87A
  8
0
 10
3482.1513410251968708
 20
208.7211417578037072
 30
0.0
 40
0.1447871414748641
 50
356.9501319956924021
 51
7.2047797753895884
  0
ARC
  5
E87B
  8
0
 10
3481.9766860087079294
 20
208.6990628952306963
 30
0.0
 40
0.3208321668449087
 50
7.2047797753895884
 51
12.5374987093551695
  0
ARC
  5
E87C
  8
0
 10
3482.2673279033360814
 20
208.7636962480671059
 30
0.0
 40
0.0230903639152377
 50
12.5374987093535797
 51
35.1384102525218296
  0
ARC
  5
E87D
  8
0
 10
3482.2841269398559234
 20
208.7755196411575866
 30
0.0
 40
0.0025477191929415
 50
35.1384102525058495
 51
75.3107316684750856
  0
ARC
  5
E87E
  8
0
 10
3482.2845556945371754
 20
208.7771552048241972
 30
0.0
 40
0.0008568912643103
 50
75.3107316684750856
 51
99.0202985318173745
  0
ARC
  5
E87F
  8
0
 10
3482.2852132813609387
 20
208.773012863631493
 30
0.0
 40
0.0050511028692553
 50
99.0202985318176445
 51
101.533037724859895
  0
ARC
  5
E880
  8
0
 10
3482.2869042520778748
 20
208.7566489173347861
 30
0.0
 40
0.0019353328781952
 50
117.3579386166338026
 51
167.3347282650331067
  0
ARC
  5
E881
  8
0
 10
3482.3369847504382051
 20
208.7453946817996098
 30
0.0
 40
0.0532647994003512
 50
167.3347282650331067
 51
174.5975070460382028
  0
ARC
  5
E882
  8
0
 10
3482.3363509379501011
 20
208.7454546225432921
 30
0.0
 40
0.0526281588717868
 50
174.5975070460382028
 51
186.7238260647364996
  0
ARC
  5
E883
  8
0
 10
3480.7873555057549311
 20
208.5628364196358007
 30
0.0
 40
1.5070949758525269
 50
6.2738456286323769
 51
6.7238260647365209
  0
ARC
  5
E884
  8
0
 10
3482.3220476856258756
 20
208.7315589545858927
 30
0.0
 40
0.0368439415779731
 50
186.2738456286323014
 51
201.6702909557151884
  0
ARC
  5
E885
  8
0
 10
3482.2969162081230934
 20
208.7215730167606011
 30
0.0
 40
0.009801195494851
 50
201.6702909556964016
 51
217.2843793296300134
  0
ARC
  5
E886
  8
0
 10
3482.2899076717480966
 20
208.7162369618000923
 30
0.0
 40
0.0009925029321899
 50
217.284379329660112
 51
263.018322870951522
  0
ARC
  5
E887
  8
0
 10
3482.2898748818688546
 20
208.7159692017899886
 30
0.0
 40
0.0007227426697956
 50
263.0183228710565118
 51
325.2091063676699036
  0
ARC
  5
E888
  8
0
 10
3482.2856539866929779
 20
208.7189018055605061
 30
0.0
 40
0.0058624042306217
 50
325.2091063676915041
 51
339.7629058303583065
  0
ARC
  5
E889
  8
0
 10
3482.2689943946779749
 20
208.7241074615214984
 30
0.0
 40
0.0233108073631084
 50
341.9222972226978072
 51
353.9823322946093072
  0
ARC
  5
E88A
  8
0
 10
3482.2020545028958622
 20
208.7281686195514965
 30
0.0
 40
0.0903567036121705
 50
355.8715973773570909
 51
11.0108338335523399
  0
ARC
  5
E88B
  8
0
 10
3481.3100162220889615
 20
208.5228702638399909
 30
0.0
 40
1.0056667810408839
 50
12.7855130520610594
 51
13.3385866000239801
  0
ARC
  5
E88C
  8
0
 10
3482.2813947733029636
 20
208.7531852770140119
 30
0.0
 40
0.0073575628866481
 50
13.3385866000287301
 51
39.4840560592711611
  0
ARC
  5
E88D
  8
0
 10
3482.2857603140560059
 20
208.7567819112443033
 30
0.0
 40
0.001701263403339
 50
39.4840560593382222
 51
69.7054631524686243
  0
ARC
  5
E88E
  8
0
 10
3482.2862206767408679
 20
208.7580267980781912
 30
0.0
 40
0.000373981582756
 50
69.7054631524680701
 51
102.8691262164756068
  0
ARC
  5
E88F
  8
0
 10
3482.2857325357531408
 20
208.7601634235132906
 30
0.0
 40
0.0018176958283808
 50
278.9357907804838987
 51
282.8691262163951023
  0
LINE
  5
E890
  8
0
 10
3482.2913875075050782
 20
208.6956426431036107
 30
0.0
 11
3482.3476559937630554
 21
208.6895591778973937
 31
0.0
  0
ARC
  5
E891
  8
0
 10
3482.348011268089067
 20
208.7714255698157046
 30
0.0
 40
0.0526978544372789
 50
133.1342730377947134
 51
169.0192979278384087
  0
ARC
  5
E892
  8
0
 10
3482.3235290898201129
 20
208.7939394695852116
 30
0.0
 40
0.0196854879698665
 50
101.643437133683193
 51
125.9174925577541018
  0
ARC
  5
E893
  8
0
 10
3482.3233110411788402
 20
208.7945053275932139
 30
0.0
 40
0.0190875258148567
 50
89.9446565441275538
 51
101.3451829378241058
  0
ARC
  5
E894
  8
0
 10
3482.3201045978130423
 20
208.7793879681028955
 30
0.0
 40
0.0343565630378863
 50
42.0157444750729425
 51
84.6139999597256462
  0
ARC
  5
E895
  8
0
 10
3482.2918743355048719
 20
208.7500661213591968
 30
0.0
 40
0.0750123495278323
 50
19.9438434947955088
 51
44.2233347071470391
  0
ARC
  5
E896
  8
0
 10
3482.2677300583100077
 20
208.7413051126725918
 30
0.0
 40
0.1006970024248438
 50
1.318345657574316
 51
19.9438434947955088
  0
ARC
  5
E897
  8
0
 10
3482.2840586743059248
 20
208.7416808918310096
 30
0.0
 40
0.0843640629977149
 50
335.0351780558206087
 51
1.318345657574316
  0
ARC
  5
E898
  8
0
 10
3482.2704745599198759
 20
208.7480051174916014
 30
0.0
 40
0.0993481877254027
 50
317.4819838532159224
 51
335.0351780558206087
  0
ARC
  5
E899
  8
0
 10
3482.3232309243931013
 20
208.6996322895612082
 30
0.0
 40
0.0277719034246795
 50
270.203324222959111
 51
317.4819838531947198
  0
ARC
  5
E89A
  8
0
 10
3482.3232595317372216
 20
208.6915709124585874
 30
0.0
 40
0.0197104755629027
 50
218.2361066341389062
 51
270.2033242229330767
  0
ARC
  5
E89B
  8
0
 10
3482.3548668799980987
 20
208.7164757115909026
 30
0.0
 40
0.0599506729270725
 50
205.4278288512878134
 51
218.2361066341389062
  0
ARC
  5
E89C
  8
0
 10
3482.3338492048151238
 20
208.7064832727193107
 30
0.0
 40
0.0366785543145696
 50
198.5690037049398029
 51
205.4278288512892914
  0
ARC
  5
E89D
  8
0
 10
3482.3328953435120638
 20
208.7054401627233062
 30
0.0
 40
0.0261562326355984
 50
206.7163327703322011
 51
255.7459374029238006
  0
ARC
  5
E89E
  8
0
 10
3482.3299336735990437
 20
208.693782024400889
 30
0.0
 40
0.0141277797916908
 50
255.7459374029238006
 51
289.9787785646739735
  0
ARC
  5
E89F
  8
0
 10
3482.325148512900796
 20
208.706944311940191
 30
0.0
 40
0.0281329065733482
 50
289.9787785646735188
 51
309.7130607297402207
  0
ARC
  5
E8A0
  8
0
 10
3482.3104812617780226
 20
208.72460290934049
 30
0.0
 40
0.0510883921408129
 50
309.7130607297402207
 51
316.6901760706905975
  0
ARC
  5
E8A1
  8
0
 10
3482.2874376981208115
 20
208.7411374685030125
 30
0.0
 40
0.0792878502150422
 50
319.4192205657764134
 51
358.7090814855475855
  0
ARC
  5
E8A2
  8
0
 10
3482.2805014457007928
 20
208.7428554068769984
 30
0.0
 40
0.0862751726098346
 50
357.6721998789665804
 51
24.9186672426814688
  0
ARC
  5
E8A3
  8
0
 10
3482.2985652525972
 20
208.751248557857906
 30
0.0
 40
0.066356686177005
 50
24.9178398921876507
 51
42.7172144084532306
  0
ARC
  5
E8A4
  8
0
 10
3482.1056004348188253
 20
208.5417036542937979
 30
0.0
 40
0.3510388518083027
 50
46.4823131596055035
 51
47.3486062667953576
  0
ARC
  5
E8A5
  8
0
 10
3482.328272335820202
 20
208.7834220041123956
 30
0.0
 40
0.0223892874778121
 50
47.3486062667975816
 51
84.7910422284362255
  0
ARC
  5
E8A6
  8
0
 10
3482.3302524515388541
 20
208.7852424012845063
 30
0.0
 40
0.0204764948806607
 50
89.8529048400266106
 51
126.2162014733955004
  0
ARC
  5
E8A7
  8
0
 10
3482.3491709180029829
 20
208.7664298897765036
 30
0.0
 40
0.0470153316939607
 50
131.2780640849483973
 51
148.296470509980594
  0
ARC
  5
E8A8
  8
0
 10
3482.3362859290168672
 20
208.7743889177058918
 30
0.0
 40
0.0318703963449516
 50
148.2964705099792013
 51
161.9209158971584941
  0
LINE
  5
E8A9
  8
0
 10
3482.3471541385379169
 20
209.0519018691954045
 30
0.0
 11
3482.2840210661088349
 21
209.0335949253239107
 31
0.0
  0
ARC
  5
E8AA
  8
0
 10
3482.2845057790709689
 20
209.0319233509347896
 30
0.0
 40
0.001740433162557
 50
106.1707801309042054
 51
148.4727329271723022
  0
ARC
  5
E8AB
  8
0
 10
3482.303443398735908
 20
209.022390184248394
 30
0.0
 40
0.0229365377776157
 50
152.9150854629752985
 51
176.4347583343588894
  0
ARC
  5
E8AC
  8
0
 10
3482.4707971372631619
 20
209.0086454565067129
 30
0.0
 40
0.1908498295388088
 50
175.4406326050491032
 51
187.8445543785661016
  0
ARC
  5
E8AD
  8
0
 10
3482.3756976883842071
 20
208.9906160348664912
 30
0.0
 40
0.0943059538138719
 50
184.877789491098099
 51
203.6661098623164037
  0
ARC
  5
E8AE
  8
0
 10
3482.2917937315560266
 20
208.9539734396072106
 30
0.0
 40
0.0027522997534863
 50
206.1358232399622921
 51
258.0409129679316038
  0
ARC
  5
E8AF
  8
0
 10
3482.291220471025099
 20
208.9530958997316077
 30
0.0
 40
0.0018150258458815
 50
270.0930533219071208
 51
331.1527105460456255
  0
ARC
  5
E8B0
  8
0
 10
3482.2514238821090657
 20
208.9681461346912101
 30
0.0
 40
0.0443448824122649
 50
338.9527185124092057
 51
1.2022643831863979
  0
ARC
  5
E8B1
  8
0
 10
3482.1511769364760767
 20
208.9767799909795087
 30
0.0
 40
0.1447871414748641
 50
356.9501319956924021
 51
7.2047797753895884
  0
ARC
  5
E8B2
  8
0
 10
3481.9765219199862258
 20
208.9547011284064979
 30
0.0
 40
0.3208321668449087
 50
7.2047797753895884
 51
12.5374987093551695
  0
ARC
  5
E8B3
  8
0
 10
3482.267163814613923
 20
209.0193344812429075
 30
0.0
 40
0.0230903639152377
 50
12.5374987093535797
 51
35.1384102525218296
  0
ARC
  5
E8B4
  8
0
 10
3482.2839628511351293
 20
209.0311578743333882
 30
0.0
 40
0.0025477191929415
 50
35.1384102525058495
 51
75.3107316684750856
  0
ARC
  5
E8B5
  8
0
 10
3482.2843916058159266
 20
209.0327934379999988
 30
0.0
 40
0.0008568912643103
 50
75.3107316684750856
 51
99.0202985318173745
  0
ARC
  5
E8B6
  8
0
 10
3482.2850491926378709
 20
209.0286510968072946
 30
0.0
 40
0.0050511028692553
 50
99.0202985318176445
 51
101.533037724859895
  0
ARC
  5
E8B7
  8
0
 10
3482.2867401633570807
 20
209.0122871505105877
 30
0.0
 40
0.0019353328781952
 50
117.3579386166338026
 51
167.3347282650331067
  0
ARC
  5
E8B8
  8
0
 10
3482.3368206617160467
 20
209.0010329149754114
 30
0.0
 40
0.0532647994003512
 50
167.3347282650331067
 51
174.5975070460382028
  0
ARC
  5
E8B9
  8
0
 10
3482.3361868492279427
 20
209.0010928557190937
 30
0.0
 40
0.0526281588717868
 50
174.5975070460382028
 51
186.723826064734908
  0
ARC
  5
E8BA
  8
0
 10
3480.787191417034137
 20
208.8184746528116023
 30
0.0
 40
1.5070949758525269
 50
6.2738456286323769
 51
6.7238260647365209
  0
ARC
  5
E8BB
  8
0
 10
3482.321883596904172
 20
208.9871971877616943
 30
0.0
 40
0.0368439415779731
 50
186.2738456286323014
 51
201.6702909557151884
  0
ARC
  5
E8BC
  8
0
 10
3482.296752119400935
 20
208.9772112499364027
 30
0.0
 40
0.009801195494851
 50
201.6702909556964016
 51
217.2843793296300134
  0
ARC
  5
E8BD
  8
0
 10
3482.2897435830259383
 20
208.9718751949758087
 30
0.0
 40
0.0009925029321899
 50
217.284379329660112
 51
263.018322870951522
  0
ARC
  5
E8BE
  8
0
 10
3482.2897107931457867
 20
208.9716074349659038
 30
0.0
 40
0.0007227426697956
 50
263.0183228710565118
 51
325.2091063676699036
  0
ARC
  5
E8BF
  8
0
 10
3482.2854898979708196
 20
208.9745400387363077
 30
0.0
 40
0.0058624042306217
 50
325.2091063676915041
 51
339.7629058303583065
  0
ARC
  5
E8C0
  8
0
 10
3482.2782589995449598
 20
208.9772058077259089
 30
0.0
 40
0.01356903879746
 50
339.7629058303522243
 51
0.0000000000521102
  0
ARC
  5
E8C1
  8
0
 10
3482.2110329217439357
 20
208.9849539338337934
 30
0.0
 40
0.081165782965599
 50
354.5221751049908789
 51
11.4486473401212301
  0
ARC
  5
E8C2
  8
0
 10
3481.3098521333668032
 20
208.7785084970157925
 30
0.0
 40
1.0056667810408839
 50
12.7855130520610594
 51
13.3385866000239801
  0
ARC
  5
E8C3
  8
0
 10
3482.2812306845808052
 20
209.0088235101898135
 30
0.0
 40
0.0073575628866481
 50
13.3385866000287301
 51
39.4840560592711611
  0
ARC
  5
E8C4
  8
0
 10
3482.2855962253338475
 20
209.0124201444201049
 30
0.0
 40
0.001701263403339
 50
39.4840560593382222
 51
69.7054631524686243
  0
ARC
  5
E8C5
  8
0
 10
3482.2860565880191643
 20
209.0136650312539928
 30
0.0
 40
0.000373981582756
 50
69.7054631524680701
 51
102.8691262164756068
  0
ARC
  5
E8C6
  8
0
 10
3482.2855684470309825
 20
209.0158016566890922
 30
0.0
 40
0.0018176958283808
 50
278.9357907804838987
 51
282.8691262163951023
  0
LINE
  5
E8C7
  8
0
 10
3482.2912234187829199
 20
208.9512808762794123
 30
0.0
 11
3482.3474919050399876
 21
208.9451974110731953
 31
0.0
  0
ARC
  5
E8C8
  8
0
 10
3482.3478471793678182
 20
209.0270638029915062
 30
0.0
 40
0.0526978544372789
 50
133.1342730377947134
 51
169.0192979278384087
  0
ARC
  5
E8C9
  8
0
 10
3482.323365001098864
 20
209.0495777027610131
 30
0.0
 40
0.0196854879698665
 50
101.643437133683193
 51
125.9174925577541018
  0
ARC
  5
E8CA
  8
0
 10
3482.3231469524571366
 20
209.0501435607689871
 30
0.0
 40
0.0190875258148567
 50
89.9446565441275538
 51
101.3451829378241058
  0
ARC
  5
E8CB
  8
0
 10
3482.319940509090884
 20
209.0350262012786118
 30
0.0
 40
0.0343565630378863
 50
42.0157444750729425
 51
84.6139999597256462
  0
ARC
  5
E8CC
  8
0
 10
3482.2917102467831683
 20
209.0057043545349984
 30
0.0
 40
0.0750123495278323
 50
19.9438434947955088
 51
44.2233347071470391
  0
ARC
  5
E8CD
  8
0
 10
3482.2675659695878494
 20
208.9969433458483934
 30
0.0
 40
0.1006970024248438
 50
1.318345657574316
 51
19.9438434947955088
  0
ARC
  5
E8CE
  8
0
 10
3482.2838945855851307
 20
208.9973191250068112
 30
0.0
 40
0.0843640629977149
 50
335.0351780558206087
 51
1.318345657574316
  0
ARC
  5
E8CF
  8
0
 10
3482.2703104711990818
 20
209.003643350667403
 30
0.0
 40
0.0993481877254027
 50
317.4819838532159224
 51
335.0351780558206087
  0
ARC
  5
E8D0
  8
0
 10
3482.323066835670943
 20
208.9552705227370097
 30
0.0
 40
0.0277719034246795
 50
270.203324222959111
 51
317.4819838531947198
  0
ARC
  5
E8D1
  8
0
 10
3482.3230954430159727
 20
208.947209145634389
 30
0.0
 40
0.0197104755629027
 50
218.2361066341389062
 51
270.2033242229330767
  0
ARC
  5
E8D2
  8
0
 10
3482.3547027912768499
 20
208.9721139447667042
 30
0.0
 40
0.0599506729270725
 50
205.4278288512878134
 51
218.2361066341389062
  0
ARC
  5
E8D3
  8
0
 10
3482.3336851160929655
 20
208.9621215058951123
 30
0.0
 40
0.0366785543145696
 50
198.5690037049398029
 51
205.4278288512892914
  0
ARC
  5
E8D4
  8
0
 10
3482.3327312547899055
 20
208.9610783958991078
 30
0.0
 40
0.0261562326355984
 50
206.7163327703322011
 51
255.7459374029238006
  0
ARC
  5
E8D5
  8
0
 10
3482.3297695848768853
 20
208.9494202575766906
 30
0.0
 40
0.0141277797916908
 50
255.7459374029238006
 51
289.9787785646739735
  0
ARC
  5
E8D6
  8
0
 10
3482.3249844241790925
 20
208.9625825451159926
 30
0.0
 40
0.0281329065733482
 50
289.9787785646735188
 51
309.7130607297402207
  0
ARC
  5
E8D7
  8
0
 10
3482.3103171730567738
 20
208.9802411425162916
 30
0.0
 40
0.0510883921408129
 50
309.7130607297402207
 51
316.6901760706905975
  0
ARC
  5
E8D8
  8
0
 10
3482.287273609399108
 20
208.9967757016788141
 30
0.0
 40
0.0792878502150422
 50
319.4192205657764134
 51
358.7090814855475855
  0
ARC
  5
E8D9
  8
0
 10
3482.2803373569790892
 20
208.9984936400527999
 30
0.0
 40
0.0862751726098346
 50
357.6721998789665804
 51
24.9186672426814688
  0
ARC
  5
E8DA
  8
0
 10
3482.2984011638759512
 20
209.0068867910337076
 30
0.0
 40
0.066356686177005
 50
24.9178398921876507
 51
42.7172144084532306
  0
ARC
  5
E8DB
  8
0
 10
3482.1054363460971217
 20
208.7973418874695994
 30
0.0
 40
0.3510388518083027
 50
46.4823131596055035
 51
47.3486062667953576
  0
ARC
  5
E8DC
  8
0
 10
3482.3281082470989531
 20
209.0390602372881972
 30
0.0
 40
0.0223892874778121
 50
47.3486062667975816
 51
84.7910422284362255
  0
ARC
  5
E8DD
  8
0
 10
3482.3300883628171505
 20
209.0408806344603931
 30
0.0
 40
0.0204764948806607
 50
89.8529048400266106
 51
126.2162014733955004
  0
ARC
  5
E8DE
  8
0
 10
3482.3490068292808246
 20
209.0220681229523052
 30
0.0
 40
0.0470153316939607
 50
131.2780640849483973
 51
148.296470509980594
  0
ARC
  5
E8DF
  8
0
 10
3482.3361218402960731
 20
209.0300271508816934
 30
0.0
 40
0.0318703963449516
 50
148.2964705099792013
 51
161.9209158971584941
  0
LINE
  5
E8E0
  8
0
 10
3482.3470530134409273
 20
209.3016031858628878
 30
0.0
 11
3482.2839199410109359
 21
209.2832962419913088
 31
0.0
  0
ARC
  5
E8E1
  8
0
 10
3482.2844046539730698
 20
209.2816246676021876
 30
0.0
 40
0.001740433162557
 50
106.1707801309042054
 51
148.4727329271723022
  0
ARC
  5
E8E2
  8
0
 10
3482.3033422736389184
 20
209.272091500915792
 30
0.0
 40
0.0229365377776157
 50
152.9150854629752985
 51
176.4347583343588894
  0
ARC
  5
E8E3
  8
0
 10
3482.4706960121661723
 20
209.2583467731741109
 30
0.0
 40
0.1908498295388088
 50
175.4406326050491032
 51
187.8445543785661016
  0
ARC
  5
E8E4
  8
0
 10
3482.3755965632858533
 20
209.2403173515340029
 30
0.0
 40
0.0943059538138719
 50
184.877789491098099
 51
203.6661098623164037
  0
ARC
  5
E8E5
  8
0
 10
3482.2916926064581276
 20
209.2036747562746086
 30
0.0
 40
0.0027522997534863
 50
206.1358232399622921
 51
258.0409129679316038
  0
ARC
  5
E8E6
  8
0
 10
3482.2911193459271999
 20
209.2027972163990057
 30
0.0
 40
0.0018150258458815
 50
270.0930533219071208
 51
331.1527105460456255
  0
ARC
  5
E8E7
  8
0
 10
3482.2513227570111667
 20
209.2178474513586082
 30
0.0
 40
0.0443448824122649
 50
338.9527185124092057
 51
1.2022643831863979
  0
ARC
  5
E8E8
  8
0
 10
3482.1510758113781776
 20
209.2264813076469068
 30
0.0
 40
0.1447871414748641
 50
356.9501319956924021
 51
7.2047797753895884
  0
ARC
  5
E8E9
  8
0
 10
3481.9764207948887815
 20
209.2044024450738959
 30
0.0
 40
0.3208321668449087
 50
7.2047797753895884
 51
12.5374987093551695
  0
ARC
  5
E8EA
  8
0
 10
3482.267062689516024
 20
209.2690357979103055
 30
0.0
 40
0.0230903639152377
 50
12.5374987093535797
 51
35.1384102525218296
  0
ARC
  5
E8EB
  8
0
 10
3482.2838617260367755
 20
209.2808591910009
 30
0.0
 40
0.0025477191929415
 50
35.1384102525058495
 51
75.3107316684750856
  0
ARC
  5
E8EC
  8
0
 10
3482.2842904807180275
 20
209.2824947546673968
 30
0.0
 40
0.0008568912643103
 50
75.3107316684750856
 51
99.0202985318173745
  0
ARC
  5
E8ED
  8
0
 10
3482.2849480675408813
 20
209.2783524134746074
 30
0.0
 40
0.0050511028692553
 50
99.0202985318176445
 51
101.533037724859895
  0
ARC
  5
E8EE
  8
0
 10
3482.2866390382591817
 20
209.2619884671780142
 30
0.0
 40
0.0019353328781952
 50
117.3579386166338026
 51
167.3347282650331067
  0
ARC
  5
E8EF
  8
0
 10
3482.3367195366190572
 20
209.2507342316428094
 30
0.0
 40
0.0532647994003512
 50
167.3347282650331067
 51
174.5975070460382028
  0
ARC
  5
E8F0
  8
0
 10
3482.3360857241309532
 20
209.2507941723864917
 30
0.0
 40
0.0526281588717868
 50
174.5975070460382028
 51
186.723826064734908
  0
ARC
  5
E8F1
  8
0
 10
3480.7870902919357832
 20
209.0681759694790003
 30
0.0
 40
1.5070949758525269
 50
6.2738456286323769
 51
6.7238260647365209
  0
ARC
  5
E8F2
  8
0
 10
3482.3217824718071824
 20
209.2368985044290923
 30
0.0
 40
0.0368439415779731
 50
186.2738456286323014
 51
201.6702909557151884
  0
ARC
  5
E8F3
  8
0
 10
3482.2966509943039455
 20
209.226912566603886
 30
0.0
 40
0.009801195494851
 50
201.6702909556964016
 51
217.2843793296300134
  0
ARC
  5
E8F4
  8
0
 10
3482.2896424579280392
 20
209.221576511643292
 30
0.0
 40
0.0009925029321899
 50
217.284379329660112
 51
263.018322870951522
  0
ARC
  5
E8F5
  8
0
 10
3482.2896096680487972
 20
209.2213087516331882
 30
0.0
 40
0.0007227426697956
 50
263.0183228710565118
 51
325.2091063676699036
  0
ARC
  5
E8F6
  8
0
 10
3482.2853887728729205
 20
209.2242413554037057
 30
0.0
 40
0.0058624042306217
 50
325.2091063676915041
 51
339.7629058303583065
  0
ARC
  5
E8F7
  8
0
 10
3482.2781578744479702
 20
209.226907124393307
 30
0.0
 40
0.0135690387975006
 50
339.7629058303598981
 51
0.4057701969236119
  0
ARC
  5
E8F8
  8
0
 10
3482.2112039292060217
 20
209.2347017923260921
 30
0.0
 40
0.0808898273964933
 50
354.538690946826307
 51
11.4545970006175502
  0
ARC
  5
E8F9
  8
0
 10
3481.3097510082698136
 20
209.0282098136831905
 30
0.0
 40
1.0056667810408839
 50
12.7855130520610594
 51
13.3385866000239801
  0
ARC
  5
E8FA
  8
0
 10
3482.2811295594838157
 20
209.2585248268572116
 30
0.0
 40
0.0073575628866481
 50
13.3385866000287301
 51
39.4840560592711611
  0
ARC
  5
E8FB
  8
0
 10
3482.285495100235039
 20
209.2621214610875029
 30
0.0
 40
0.001701263403339
 50
39.4840560593382222
 51
69.7054631524686243
  0
ARC
  5
E8FC
  8
0
 10
3482.2859554629208105
 20
209.2633663479213055
 30
0.0
 40
0.000373981582756
 50
69.7054631524680701
 51
102.8691262164756068
  0
ARC
  5
E8FD
  8
0
 10
3482.2854673219330834
 20
209.2655029733564902
 30
0.0
 40
0.0018176958283808
 50
278.9357907804838987
 51
282.8691262163951023
  0
LINE
  5
E8FE
  8
0
 10
3482.2911222936850208
 20
209.2009821929468103
 30
0.0
 11
3482.3473907799420886
 21
209.1948987277405934
 31
0.0
  0
ARC
  5
E8FF
  8
0
 10
3482.3477460542699191
 20
209.2767651196589043
 30
0.0
 40
0.0526978544372789
 50
133.1342730377947134
 51
169.0192979278384087
  0
ARC
  5
E900
  8
0
 10
3482.323263876000965
 20
209.2992790194284112
 30
0.0
 40
0.0196854879698665
 50
101.643437133683193
 51
125.9174925577541018
  0
ARC
  5
E901
  8
0
 10
3482.3230458273601471
 20
209.2998448774364135
 30
0.0
 40
0.0190875258148567
 50
89.9446565441275538
 51
101.3451829378241058
  0
ARC
  5
E902
  8
0
 10
3482.3198393839938944
 20
209.2847275179460951
 30
0.0
 40
0.0343565630378863
 50
42.0157444750729425
 51
84.6139999597256462
  0
ARC
  5
E903
  8
0
 10
3482.2916091216848145
 20
209.2554056712023964
 30
0.0
 40
0.0750123495278323
 50
19.9438434947955088
 51
44.2233347071470391
  0
ARC
  5
E904
  8
0
 10
3482.2674648444908598
 20
209.2466446625157914
 30
0.0
 40
0.1006970024248438
 50
1.318345657574316
 51
19.9438434947955088
  0
ARC
  5
E905
  8
0
 10
3482.2837934604867769
 20
209.2470204416742092
 30
0.0
 40
0.0843640629977149
 50
335.0351780558206087
 51
1.318345657574316
  0
ARC
  5
E906
  8
0
 10
3482.2702093461011827
 20
209.253344667334801
 30
0.0
 40
0.0993481877254027
 50
317.4819838532159224
 51
335.0351780558206087
  0
ARC
  5
E907
  8
0
 10
3482.3229657105739534
 20
209.2049718394044078
 30
0.0
 40
0.0277719034246795
 50
270.203324222959111
 51
317.4819838531947198
  0
ARC
  5
E908
  8
0
 10
3482.3229943179180736
 20
209.196910462301787
 30
0.0
 40
0.0197104755629027
 50
218.2361066341389062
 51
270.2033242229330767
  0
ARC
  5
E909
  8
0
 10
3482.3546016661789508
 20
209.2218152614341022
 30
0.0
 40
0.0599506729270725
 50
205.4278288512878134
 51
218.2361066341389062
  0
ARC
  5
E90A
  8
0
 10
3482.3335839909959759
 20
209.2118228225625103
 30
0.0
 40
0.0366785543145696
 50
198.5690037049398029
 51
205.4278288512892914
  0
ARC
  5
E90B
  8
0
 10
3482.3326301296920064
 20
209.2107797125665059
 30
0.0
 40
0.0261562326355984
 50
206.7163327703322011
 51
255.7459374029238006
  0
ARC
  5
E90C
  8
0
 10
3482.3296684597789863
 20
209.1991215742442023
 30
0.0
 40
0.0141277797916908
 50
255.7459374029238006
 51
289.9787785646739735
  0
ARC
  5
E90D
  8
0
 10
3482.3248832990821029
 20
209.2122838617833906
 30
0.0
 40
0.0281329065733482
 50
289.9787785646735188
 51
309.7130607297402207
  0
ARC
  5
E90E
  8
0
 10
3482.3102160479588747
 20
209.2299424591836896
 30
0.0
 40
0.0510883921408129
 50
309.7130607297402207
 51
316.6901760706905975
  0
ARC
  5
E90F
  8
0
 10
3482.2871724843012089
 20
209.2464770183462122
 30
0.0
 40
0.0792878502150422
 50
319.4192205657764134
 51
358.7090814855475855
  0
ARC
  5
E910
  8
0
 10
3482.2802362318811902
 20
209.248194956720198
 30
0.0
 40
0.0862751726098346
 50
357.6721998789665804
 51
24.9186672426814688
  0
ARC
  5
E911
  8
0
 10
3482.2983000387771426
 20
209.2565881077011056
 30
0.0
 40
0.066356686177005
 50
24.9178398921876507
 51
42.7172144084532306
  0
ARC
  5
E912
  8
0
 10
3482.1053352210001322
 20
209.0470432041369975
 30
0.0
 40
0.3510388518083027
 50
46.4823131596055035
 51
47.3486062667953576
  0
ARC
  5
E913
  8
0
 10
3482.3280071220010541
 20
209.2887615539555952
 30
0.0
 40
0.0223892874778121
 50
47.3486062667975816
 51
84.7910422284362255
  0
ARC
  5
E914
  8
0
 10
3482.3299872377201609
 20
209.2905819511277912
 30
0.0
 40
0.0204764948806607
 50
89.8529048400266106
 51
126.2162014733955004
  0
ARC
  5
E915
  8
0
 10
3482.348905704183835
 20
209.2717694396197032
 30
0.0
 40
0.0470153316939607
 50
131.2780640849483973
 51
148.296470509980594
  0
ARC
  5
E916
  8
0
 10
3482.336020715198174
 20
209.2797284675490914
 30
0.0
 40
0.0318703963449516
 50
148.2964705099792013
 51
161.9209158971584941
  0
LINE
  5
E917
  8
0
 10
3482.350459068679811
 20
209.5583897160666993
 30
0.0
 11
3482.2873259962511838
 21
209.5400827721950918
 31
0.0
  0
ARC
  5
E918
  8
0
 10
3482.287810709212863
 20
209.5384111978061128
 30
0.0
 40
0.001740433162557
 50
106.1707801309042054
 51
148.4727329271723022
  0
ARC
  5
E919
  8
0
 10
3482.3067483288768926
 20
209.5288780311196035
 30
0.0
 40
0.0229365377776157
 50
152.9150854629752985
 51
176.4347583343588894
  0
ARC
  5
E91A
  8
0
 10
3482.474102067405056
 20
209.515133303377894
 30
0.0
 40
0.1908498295388088
 50
175.4406326050491032
 51
187.8445543785661016
  0
ARC
  5
E91B
  8
0
 10
3482.3790026185251918
 20
209.497103881737786
 30
0.0
 40
0.0943059538138719
 50
184.877789491098099
 51
203.6661098623164037
  0
ARC
  5
E91C
  8
0
 10
3482.2950986616979208
 20
209.4604612864785054
 30
0.0
 40
0.0027522997534863
 50
206.1358232399622921
 51
258.0409129679316038
  0
ARC
  5
E91D
  8
0
 10
3482.2945254011660836
 20
209.4595837466029025
 30
0.0
 40
0.0018150258458815
 50
270.0930533219071208
 51
331.1527105460456255
  0
ARC
  5
E91E
  8
0
 10
3482.2547288122500504
 20
209.4746339815625049
 30
0.0
 40
0.0443448824122649
 50
338.9527185124092057
 51
1.2022643831863979
  0
ARC
  5
E91F
  8
0
 10
3482.1544818666170613
 20
209.4832678378508035
 30
0.0
 40
0.1447871414748641
 50
356.9501319956924021
 51
7.2047797753895884
  0
ARC
  5
E920
  8
0
 10
3481.9798268501272105
 20
209.4611889752777927
 30
0.0
 40
0.3208321668449087
 50
7.2047797753895884
 51
12.5374987093551695
  0
ARC
  5
E921
  8
0
 10
3482.2704687447558172
 20
209.5258223281142023
 30
0.0
 40
0.0230903639152377
 50
12.5374987093535797
 51
35.1384102525218296
  0
ARC
  5
E922
  8
0
 10
3482.287267781276114
 20
209.5376457212047114
 30
0.0
 40
0.0025477191929415
 50
35.1384102525058495
 51
75.3107316684750856
  0
ARC
  5
E923
  8
0
 10
3482.2876965359578207
 20
209.5392812848712936
 30
0.0
 40
0.0008568912643103
 50
75.3107316684750856
 51
99.0202985318173745
  0
ARC
  5
E924
  8
0
 10
3482.2883541227802198
 20
209.5351389436785041
 30
0.0
 40
0.0050511028692553
 50
99.0202985318176445
 51
101.533037724859895
  0
ARC
  5
E925
  8
0
 10
3482.2900450934980654
 20
209.5187749973819109
 30
0.0
 40
0.0019353328781952
 50
117.3579386166338026
 51
167.3347282650331067
  0
ARC
  5
E926
  8
0
 10
3482.3401255918579409
 20
209.5075207618465924
 30
0.0
 40
0.0532647994003512
 50
167.3347282650331067
 51
174.5975070460382028
  0
ARC
  5
E927
  8
0
 10
3482.3394917793689274
 20
209.5075807025903885
 30
0.0
 40
0.0526281588717868
 50
174.5975070460382028
 51
186.723826064734908
  0
ARC
  5
E928
  8
0
 10
3480.7904963471751216
 20
209.324962499682897
 30
0.0
 40
1.5070949758525269
 50
6.2738456286323769
 51
6.7238260647365209
  0
ARC
  5
E929
  8
0
 10
3482.3251885270451567
 20
209.4936850346329038
 30
0.0
 40
0.0368439415779731
 50
186.2738456286323014
 51
201.6702909557151884
  0
ARC
  5
E92A
  8
0
 10
3482.3000570495428292
 20
209.4836990968076975
 30
0.0
 40
0.009801195494851
 50
201.6702909556964016
 51
217.2843793296300134
  0
ARC
  5
E92B
  8
0
 10
3482.2930485131669229
 20
209.4783630418471034
 30
0.0
 40
0.0009925029321899
 50
217.284379329660112
 51
263.018322870951522
  0
ARC
  5
E92C
  8
0
 10
3482.2930157232881356
 20
209.4780952818371134
 30
0.0
 40
0.0007227426697956
 50
263.0183228710565118
 51
325.2091063676699036
  0
ARC
  5
E92D
  8
0
 10
3482.2887948281118042
 20
209.4810278856076025
 30
0.0
 40
0.0058624042306217
 50
325.2091063676915041
 51
339.7629058303583065
  0
ARC
  5
E92E
  8
0
 10
3482.2187930168711318
 20
209.4922037310886083
 30
0.0
 40
0.0766481465504937
 50
350.0805450693285934
 51
11.5514413842015902
  0
ARC
  5
E92F
  8
0
 10
3481.3131570635091521
 20
209.284996343887002
 30
0.0
 40
1.0056667810408839
 50
12.7855130520610594
 51
13.3385866000239801
  0
ARC
  5
E930
  8
0
 10
3482.2845356147231541
 20
209.5153113570609946
 30
0.0
 40
0.0073575628866481
 50
13.3385866000287301
 51
39.4840560592711611
  0
ARC
  5
E931
  8
0
 10
3482.2889011554748322
 20
209.5189079912913996
 30
0.0
 40
0.001701263403339
 50
39.4840560593382222
 51
69.7054631524686243
  0
ARC
  5
E932
  8
0
 10
3482.2893615181610585
 20
209.5201528781252023
 30
0.0
 40
0.000373981582756
 50
69.7054631524680701
 51
102.8691262164756068
  0
ARC
  5
E933
  8
0
 10
3482.2888733771719671
 20
209.5222895035603017
 30
0.0
 40
0.0018176958283808
 50
278.9357907804838987
 51
282.8691262163951023
  0
LINE
  5
E934
  8
0
 10
3482.2945283489248141
 20
209.457768723150707
 30
0.0
 11
3482.3507968351809723
 21
209.4516852579444901
 31
0.0
  0
ARC
  5
E935
  8
0
 10
3482.3511521095088028
 20
209.533551649862801
 30
0.0
 40
0.0526978544372789
 50
133.1342730377947134
 51
169.0192979278384087
  0
ARC
  5
E936
  8
0
 10
3482.3266699312398487
 20
209.5560655496323079
 30
0.0
 40
0.0196854879698665
 50
101.643437133683193
 51
125.9174925577541018
  0
ARC
  5
E937
  8
0
 10
3482.3264518825990308
 20
209.5566314076403103
 30
0.0
 40
0.0190875258148567
 50
89.9446565441275538
 51
101.3451829378241058
  0
ARC
  5
E938
  8
0
 10
3482.3232454392318687
 20
209.5415140481499066
 30
0.0
 40
0.0343565630378863
 50
42.0157444750729425
 51
84.6139999597256462
  0
ARC
  5
E939
  8
0
 10
3482.2950151769241529
 20
209.5121922014062932
 30
0.0
 40
0.0750123495278323
 50
19.9438434947955088
 51
44.2233347071470391
  0
ARC
  5
E93A
  8
0
 10
3482.2708708997301983
 20
209.5034311927196029
 30
0.0
 40
0.1006970024248438
 50
1.318345657574316
 51
19.9438434947955088
  0
ARC
  5
E93B
  8
0
 10
3482.2871995157261154
 20
209.503806971878106
 30
0.0
 40
0.0843640629977149
 50
335.0351780558206087
 51
1.318345657574316
  0
ARC
  5
E93C
  8
0
 10
3482.2736154013400665
 20
209.5101311975386125
 30
0.0
 40
0.0993481877254027
 50
317.4819838532159224
 51
335.0351780558206087
  0
ARC
  5
E93D
  8
0
 10
3482.3263717658119276
 20
209.4617583696081908
 30
0.0
 40
0.0277719034246795
 50
270.203324222959111
 51
317.4819838531947198
  0
ARC
  5
E93E
  8
0
 10
3482.3264003731569574
 20
209.4536969925055985
 30
0.0
 40
0.0197104755629027
 50
218.2361066341389062
 51
270.2033242229330767
  0
ARC
  5
E93F
  8
0
 10
3482.3580077214178345
 20
209.4786017916379137
 30
0.0
 40
0.0599506729270725
 50
205.4278288512878134
 51
218.2361066341389062
  0
ARC
  5
E940
  8
0
 10
3482.3369900462348596
 20
209.468609352766407
 30
0.0
 40
0.0366785543145696
 50
198.5690037049398029
 51
205.4278288512892914
  0
ARC
  5
E941
  8
0
 10
3482.3360361849317997
 20
209.4675662427702889
 30
0.0
 40
0.0261562326355984
 50
206.7163327703322011
 51
255.7459374029238006
  0
ARC
  5
E942
  8
0
 10
3482.3330745150187795
 20
209.4559081044480138
 30
0.0
 40
0.0141277797916908
 50
255.7459374029238006
 51
289.9787785646739735
  0
ARC
  5
E943
  8
0
 10
3482.3282893543200771
 20
209.4690703919872874
 30
0.0
 40
0.0281329065733482
 50
289.9787785646735188
 51
309.7130607297402207
  0
ARC
  5
E944
  8
0
 10
3482.3136221031982132
 20
209.4867289893875864
 30
0.0
 40
0.0510883921408129
 50
309.7130607297402207
 51
316.6901760706905975
  0
ARC
  5
E945
  8
0
 10
3482.2905785395410021
 20
209.5032635485501089
 30
0.0
 40
0.0792878502150422
 50
319.4192205657764134
 51
358.7090814855475855
  0
ARC
  5
E946
  8
0
 10
3482.2836422871200739
 20
209.5049814869240947
 30
0.0
 40
0.0862751726098346
 50
357.6721998789665804
 51
24.9186672426814688
  0
ARC
  5
E947
  8
0
 10
3482.3017060940169358
 20
209.5133746379048887
 30
0.0
 40
0.066356686177005
 50
24.9178398921876507
 51
42.7172144084532306
  0
ARC
  5
E948
  8
0
 10
3482.1087412762381064
 20
209.303829734340809
 30
0.0
 40
0.3510388518083027
 50
46.4823131596055035
 51
47.3486062667953576
  0
ARC
  5
E949
  8
0
 10
3482.3314131772399378
 20
209.545548084159492
 30
0.0
 40
0.0223892874778121
 50
47.3486062667975816
 51
84.7910422284362255
  0
ARC
  5
E94A
  8
0
 10
3482.3333932929590446
 20
209.5473684813316027
 30
0.0
 40
0.0204764948806607
 50
89.8529048400266106
 51
126.2162014733955004
  0
ARC
  5
E94B
  8
0
 10
3482.3523117594218093
 20
209.5285559698234863
 30
0.0
 40
0.0470153316939607
 50
131.2780640849483973
 51
148.296470509980594
  0
ARC
  5
E94C
  8
0
 10
3482.3394267704370577
 20
209.5365149977529029
 30
0.0
 40
0.0318703963449516
 50
148.2964705099792013
 51
161.9209158971584941
  0
LINE
  5
E94D
  8
0
 10
3482.3503332214509101
 20
209.8092228947305955
 30
0.0
 11
3482.2872001490218281
 21
209.790915950858988
 31
0.0
  0
ARC
  5
E94E
  8
0
 10
3482.2876848619830525
 20
209.7892443764698953
 30
0.0
 40
0.001740433162557
 50
106.1707801309042054
 51
148.4727329271723022
  0
ARC
  5
E94F
  8
0
 10
3482.3066224816489012
 20
209.7797112097834997
 30
0.0
 40
0.0229365377776157
 50
152.9150854629752985
 51
176.4347583343588894
  0
ARC
  5
E950
  8
0
 10
3482.473976220176155
 20
209.7659664820417902
 30
0.0
 40
0.1908498295388088
 50
175.4406326050491032
 51
187.8445543785661016
  0
ARC
  5
E951
  8
0
 10
3482.3788767712958361
 20
209.7479370604017106
 30
0.0
 40
0.0943059538138719
 50
184.877789491098099
 51
203.6661098623164037
  0
ARC
  5
E952
  8
0
 10
3482.2949728144681103
 20
209.7112944651422879
 30
0.0
 40
0.0027522997534863
 50
206.1358232399622921
 51
258.0409129679316038
  0
ARC
  5
E953
  8
0
 10
3482.2943995539371826
 20
209.7104169252667134
 30
0.0
 40
0.0018150258458815
 50
270.0930533219071208
 51
331.1527105460456255
  0
ARC
  5
E954
  8
0
 10
3482.2546029650211494
 20
209.7254671602262874
 30
0.0
 40
0.0443448824122649
 50
338.9527185124092057
 51
1.2022643831863979
  0
ARC
  5
E955
  8
0
 10
3482.1543560193881603
 20
209.734101016514586
 30
0.0
 40
0.1447871414748641
 50
356.9501319956924021
 51
7.2047797753895884
  0
ARC
  5
E956
  8
0
 10
3481.979701002899219
 20
209.7120221539416036
 30
0.0
 40
0.3208321668449087
 50
7.2047797753895884
 51
12.5374987093551695
  0
ARC
  5
E957
  8
0
 10
3482.2703428975260067
 20
209.7766555067780985
 30
0.0
 40
0.0230903639152377
 50
12.5374987093535797
 51
35.1384102525218296
  0
ARC
  5
E958
  8
0
 10
3482.287141934047213
 20
209.7884788998686076
 30
0.0
 40
0.0025477191929415
 50
35.1384102525058495
 51
75.3107316684750856
  0
ARC
  5
E959
  8
0
 10
3482.2875706887280103
 20
209.7901144635351045
 30
0.0
 40
0.0008568912643103
 50
75.3107316684750856
 51
99.0202985318173745
  0
ARC
  5
E95A
  8
0
 10
3482.2882282755508641
 20
209.7859721223422866
 30
0.0
 40
0.0050511028692553
 50
99.0202985318176445
 51
101.533037724859895
  0
ARC
  5
E95B
  8
0
 10
3482.2899192462691644
 20
209.7696081760456934
 30
0.0
 40
0.0019353328781952
 50
117.3579386166338026
 51
167.3347282650331067
  0
ARC
  5
E95C
  8
0
 10
3482.3399997446290399
 20
209.7583539405104887
 30
0.0
 40
0.0532647994003512
 50
167.3347282650331067
 51
174.5975070460382028
  0
ARC
  5
E95D
  8
0
 10
3482.3393659321409359
 20
209.7584138812541994
 30
0.0
 40
0.0526281588717868
 50
174.5975070460382028
 51
186.723826064734908
  0
ARC
  5
E95E
  8
0
 10
3480.7903704999462207
 20
209.575795678346708
 30
0.0
 40
1.5070949758525269
 50
6.2738456286323769
 51
6.7238260647365209
  0
ARC
  5
E95F
  8
0
 10
3482.3250626798158009
 20
209.7445182132968
 30
0.0
 40
0.0368439415779731
 50
186.2738456286323014
 51
201.6702909557151884
  0
ARC
  5
E960
  8
0
 10
3482.2999312023139282
 20
209.7345322754715937
 30
0.0
 40
0.009801195494851
 50
201.6702909556964016
 51
217.2843793296300134
  0
ARC
  5
E961
  8
0
 10
3482.292922665938022
 20
209.7291962205109996
 30
0.0
 40
0.0009925029321899
 50
217.284379329660112
 51
263.018322870951522
  0
ARC
  5
E962
  8
0
 10
3482.2928898760587799
 20
209.7289284605010096
 30
0.0
 40
0.0007227426697956
 50
263.0183228710565118
 51
325.2091063676699036
  0
ARC
  5
E963
  8
0
 10
3482.2886689808838128
 20
209.7318610642714987
 30
0.0
 40
0.0058624042306217
 50
325.2091063676915041
 51
339.7629058303583065
  0
ARC
  5
E964
  8
0
 10
3482.281438082457953
 20
209.7345268332610999
 30
0.0
 40
0.0135690387975006
 50
339.7629058303598981
 51
0.4057701969236119
  0
ARC
  5
E965
  8
0
 10
3481.9541776177370593
 20
209.7286947035235869
 30
0.0
 40
0.3408807157499802
 50
0.9964758730451668
 51
4.9968120743972548
  0
ARC
  5
E966
  8
0
 10
3481.3130312162797964
 20
209.535829522550813
 30
0.0
 40
1.0056667810408839
 50
12.7855130520610594
 51
13.3385866000239801
  0
ARC
  5
E967
  8
0
 10
3482.2844097674937984
 20
209.7661445357248908
 30
0.0
 40
0.0073575628866481
 50
13.3385866000287301
 51
39.4840560592711611
  0
ARC
  5
E968
  8
0
 10
3482.2887753082459312
 20
209.7697411699552106
 30
0.0
 40
0.001701263403339
 50
39.4840560593382222
 51
69.7054631524686243
  0
ARC
  5
E969
  8
0
 10
3482.2892356709307933
 20
209.7709860567890985
 30
0.0
 40
0.000373981582756
 50
69.7054631524680701
 51
102.8691262164756068
  0
ARC
  5
E96A
  8
0
 10
3482.2887475299421567
 20
209.7731226822241979
 30
0.0
 40
0.0018176958283808
 50
278.9357907804838987
 51
282.8691262163951023
  0
LINE
  5
E96B
  8
0
 10
3482.2944025016950036
 20
209.7086019018144896
 30
0.0
 11
3482.3506709879529808
 21
209.702518436608301
 31
0.0
  0
ARC
  5
E96C
  8
0
 10
3482.3510262622799019
 20
209.784384828526612
 30
0.0
 40
0.0526978544372789
 50
133.1342730377947134
 51
169.0192979278384087
  0
ARC
  5
E96D
  8
0
 10
3482.3265440840109477
 20
209.8068987282962041
 30
0.0
 40
0.0196854879698665
 50
101.643437133683193
 51
125.9174925577541018
  0
ARC
  5
E96E
  8
0
 10
3482.3263260353701298
 20
209.8074645863042065
 30
0.0
 40
0.0190875258148567
 50
89.9446565441275538
 51
101.3451829378241058
  0
ARC
  5
E96F
  8
0
 10
3482.3231195920038772
 20
209.7923472268138028
 30
0.0
 40
0.0343565630378863
 50
42.0157444750729425
 51
84.6139999597256462
  0
ARC
  5
E970
  8
0
 10
3482.2948893296947972
 20
209.7630253800701041
 30
0.0
 40
0.0750123495278323
 50
19.9438434947955088
 51
44.2233347071470391
  0
ARC
  5
E971
  8
0
 10
3482.2707450524999331
 20
209.7542643713834991
 30
0.0
 40
0.1006970024248438
 50
1.318345657574316
 51
19.9438434947955088
  0
ARC
  5
E972
  8
0
 10
3482.2870736684972144
 20
209.7546401505420022
 30
0.0
 40
0.0843640629977149
 50
335.0351780558206087
 51
1.318345657574316
  0
ARC
  5
E973
  8
0
 10
3482.2734895541111655
 20
209.7609643762025087
 30
0.0
 40
0.0993481877254027
 50
317.4819838532159224
 51
335.0351780558206087
  0
ARC
  5
E974
  8
0
 10
3482.3262459185839361
 20
209.712591548272087
 30
0.0
 40
0.0277719034246795
 50
270.203324222959111
 51
317.4819838531947198
  0
ARC
  5
E975
  8
0
 10
3482.3262745259280564
 20
209.7045301711694947
 30
0.0
 40
0.0197104755629027
 50
218.2361066341389062
 51
270.2033242229330767
  0
ARC
  5
E976
  8
0
 10
3482.3578818741898431
 20
209.7294349703018099
 30
0.0
 40
0.0599506729270725
 50
205.4278288512878134
 51
218.2361066341389062
  0
ARC
  5
E977
  8
0
 10
3482.3368641990059587
 20
209.7194425314303032
 30
0.0
 40
0.0366785543145696
 50
198.5690037049398029
 51
205.4278288512892914
  0
ARC
  5
E978
  8
0
 10
3482.3359103377019892
 20
209.7183994214342135
 30
0.0
 40
0.0261562326355984
 50
206.7163327703322011
 51
255.7459374029238006
  0
ARC
  5
E979
  8
0
 10
3482.332948667788969
 20
209.70674128311191
 30
0.0
 40
0.0141277797916908
 50
255.7459374029238006
 51
289.9787785646739735
  0
ARC
  5
E97A
  8
0
 10
3482.3281635070911761
 20
209.7199035706510983
 30
0.0
 40
0.0281329065733482
 50
289.9787785646735188
 51
309.7130607297402207
  0
ARC
  5
E97B
  8
0
 10
3482.3134962559688574
 20
209.7375621680513973
 30
0.0
 40
0.0510883921408129
 50
309.7130607297402207
 51
316.6901760706905975
  0
ARC
  5
E97C
  8
0
 10
3482.2904526923111916
 20
209.7540967272140051
 30
0.0
 40
0.0792878502150422
 50
319.4192205657764134
 51
358.7090814855475855
  0
ARC
  5
E97D
  8
0
 10
3482.2835164398911729
 20
209.7558146655879909
 30
0.0
 40
0.0862751726098346
 50
357.6721998789665804
 51
24.9186672426814688
  0
ARC
  5
E97E
  8
0
 10
3482.3015802467871254
 20
209.7642078165688133
 30
0.0
 40
0.066356686177005
 50
24.9178398921876507
 51
42.7172144084532306
  0
ARC
  5
E97F
  8
0
 10
3482.1086154290092054
 20
209.5546629130047052
 30
0.0
 40
0.3510388518083027
 50
46.4823131596055035
 51
47.3486062667953576
  0
ARC
  5
E980
  8
0
 10
3482.3312873300110368
 20
209.7963812628233029
 30
0.0
 40
0.0223892874778121
 50
47.3486062667975816
 51
84.7910422284362255
  0
ARC
  5
E981
  8
0
 10
3482.3332674457301437
 20
209.7982016599954989
 30
0.0
 40
0.0204764948806607
 50
89.8529048400266106
 51
126.2162014733955004
  0
ARC
  5
E982
  8
0
 10
3482.3521859121929083
 20
209.7793891484874109
 30
0.0
 40
0.0470153316939607
 50
131.2780640849483973
 51
148.296470509980594
  0
ARC
  5
E983
  8
0
 10
3482.3393009232090662
 20
209.7873481764167138
 30
0.0
 40
0.0318703963449516
 50
148.2964705099792013
 51
161.9209158971584941
  0
LINE
  5
E984
  8
0
 10
3482.3573697470601473
 20
210.0631257888630898
 30
0.0
 11
3482.2942366746310654
 21
210.0448188449915108
 31
0.0
  0
ARC
  5
E985
  8
0
 10
3482.2947213875931993
 20
210.0431472706025033
 30
0.0
 40
0.001740433162557
 50
106.1707801309042054
 51
148.4727329271723022
  0
ARC
  5
E986
  8
0
 10
3482.3136590072581384
 20
210.0336141039159941
 30
0.0
 40
0.0229365377776157
 50
152.9150854629752985
 51
176.4347583343588894
  0
ARC
  5
E987
  8
0
 10
3482.4810127457849376
 20
210.0198693761743129
 30
0.0
 40
0.1908498295388088
 50
175.4406326050491032
 51
187.8445543785661016
  0
ARC
  5
E988
  8
0
 10
3482.3859132969050734
 20
210.0018399545342049
 30
0.0
 40
0.0943059538138719
 50
184.877789491098099
 51
203.6661098623164037
  0
ARC
  5
E989
  8
0
 10
3482.3020093400768928
 20
209.9651973592748959
 30
0.0
 40
0.0027522997534863
 50
206.1358232399622921
 51
258.0409129679316038
  0
ARC
  5
E98A
  8
0
 10
3482.3014360795459652
 20
209.964319819399293
 30
0.0
 40
0.0018150258458815
 50
270.0930533219071208
 51
331.1527105460456255
  0
ARC
  5
E98B
  8
0
 10
3482.261639490629932
 20
209.9793700543588955
 30
0.0
 40
0.0443448824122649
 50
338.9527185124092057
 51
1.2022643831863979
  0
ARC
  5
E98C
  8
0
 10
3482.1613925449969429
 20
209.9880039106471941
 30
0.0
 40
0.1447871414748641
 50
356.9501319956924021
 51
7.2047797753895884
  0
ARC
  5
E98D
  8
0
 10
3481.9867375285080016
 20
209.965925048074098
 30
0.0
 40
0.3208321668449087
 50
7.2047797753895884
 51
12.5374987093551695
  0
ARC
  5
E98E
  8
0
 10
3482.2773794231361535
 20
210.0305584009105928
 30
0.0
 40
0.0230903639152377
 50
12.5374987093535797
 51
35.1384102525218296
  0
ARC
  5
E98F
  8
0
 10
3482.2941784596559955
 20
210.042381794001102
 30
0.0
 40
0.0025477191929415
 50
35.1384102525058495
 51
75.3107316684750856
  0
ARC
  5
E990
  8
0
 10
3482.2946072143381571
 20
210.0440173576677125
 30
0.0
 40
0.0008568912643103
 50
75.3107316684750856
 51
99.0202985318173745
  0
ARC
  5
E991
  8
0
 10
3482.2952648011610108
 20
210.0398750164748947
 30
0.0
 40
0.0050511028692553
 50
99.0202985318176445
 51
101.533037724859895
  0
ARC
  5
E992
  8
0
 10
3482.296955771877947
 20
210.0235110701783015
 30
0.0
 40
0.0019353328781952
 50
117.3579386166338026
 51
167.3347282650331067
  0
ARC
  5
E993
  8
0
 10
3482.3470362702378225
 20
210.0122568346430967
 30
0.0
 40
0.0532647994003512
 50
167.3347282650331067
 51
174.5975070460382028
  0
ARC
  5
E994
  8
0
 10
3482.3464024577501732
 20
210.0123167753868074
 30
0.0
 40
0.0526281588717868
 50
174.5975070460382028
 51
186.723826064734908
  0
ARC
  5
E995
  8
0
 10
3480.7974070255550032
 20
209.8296985724792876
 30
0.0
 40
1.5070949758525269
 50
6.2738456286323769
 51
6.7238260647365209
  0
ARC
  5
E996
  8
0
 10
3482.3320992054259477
 20
209.998421107429408
 30
0.0
 40
0.0368439415779731
 50
186.2738456286323014
 51
201.6702909557151884
  0
ARC
  5
E997
  8
0
 10
3482.306967727924075
 20
209.9884351696040881
 30
0.0
 40
0.009801195494851
 50
201.6702909556964016
 51
217.2843793296300134
  0
ARC
  5
E998
  8
0
 10
3482.2999591915490782
 20
209.983099114643494
 30
0.0
 40
0.0009925029321899
 50
217.284379329660112
 51
263.018322870951522
  0
ARC
  5
E999
  8
0
 10
3482.2999264016689267
 20
209.9828313546335039
 30
0.0
 40
0.0007227426697956
 50
263.0183228710565118
 51
325.2091063676699036
  0
ARC
  5
E99A
  8
0
 10
3482.2957055064930501
 20
209.985763958403993
 30
0.0
 40
0.0058624042306217
 50
325.2091063676915041
 51
339.7629058303583065
  0
ARC
  5
E99B
  8
0
 10
3482.2884746080680998
 20
209.9884297273935942
 30
0.0
 40
0.0135690387975006
 50
339.7629058303598981
 51
0.4057701969236119
  0
ARC
  5
E99C
  8
0
 10
3481.9609381118839337
 20
209.9825831476726989
 30
0.0
 40
0.3411569569020964
 50
0.9980961039006642
 51
4.9951918435416758
  0
ARC
  5
E99D
  8
0
 10
3481.3200677418890336
 20
209.7897324166833926
 30
0.0
 40
1.0056667810408839
 50
12.7855130520610594
 51
13.3385866000239801
  0
ARC
  5
E99E
  8
0
 10
3482.2914462931030357
 20
210.0200474298574136
 30
0.0
 40
0.0073575628866481
 50
13.3385866000287301
 51
39.4840560592711611
  0
ARC
  5
E99F
  8
0
 10
3482.295811833856078
 20
210.0236440640877902
 30
0.0
 40
0.001701263403339
 50
39.4840560593382222
 51
69.7054631524686243
  0
ARC
  5
E9A0
  8
0
 10
3482.2962721965409401
 20
210.0248889509217065
 30
0.0
 40
0.000373981582756
 50
69.7054631524680701
 51
102.8691262164756068
  0
ARC
  5
E9A1
  8
0
 10
3482.295784055553213
 20
210.0270255763568059
 30
0.0
 40
0.0018176958283808
 50
278.9357907804838987
 51
282.8691262163951023
  0
LINE
  5
E9A2
  8
0
 10
3482.3014390273051504
 20
209.9625047959470976
 30
0.0
 11
3482.3577075135631276
 21
209.9564213307409091
 31
0.0
  0
ARC
  5
E9A3
  8
0
 10
3482.3580627878891391
 20
210.0382877226591916
 30
0.0
 40
0.0526978544372789
 50
133.1342730377947134
 51
169.0192979278384087
  0
ARC
  5
E9A4
  8
0
 10
3482.333580609620185
 20
210.0608016224286985
 30
0.0
 40
0.0196854879698665
 50
101.643437133683193
 51
125.9174925577541018
  0
ARC
  5
E9A5
  8
0
 10
3482.3333625609789124
 20
210.0613674804367008
 30
0.0
 40
0.0190875258148567
 50
89.9446565441275538
 51
101.3451829378241058
  0
ARC
  5
E9A6
  8
0
 10
3482.3301561176131145
 20
210.0462501209462971
 30
0.0
 40
0.0343565630378863
 50
42.0157444750729425
 51
84.6139999597256462
  0
ARC
  5
E9A7
  8
0
 10
3482.301925855304944
 20
210.0169282742027121
 30
0.0
 40
0.0750123495278323
 50
19.9438434947955088
 51
44.2233347071470391
  0
ARC
  5
E9A8
  8
0
 10
3482.2777815781100799
 20
210.0081672655159934
 30
0.0
 40
0.1006970024248438
 50
1.318345657574316
 51
19.9438434947955088
  0
ARC
  5
E9A9
  8
0
 10
3482.2941101941059969
 20
210.0085430446744965
 30
0.0
 40
0.0843640629977149
 50
335.0351780558206087
 51
1.318345657574316
  0
ARC
  5
E9AA
  8
0
 10
3482.280526079719948
 20
210.0148672703350883
 30
0.0
 40
0.0993481877254027
 50
317.4819838532159224
 51
335.0351780558206087
  0
ARC
  5
E9AB
  8
0
 10
3482.3332824441931734
 20
209.9664944424046951
 30
0.0
 40
0.0277719034246795
 50
270.203324222959111
 51
317.4819838531947198
  0
ARC
  5
E9AC
  8
0
 10
3482.3333110515368389
 20
209.9584330653021027
 30
0.0
 40
0.0197104755629027
 50
218.2361066341389062
 51
270.2033242229330767
  0
ARC
  5
E9AD
  8
0
 10
3482.3649183997981709
 20
209.9833378644343895
 30
0.0
 40
0.0599506729270725
 50
205.4278288512878134
 51
218.2361066341389062
  0
ARC
  5
E9AE
  8
0
 10
3482.3439007246151959
 20
209.9733454255627976
 30
0.0
 40
0.0366785543145696
 50
198.5690037049398029
 51
205.4278288512892914
  0
ARC
  5
E9AF
  8
0
 10
3482.342946863312136
 20
209.9723023155667931
 30
0.0
 40
0.0261562326355984
 50
206.7163327703322011
 51
255.7459374029238006
  0
ARC
  5
E9B0
  8
0
 10
3482.3399851933982063
 20
209.9606441772444043
 30
0.0
 40
0.0141277797916908
 50
255.7459374029238006
 51
289.9787785646739735
  0
ARC
  5
E9B1
  8
0
 10
3482.3352000327008682
 20
209.9738064647837064
 30
0.0
 40
0.0281329065733482
 50
289.9787785646735188
 51
309.7130607297402207
  0
ARC
  5
E9B2
  8
0
 10
3482.3205327815780947
 20
209.9914650621840053
 30
0.0
 40
0.0510883921408129
 50
309.7130607297402207
 51
316.6901760706905975
  0
ARC
  5
E9B3
  8
0
 10
3482.2974892179208837
 20
210.0079996213464995
 30
0.0
 40
0.0792878502150422
 50
319.4192205657764134
 51
358.7090814855475855
  0
ARC
  5
E9B4
  8
0
 10
3482.290552965500865
 20
210.0097175597205137
 30
0.0
 40
0.0862751726098346
 50
357.6721998789665804
 51
24.9186672426814688
  0
ARC
  5
E9B5
  8
0
 10
3482.3086167723968174
 20
210.0181107107013929
 30
0.0
 40
0.066356686177005
 50
24.9178398921876507
 51
42.7172144084532306
  0
ARC
  5
E9B6
  8
0
 10
3482.1156519546188974
 20
209.8085658071371995
 30
0.0
 40
0.3510388518083027
 50
46.4823131596055035
 51
47.3486062667953576
  0
ARC
  5
E9B7
  8
0
 10
3482.3383238556198194
 20
210.0502841569559109
 30
0.0
 40
0.0223892874778121
 50
47.3486062667975816
 51
84.7910422284362255
  0
ARC
  5
E9B8
  8
0
 10
3482.3403039713398357
 20
210.0521045541281069
 30
0.0
 40
0.0204764948806607
 50
89.8529048400266106
 51
126.2162014733955004
  0
ARC
  5
E9B9
  8
0
 10
3482.3592224378030551
 20
210.0332920426199905
 30
0.0
 40
0.0470153316939607
 50
131.2780640849483973
 51
148.296470509980594
  0
ARC
  5
E9BA
  8
0
 10
3482.3463374488178488
 20
210.0412510705492934
 30
0.0
 40
0.0318703963449516
 50
148.2964705099792013
 51
161.9209158971584941
  0
ARC
  5
E9BB
  8
0
 10
3482.2413243441569648
 20
207.3906279132388022
 30
0.0
 40
0.0005124261920512
 50
109.3892131125248994
 51
142.7409708768049086
  0
ARC
  5
E9BC
  8
0
 10
3482.2426179859930926
 20
207.3896438833469915
 30
0.0
 40
0.0021377950817654
 50
142.7409708768205121
 51
168.5613587444732957
  0
ARC
  5
E9BD
  8
0
 10
3482.2787168455479332
 20
207.3823397375093123
 30
0.0
 40
0.0389681929562239
 50
168.5613587444732957
 51
173.1541557751388041
  0
ARC
  5
E9BE
  8
0
 10
3482.4063329955151858
 20
207.377347525743204
 30
0.0
 40
0.1665855111818985
 50
176.68352299087951
 51
183.2511305480009014
  0
ARC
  5
E9BF
  8
0
 10
3482.6945471281442224
 20
207.3891909659668897
 30
0.0
 40
0.4550299086462237
 50
182.6818574601226999
 51
186.4567552882984103
  0
ARC
  5
E9C0
  8
0
 10
3482.4625390588698792
 20
207.3604497013932075
 30
0.0
 40
0.22127518790063
 50
185.8174604768435927
 51
192.2441012166578957
  0
ARC
  5
E9C1
  8
0
 10
3482.2945055002028312
 20
207.327076172586402
 30
0.0
 40
0.0500773855711469
 50
195.7034467088255099
 51
200.2392311135228908
  0
ARC
  5
E9C2
  8
0
 10
3482.2494775974141703
 20
207.3104741165184066
 30
0.0
 40
0.0020863416655086
 50
200.2392311135747036
 51
233.5647941262141956
  0
ARC
  5
E9C3
  8
0
 10
3482.248382474931077
 20
207.308990637801088
 30
0.0
 40
0.0002424321343958
 50
233.5647941267667989
 51
298.2293325915924243
  0
ARC
  5
E9C4
  8
0
 10
3482.2480837797829736
 20
207.3095470177578932
 30
0.0
 40
0.0008739204143114
 50
298.2293325916535878
 51
340.8651296004684923
  0
ARC
  5
E9C5
  8
0
 10
3482.2323886894200768
 20
207.3149926298225125
 30
0.0
 40
0.0174868837943584
 50
340.8651296004684923
 51
4.5925511505340753
  0
ARC
  5
E9C6
  8
0
 10
3481.914762366810919
 20
207.3194415408291889
 30
0.0
 40
0.3350709314839681
 50
359.4786692068241791
 51
5.8404702777310042
  0
ARC
  5
E9C7
  8
0
 10
3482.0015161100141086
 20
207.333978434680489
 30
0.0
 40
0.247352419704253
 50
4.5354440059547327
 51
12.5881206711564797
  0
ARC
  5
E9C8
  8
0
 10
3482.232298087097206
 20
207.3852125719924118
 30
0.0
 40
0.0109559254873459
 50
14.1271934637462202
 51
30.5998817460486414
  0
ARC
  5
E9C9
  8
0
 10
3482.2405885523289726
 20
207.3898564843821077
 30
0.0
 40
0.0014730013206495
 50
39.3058866204616777
 51
56.4758220684216923
  0
ARC
  5
E9CA
  8
0
 10
3482.2412409582589135
 20
207.3907699755883129
 30
0.0
 40
0.0003533503118235
 50
62.8728020073588496
 51
95.0844633958370764
  0
ARC
  5
E9CB
  8
0
 10
3482.2406684004558883
 20
207.3937866441933977
 30
0.0
 40
0.0027191203903723
 50
280.2923305485775813
 51
281.4814433852033062
  0
LINE
  5
E9CC
  8
0
 10
3482.2903704176478641
 20
207.4052632832915037
 30
0.0
 11
3482.2411542272911902
 21
207.3911112773270986
 31
0.0
  0
LINE
  5
E9CD
  8
0
 10
3482.2484310956137961
 20
207.3087531312351928
 30
0.0
 11
3482.289832753301198
 21
207.3043707922973056
 31
0.0
  0
ARC
  5
E9CE
  8
0
 10
3482.3383068428870502
 20
207.3151043768968123
 30
0.0
 40
0.0729641497889476
 50
186.466027145557689
 51
198.423802947747987
  0
ARC
  5
E9CF
  8
0
 10
3482.2833099061281246
 20
207.2967839512913031
 30
0.0
 40
0.0149960460838016
 50
198.4238029477463954
 51
226.9856413368941901
  0
ARC
  5
E9D0
  8
0
 10
3482.2756313235431662
 20
207.2892816475012978
 30
0.0
 40
0.0043010577840267
 50
233.6146373257840878
 51
269.4295002203741092
  0
ARC
  5
E9D1
  8
0
 10
3482.2718183339279676
 20
207.2981467818410124
 30
0.0
 40
0.013695150211992
 50
285.9794117272496123
 51
335.1949130685380851
  0
ARC
  5
E9D2
  8
0
 10
3482.2266428317811915
 20
207.3265569655706031
 30
0.0
 40
0.0669716188533802
 50
329.3359503133012822
 51
340.6565933607604961
  0
ARC
  5
E9D3
  8
0
 10
3482.1541997861600066
 20
207.3512317091912962
 30
0.0
 40
0.1435000469598193
 50
340.9414357788047027
 51
3.6425973248317258
  0
ARC
  5
E9D4
  8
0
 10
3482.1696005726089425
 20
207.3633259398413884
 30
0.0
 40
0.1278440309374925
 50
358.6655383474197833
 51
24.410386505302899
  0
ARC
  5
E9D5
  8
0
 10
3482.2644839282920657
 20
207.4068105854177873
 30
0.0
 40
0.0234759277150125
 50
23.2999504858688304
 51
55.6850453809118306
  0
ARC
  5
E9D6
  8
0
 10
3482.2756958413929169
 20
207.4224777804031135
 30
0.0
 40
0.0042366661018933
 50
61.4864152762351424
 51
91.4518408609789049
  0
ARC
  5
E9D7
  8
0
 10
3482.2777552267639294
 20
207.4183148677882969
 30
0.0
 40
0.0086732225030275
 50
104.466752007948898
 51
167.6195127393569066
  0
ARC
  5
E9D8
  8
0
 10
3482.3573447584522
 20
207.3917881330065995
 30
0.0
 40
0.0925231452508242
 50
162.1333833548330006
 51
176.1567144611294111
  0
ARC
  5
E9D9
  8
0
 10
3482.2429968506189653
 20
207.3712271960189071
 30
0.0
 40
0.0002956057283896
 50
108.8345739902571978
 51
154.2256997040773001
  0
ARC
  5
E9DA
  8
0
 10
3482.2493538069029455
 20
207.3688818572894945
 30
0.0
 40
0.007070093599744
 50
159.5183652354027117
 51
178.1084359255347067
  0
ARC
  5
E9DB
  8
0
 10
3482.3560762485440137
 20
207.3641892992326916
 30
0.0
 40
0.113895254796273
 50
177.5212054231116099
 51
184.2922807924842914
  0
ARC
  5
E9DC
  8
0
 10
3482.4692424775689688
 20
207.3696655163277001
 30
0.0
 40
0.2271738707030154
 50
183.5333556313194947
 51
188.2095140645789968
  0
ARC
  5
E9DD
  8
0
 10
3482.3280637645680144
 20
207.3494414682052991
 30
0.0
 40
0.0845541437486937
 50
188.306122359619792
 51
191.9836309276319923
  0
ARC
  5
E9DE
  8
0
 10
3482.2609716471138199
 20
207.3348899927879074
 30
0.0
 40
0.0159057150573008
 50
190.888965207993806
 51
202.5295340109636015
  0
ARC
  5
E9DF
  8
0
 10
3482.2476646390541646
 20
207.3294847796225042
 30
0.0
 40
0.0015468466856696
 50
206.4592308689022104
 51
219.6184843551197048
  0
ARC
  5
E9E0
  8
0
 10
3482.2467693549419891
 20
207.3287436495631937
 30
0.0
 40
0.0003846042810735
 50
219.6184843553282064
 51
255.8526898245536074
  0
ARC
  5
E9E1
  8
0
 10
3482.246704582133134
 20
207.3284866764387004
 30
0.0
 40
0.0001195935199029
 50
255.8526898255481967
 51
313.7119697459057761
  0
ARC
  5
E9E2
  8
0
 10
3482.2445606919282
 20
207.3298831183859932
 30
0.0
 40
0.0026751456253127
 50
326.3361053863782217
 51
356.6954619329114848
  0
ARC
  5
E9E3
  8
0
 10
3482.1933350754979983
 20
207.3349980710409
 30
0.0
 40
0.0541532701490447
 50
354.4162405880325082
 51
2.1671067333021501
  0
ARC
  5
E9E4
  8
0
 10
3482.0287299735191482
 20
207.3309477576540871
 30
0.0
 40
0.2188046341325249
 50
1.5970367718778919
 51
5.883417153993677
  0
ARC
  5
E9E5
  8
0
 10
3482.1298889718541432
 20
207.3435610853387061
 30
0.0
 40
0.1169058467234006
 50
4.8160994132694714
 51
13.0969118777577709
  0
ARC
  5
E9E6
  8
0
 10
3482.239588594361976
 20
207.368980058220302
 30
0.0
 40
0.0043009650562455
 50
14.4295252443739592
 51
34.4052325635184673
  0
ARC
  5
E9E7
  8
0
 10
3482.2428803159009476
 20
207.3711795225883066
 30
0.0
 40
0.0003452807750152
 50
41.9386508729085392
 51
70.9799902795805622
  0
ARC
  5
E9E8
  8
0
 10
3482.2429452816381854
 20
207.3713408866993007
 30
0.0
 40
0.0001717812656379
 50
73.9266481064585719
 51
104.7940153649889936
  0
ARC
  5
E9E9
  8
0
 10
3482.2412289448079719
 20
207.6405230960887991
 30
0.0
 40
0.0005124261920512
 50
109.3892131125248994
 51
142.7409708768049086
  0
ARC
  5
E9EA
  8
0
 10
3482.2425225866440996
 20
207.6395390661969884
 30
0.0
 40
0.0021377950817654
 50
142.7409708768205121
 51
168.5613587444732957
  0
ARC
  5
E9EB
  8
0
 10
3482.2786214461980308
 20
207.6322349203593092
 30
0.0
 40
0.0389681929562239
 50
168.5613587444732957
 51
173.1541557751388041
  0
ARC
  5
E9EC
  8
0
 10
3482.4062375961648286
 20
207.6272427085932009
 30
0.0
 40
0.1665855111818985
 50
176.68352299087951
 51
183.2511305480009014
  0
ARC
  5
E9ED
  8
0
 10
3482.6944517287929557
 20
207.6390861488168866
 30
0.0
 40
0.4550299086462237
 50
182.6818574601226999
 51
186.4567552882984103
  0
ARC
  5
E9EE
  8
0
 10
3482.4624436595199768
 20
207.6103448842432897
 30
0.0
 40
0.22127518790063
 50
185.8174604768435927
 51
192.2441012166578957
  0
ARC
  5
E9EF
  8
0
 10
3482.2944101008520192
 20
207.5769713554363989
 30
0.0
 40
0.0500773855711469
 50
195.7034467088255099
 51
200.2392311135228908
  0
ARC
  5
E9F0
  8
0
 10
3482.2493821980638131
 20
207.5603692993684035
 30
0.0
 40
0.0020863416655086
 50
200.2392311135747036
 51
233.5647941262141956
  0
ARC
  5
E9F1
  8
0
 10
3482.2482870755811746
 20
207.5588858206511134
 30
0.0
 40
0.0002424321343958
 50
233.5647941267667989
 51
298.2293325915924243
  0
ARC
  5
E9F2
  8
0
 10
3482.2479883804330711
 20
207.5594422006080038
 30
0.0
 40
0.0008739204143114
 50
298.2293325916535878
 51
340.8651296004684923
  0
ARC
  5
E9F3
  8
0
 10
3482.2322932900701744
 20
207.5648878126723957
 30
0.0
 40
0.0174868837943584
 50
340.8651296004684923
 51
4.5925511505340753
  0
ARC
  5
E9F4
  8
0
 10
3481.9146669674610166
 20
207.5693367236792142
 30
0.0
 40
0.3350709314839681
 50
359.4786692068241791
 51
5.8404702777310042
  0
ARC
  5
E9F5
  8
0
 10
3482.0014207106642061
 20
207.5838736175304859
 30
0.0
 40
0.247352419704253
 50
4.5354440059547327
 51
12.5881206711564797
  0
ARC
  5
E9F6
  8
0
 10
3482.2322026877468488
 20
207.6351077548424087
 30
0.0
 40
0.0109559254873459
 50
14.1271934637462202
 51
30.5998817460486414
  0
ARC
  5
E9F7
  8
0
 10
3482.2404931529790701
 20
207.6397516672321046
 30
0.0
 40
0.0014730013206495
 50
39.3058866204616777
 51
56.4758220684216923
  0
ARC
  5
E9F8
  8
0
 10
3482.241145558909011
 20
207.6406651584383098
 30
0.0
 40
0.0003533503118235
 50
62.8728020073588496
 51
95.0844633958370764
  0
ARC
  5
E9F9
  8
0
 10
3482.2405730011059859
 20
207.6436818270433946
 30
0.0
 40
0.0027191203903723
 50
280.2923305485775813
 51
281.4814433852033062
  0
LINE
  5
E9FA
  8
0
 10
3482.2902750182988711
 20
207.6551584661415006
 30
0.0
 11
3482.2410588279399235
 21
207.6410064601772092
 31
0.0
  0
LINE
  5
E9FB
  8
0
 10
3482.2483356962638936
 20
207.5586483140851044
 30
0.0
 11
3482.2897373539499313
 21
207.5542659751473025
 31
0.0
  0
ARC
  5
E9FC
  8
0
 10
3482.3382114435371477
 20
207.5649995597466955
 30
0.0
 40
0.0729641497889476
 50
186.466027145557689
 51
198.423802947747987
  0
ARC
  5
E9FD
  8
0
 10
3482.2832145067791316
 20
207.5466791341413
 30
0.0
 40
0.0149960460838016
 50
198.4238029477463954
 51
226.9856413368941901
  0
ARC
  5
E9FE
  8
0
 10
3482.275535924192809
 20
207.5391768303512947
 30
0.0
 40
0.0043010577840267
 50
233.6146373257840878
 51
269.4295002203741092
  0
ARC
  5
E9FF
  8
0
 10
3482.2717229345780652
 20
207.5480419646910093
 30
0.0
 40
0.013695150211992
 50
285.9794117272496123
 51
335.1949130685380851
  0
ARC
  5
EA00
  8
0
 10
3482.2265474324308343
 20
207.5764521484206
 30
0.0
 40
0.0669716188533802
 50
329.3359503133012822
 51
340.6565933607604961
  0
ARC
  5
EA01
  8
0
 10
3482.1541043868101042
 20
207.6011268920412931
 30
0.0
 40
0.1435000469598193
 50
340.9414357788047027
 51
3.6425973248317258
  0
ARC
  5
EA02
  8
0
 10
3482.16950517325904
 20
207.6132211226914137
 30
0.0
 40
0.1278440309374925
 50
358.6655383474197833
 51
24.410386505302899
  0
ARC
  5
EA03
  8
0
 10
3482.2643885289430727
 20
207.6567057682678126
 30
0.0
 40
0.0234759277150125
 50
23.2999504858688304
 51
55.6850453809118306
  0
ARC
  5
EA04
  8
0
 10
3482.275600442043924
 20
207.6723729632531104
 30
0.0
 40
0.0042366661018933
 50
61.4864152762351424
 51
91.4518408609789049
  0
ARC
  5
EA05
  8
0
 10
3482.2776598274149364
 20
207.6682100506382085
 30
0.0
 40
0.0086732225030275
 50
104.466752007948898
 51
167.6195127393569066
  0
ARC
  5
EA06
  8
0
 10
3482.3572493591032071
 20
207.6416833158565964
 30
0.0
 40
0.0925231452508242
 50
162.1333833548330006
 51
176.1567144611294111
  0
ARC
  5
EA07
  8
0
 10
3482.2429014512690628
 20
207.621122378868904
 30
0.0
 40
0.0002956057283896
 50
108.8345739902571978
 51
154.2256997040773001
  0
ARC
  5
EA08
  8
0
 10
3482.2492584075530431
 20
207.6187770401394914
 30
0.0
 40
0.007070093599744
 50
159.5183652354027117
 51
178.1084359255347067
  0
ARC
  5
EA09
  8
0
 10
3482.3559808491941112
 20
207.6140844820826032
 30
0.0
 40
0.113895254796273
 50
177.5212054231116099
 51
184.2922807924842914
  0
ARC
  5
EA0A
  8
0
 10
3482.4691470782190663
 20
207.619560699177697
 30
0.0
 40
0.2271738707030154
 50
183.5333556313194947
 51
188.2095140645789968
  0
ARC
  5
EA0B
  8
0
 10
3482.3279683652172025
 20
207.599336651055296
 30
0.0
 40
0.0845541437486937
 50
188.306122359619792
 51
191.9836309276319923
  0
ARC
  5
EA0C
  8
0
 10
3482.260876247763008
 20
207.5847851756379043
 30
0.0
 40
0.0159057150573008
 50
190.888965207993806
 51
202.5295340109636015
  0
ARC
  5
EA0D
  8
0
 10
3482.2475692397038074
 20
207.5793799624725011
 30
0.0
 40
0.0015468466856696
 50
206.4592308689022104
 51
219.6184843551197048
  0
ARC
  5
EA0E
  8
0
 10
3482.2466739555920867
 20
207.5786388324131906
 30
0.0
 40
0.0003846042810735
 50
219.6184843553282064
 51
255.8526898245536074
  0
ARC
  5
EA0F
  8
0
 10
3482.2466091827827768
 20
207.5783818592886973
 30
0.0
 40
0.0001195935199029
 50
255.8526898255481967
 51
313.7119697459057761
  0
ARC
  5
EA10
  8
0
 10
3482.2444652925778428
 20
207.5797783012359048
 30
0.0
 40
0.0026751456253127
 50
326.3361053863782217
 51
356.6954619329114848
  0
ARC
  5
EA11
  8
0
 10
3482.1932396761490054
 20
207.5848932538908969
 30
0.0
 40
0.0541532701490447
 50
354.4162405880325082
 51
2.1671067333021501
  0
ARC
  5
EA12
  8
0
 10
3482.028634574168791
 20
207.5808429405041124
 30
0.0
 40
0.2188046341325249
 50
1.5970367718778919
 51
5.883417153993677
  0
ARC
  5
EA13
  8
0
 10
3482.129793572503786
 20
207.593456268188703
 30
0.0
 40
0.1169058467234006
 50
4.8160994132694714
 51
13.0969118777577709
  0
ARC
  5
EA14
  8
0
 10
3482.2394931950120736
 20
207.6188752410702136
 30
0.0
 40
0.0043009650562455
 50
14.4295252443739592
 51
34.4052325635184673
  0
ARC
  5
EA15
  8
0
 10
3482.2427849165519547
 20
207.6210747054383035
 30
0.0
 40
0.0003452807750152
 50
41.9386508729085392
 51
70.9799902795805622
  0
ARC
  5
EA16
  8
0
 10
3482.2428498822878282
 20
207.6212360695492976
 30
0.0
 40
0.0001717812656379
 50
73.9266481064585719
 51
104.7940153649889936
  0
ARC
  5
EA17
  8
0
 10
3482.2412289448079719
 20
207.8924916000889027
 30
0.0
 40
0.0005124261920512
 50
109.3892131125248994
 51
142.7409708768049086
  0
ARC
  5
EA18
  8
0
 10
3482.2425225866440996
 20
207.8915075701970068
 30
0.0
 40
0.0021377950817654
 50
142.7409708768205121
 51
168.5613587444732957
  0
ARC
  5
EA19
  8
0
 10
3482.2786214461980308
 20
207.8842034243592991
 30
0.0
 40
0.0389681929562239
 50
168.5613587444732957
 51
173.1541557751388041
  0
ARC
  5
EA1A
  8
0
 10
3482.4062375961648286
 20
207.8792112125931908
 30
0.0
 40
0.1665855111818985
 50
176.68352299087951
 51
183.2511305480009014
  0
ARC
  5
EA1B
  8
0
 10
3482.6944517287929557
 20
207.8910546528167913
 30
0.0
 40
0.4550299086462237
 50
182.6818574601226999
 51
186.4567552882984103
  0
ARC
  5
EA1C
  8
0
 10
3482.4624436595199768
 20
207.8623133882433081
 30
0.0
 40
0.22127518790063
 50
185.8174604768435927
 51
192.2441012166578957
  0
ARC
  5
EA1D
  8
0
 10
3482.2944101008520192
 20
207.8289398594363888
 30
0.0
 40
0.0500773855711469
 50
195.7034467088255099
 51
200.2392311135228908
  0
ARC
  5
EA1E
  8
0
 10
3482.2493821980638131
 20
207.8123378033683935
 30
0.0
 40
0.0020863416655086
 50
200.2392311135747036
 51
233.5647941262141956
  0
ARC
  5
EA1F
  8
0
 10
3482.2482870755811746
 20
207.8108543246511033
 30
0.0
 40
0.0002424321343958
 50
233.5647941267667989
 51
298.2293325915924243
  0
ARC
  5
EA20
  8
0
 10
3482.2479883804330711
 20
207.8114107046079937
 30
0.0
 40
0.0008739204143114
 50
298.2293325916535878
 51
340.8651296004684923
  0
ARC
  5
EA21
  8
0
 10
3482.2322932900701744
 20
207.8168563166724994
 30
0.0
 40
0.0174868837943584
 50
340.8651296004684923
 51
4.5925511505340753
  0
ARC
  5
EA22
  8
0
 10
3481.9146669674610166
 20
207.8213052276792041
 30
0.0
 40
0.3350709314839681
 50
359.4786692068241791
 51
5.8404702777310042
  0
ARC
  5
EA23
  8
0
 10
3482.0014207106642061
 20
207.8358421215305043
 30
0.0
 40
0.247352419704253
 50
4.5354440059547327
 51
12.5881206711564797
  0
ARC
  5
EA24
  8
0
 10
3482.2322026877468488
 20
207.8870762588423986
 30
0.0
 40
0.0109559254873459
 50
14.1271934637462202
 51
30.5998817460486414
  0
ARC
  5
EA25
  8
0
 10
3482.2404931529790701
 20
207.8917201712320946
 30
0.0
 40
0.0014730013206495
 50
39.3058866204616777
 51
56.4758220684216923
  0
ARC
  5
EA26
  8
0
 10
3482.241145558909011
 20
207.8926336624382998
 30
0.0
 40
0.0003533503118235
 50
62.8728020073588496
 51
95.0844633958370764
  0
ARC
  5
EA27
  8
0
 10
3482.2405730011059859
 20
207.895650331043413
 30
0.0
 40
0.0027191203903723
 50
280.2923305485775813
 51
281.4814433852033062
  0
LINE
  5
EA28
  8
0
 10
3482.2902750182988711
 20
207.9071269701414906
 30
0.0
 11
3482.2410588279399235
 21
207.8929749641771139
 31
0.0
  0
LINE
  5
EA29
  8
0
 10
3482.2483356962638936
 20
207.8106168180850943
 30
0.0
 11
3482.2897373539499313
 21
207.8062344791472924
 31
0.0
  0
ARC
  5
EA2A
  8
0
 10
3482.3382114435371477
 20
207.8169680637467991
 30
0.0
 40
0.0729641497889476
 50
186.466027145557689
 51
198.423802947747987
  0
ARC
  5
EA2B
  8
0
 10
3482.2832145067791316
 20
207.7986476381412899
 30
0.0
 40
0.0149960460838016
 50
198.4238029477463954
 51
226.9856413368941901
  0
ARC
  5
EA2C
  8
0
 10
3482.275535924192809
 20
207.7911453343513131
 30
0.0
 40
0.0043010577840267
 50
233.6146373257840878
 51
269.4295002203741092
  0
ARC
  5
EA2D
  8
0
 10
3482.2717229345780652
 20
207.8000104686909992
 30
0.0
 40
0.013695150211992
 50
285.9794117272496123
 51
335.1949130685380851
  0
ARC
  5
EA2E
  8
0
 10
3482.2265474324308343
 20
207.8284206524207036
 30
0.0
 40
0.0669716188533802
 50
329.3359503133012822
 51
340.6565933607604961
  0
ARC
  5
EA2F
  8
0
 10
3482.1541043868101042
 20
207.8530953960413115
 30
0.0
 40
0.1435000469598193
 50
340.9414357788047027
 51
3.6425973248317258
  0
ARC
  5
EA30
  8
0
 10
3482.16950517325904
 20
207.8651896266914036
 30
0.0
 40
0.1278440309374925
 50
358.6655383474197833
 51
24.410386505302899
  0
ARC
  5
EA31
  8
0
 10
3482.2643885289430727
 20
207.9086742722678025
 30
0.0
 40
0.0234759277150125
 50
23.2999504858688304
 51
55.6850453809118306
  0
ARC
  5
EA32
  8
0
 10
3482.275600442043924
 20
207.9243414672531003
 30
0.0
 40
0.0042366661018933
 50
61.4864152762351424
 51
91.4518408609789049
  0
ARC
  5
EA33
  8
0
 10
3482.2776598274149364
 20
207.9201785546381984
 30
0.0
 40
0.0086732225030275
 50
104.466752007948898
 51
167.6195127393569066
  0
ARC
  5
EA34
  8
0
 10
3482.3572493591032071
 20
207.8936518198565864
 30
0.0
 40
0.0925231452508242
 50
162.1333833548330006
 51
176.1567144611294111
  0
ARC
  5
EA35
  8
0
 10
3482.2429014512690628
 20
207.8730908828688939
 30
0.0
 40
0.0002956057283896
 50
108.8345739902571978
 51
154.2256997040773001
  0
ARC
  5
EA36
  8
0
 10
3482.2492584075530431
 20
207.8707455441395098
 30
0.0
 40
0.007070093599744
 50
159.5183652354027117
 51
178.1084359255347067
  0
ARC
  5
EA37
  8
0
 10
3482.3559808491941112
 20
207.8660529860825932
 30
0.0
 40
0.113895254796273
 50
177.5212054231116099
 51
184.2922807924842914
  0
ARC
  5
EA38
  8
0
 10
3482.4691470782190663
 20
207.8715292031776016
 30
0.0
 40
0.2271738707030154
 50
183.5333556313194947
 51
188.2095140645789968
  0
ARC
  5
EA39
  8
0
 10
3482.3279683652172025
 20
207.8513051550553996
 30
0.0
 40
0.0845541437486937
 50
188.306122359619792
 51
191.9836309276319923
  0
ARC
  5
EA3A
  8
0
 10
3482.260876247763008
 20
207.8367536796378943
 30
0.0
 40
0.0159057150573008
 50
190.888965207993806
 51
202.5295340109636015
  0
ARC
  5
EA3B
  8
0
 10
3482.2475692397038074
 20
207.8313484664724911
 30
0.0
 40
0.0015468466856696
 50
206.4592308689022104
 51
219.6184843551197048
  0
ARC
  5
EA3C
  8
0
 10
3482.2466739555920867
 20
207.8306073364132089
 30
0.0
 40
0.0003846042810735
 50
219.6184843553282064
 51
255.8526898245536074
  0
ARC
  5
EA3D
  8
0
 10
3482.2466091827827768
 20
207.830350363288602
 30
0.0
 40
0.0001195935199029
 50
255.8526898255481967
 51
313.7119697459057761
  0
ARC
  5
EA3E
  8
0
 10
3482.2444652925778428
 20
207.8317468052360084
 30
0.0
 40
0.0026751456253127
 50
326.3361053863782217
 51
356.6954619329114848
  0
ARC
  5
EA3F
  8
0
 10
3482.1932396761490054
 20
207.8368617578908868
 30
0.0
 40
0.0541532701490447
 50
354.4162405880325082
 51
2.1671067333021501
  0
ARC
  5
EA40
  8
0
 10
3482.028634574168791
 20
207.8328114445041024
 30
0.0
 40
0.2188046341325249
 50
1.5970367718778919
 51
5.883417153993677
  0
ARC
  5
EA41
  8
0
 10
3482.129793572503786
 20
207.8454247721886929
 30
0.0
 40
0.1169058467234006
 50
4.8160994132694714
 51
13.0969118777577709
  0
ARC
  5
EA42
  8
0
 10
3482.2394931950120736
 20
207.8708437450702036
 30
0.0
 40
0.0043009650562455
 50
14.4295252443739592
 51
34.4052325635184673
  0
ARC
  5
EA43
  8
0
 10
3482.2427849165519547
 20
207.8730432094382934
 30
0.0
 40
0.0003452807750152
 50
41.9386508729085392
 51
70.9799902795805622
  0
ARC
  5
EA44
  8
0
 10
3482.2428498822878282
 20
207.8732045735492875
 30
0.0
 40
0.0001717812656379
 50
73.9266481064585719
 51
104.7940153649889936
  0
ARC
  5
EA45
  8
0
 10
3482.2414197435077767
 20
208.1486067460888023
 30
0.0
 40
0.0005124261920512
 50
109.3892131125248994
 51
142.7409708768049086
  0
ARC
  5
EA46
  8
0
 10
3482.242713385342995
 20
208.1476227161969916
 30
0.0
 40
0.0021377950817654
 50
142.7409708768205121
 51
168.5613587444732957
  0
ARC
  5
EA47
  8
0
 10
3482.2788122448978356
 20
208.1403185703593124
 30
0.0
 40
0.0389681929562239
 50
168.5613587444732957
 51
173.1541557751388041
  0
ARC
  5
EA48
  8
0
 10
3482.4064283948650882
 20
208.1353263585932041
 30
0.0
 40
0.1665855111818985
 50
176.68352299087951
 51
183.2511305480009014
  0
ARC
  5
EA49
  8
0
 10
3482.6946425274932153
 20
208.1471697988168899
 30
0.0
 40
0.4550299086462237
 50
182.6818574601226999
 51
186.4567552882984103
  0
ARC
  5
EA4A
  8
0
 10
3482.4626344582211459
 20
208.1184285342432077
 30
0.0
 40
0.22127518790063
 50
185.8174604768435927
 51
192.2441012166578957
  0
ARC
  5
EA4B
  8
0
 10
3482.2946008995518241
 20
208.0850550054364021
 30
0.0
 40
0.0500773855711469
 50
195.7034467088255099
 51
200.2392311135228908
  0
ARC
  5
EA4C
  8
0
 10
3482.2495729967640727
 20
208.0684529493684067
 30
0.0
 40
0.0020863416655086
 50
200.2392311135747036
 51
233.5647941262141956
  0
ARC
  5
EA4D
  8
0
 10
3482.2484778742809794
 20
208.0669694706510882
 30
0.0
 40
0.0002424321343958
 50
233.5647941267667989
 51
298.2293325915924243
  0
ARC
  5
EA4E
  8
0
 10
3482.248179179132876
 20
208.0675258506078933
 30
0.0
 40
0.0008739204143114
 50
298.2293325916535878
 51
340.8651296004684923
  0
ARC
  5
EA4F
  8
0
 10
3482.2324840887699793
 20
208.0729714626725126
 30
0.0
 40
0.0174868837943584
 50
340.8651296004684923
 51
4.5925511505340753
  0
ARC
  5
EA50
  8
0
 10
3481.9148577661608215
 20
208.077420373679189
 30
0.0
 40
0.3350709314839681
 50
359.4786692068241791
 51
5.8404702777310042
  0
ARC
  5
EA51
  8
0
 10
3482.001611509364011
 20
208.0919572675304892
 30
0.0
 40
0.247352419704253
 50
4.5354440059547327
 51
12.5881206711564797
  0
ARC
  5
EA52
  8
0
 10
3482.2323934864471084
 20
208.1431914048424119
 30
0.0
 40
0.0109559254873459
 50
14.1271934637462202
 51
30.5998817460486414
  0
ARC
  5
EA53
  8
0
 10
3482.240683951678875
 20
208.1478353172321079
 30
0.0
 40
0.0014730013206495
 50
39.3058866204616777
 51
56.4758220684216923
  0
ARC
  5
EA54
  8
0
 10
3482.2413363576088159
 20
208.1487488084383131
 30
0.0
 40
0.0003533503118235
 50
62.8728020073588496
 51
95.0844633958370764
  0
ARC
  5
EA55
  8
0
 10
3482.2407637998057908
 20
208.1517654770433978
 30
0.0
 40
0.0027191203903723
 50
280.2923305485775813
 51
281.4814433852033062
  0
LINE
  5
EA56
  8
0
 10
3482.2904658169982213
 20
208.1632421161415039
 30
0.0
 11
3482.2412496266410926
 21
208.1490901101770987
 31
0.0
  0
LINE
  5
EA57
  8
0
 10
3482.2485264949650627
 20
208.0667319640851929
 30
0.0
 11
3482.2899281526501909
 21
208.0623496251473057
 31
0.0
  0
ARC
  5
EA58
  8
0
 10
3482.3384022422369526
 20
208.0730832097468124
 30
0.0
 40
0.0729641497889476
 50
186.466027145557689
 51
198.423802947747987
  0
ARC
  5
EA59
  8
0
 10
3482.2834053054789365
 20
208.0547627841413032
 30
0.0
 40
0.0149960460838016
 50
198.4238029477463954
 51
226.9856413368941901
  0
ARC
  5
EA5A
  8
0
 10
3482.2757267228930687
 20
208.0472604803512979
 30
0.0
 40
0.0043010577840267
 50
233.6146373257840878
 51
269.4295002203741092
  0
ARC
  5
EA5B
  8
0
 10
3482.2719137332778701
 20
208.0561256146910125
 30
0.0
 40
0.013695150211992
 50
285.9794117272496123
 51
335.1949130685380851
  0
ARC
  5
EA5C
  8
0
 10
3482.2267382311310939
 20
208.0845357984206032
 30
0.0
 40
0.0669716188533802
 50
329.3359503133012822
 51
340.6565933607604961
  0
ARC
  5
EA5D
  8
0
 10
3482.1542951855089996
 20
208.1092105420412963
 30
0.0
 40
0.1435000469598193
 50
340.9414357788047027
 51
3.6425973248317258
  0
ARC
  5
EA5E
  8
0
 10
3482.1696959719602091
 20
208.1213047726913885
 30
0.0
 40
0.1278440309374925
 50
358.6655383474197833
 51
24.410386505302899
  0
ARC
  5
EA5F
  8
0
 10
3482.2645793276419681
 20
208.1647894182677874
 30
0.0
 40
0.0234759277150125
 50
23.2999504858688304
 51
55.6850453809118306
  0
ARC
  5
EA60
  8
0
 10
3482.2757912407441836
 20
208.1804566132531136
 30
0.0
 40
0.0042366661018933
 50
61.4864152762351424
 51
91.4518408609789049
  0
ARC
  5
EA61
  8
0
 10
3482.2778506261151961
 20
208.176293700638297
 30
0.0
 40
0.0086732225030275
 50
104.466752007948898
 51
167.6195127393569066
  0
ARC
  5
EA62
  8
0
 10
3482.357440157803012
 20
208.1497669658565997
 30
0.0
 40
0.0925231452508242
 50
162.1333833548330006
 51
176.1567144611294111
  0
ARC
  5
EA63
  8
0
 10
3482.2430922499688677
 20
208.1292060288689072
 30
0.0
 40
0.0002956057283896
 50
108.8345739902571978
 51
154.2256997040773001
  0
ARC
  5
EA64
  8
0
 10
3482.2494492062528479
 20
208.1268606901394946
 30
0.0
 40
0.007070093599744
 50
159.5183652354027117
 51
178.1084359255347067
  0
ARC
  5
EA65
  8
0
 10
3482.3561716478930066
 20
208.1221681320826065
 30
0.0
 40
0.113895254796273
 50
177.5212054231116099
 51
184.2922807924842914
  0
ARC
  5
EA66
  8
0
 10
3482.4693378769188712
 20
208.1276443491775865
 30
0.0
 40
0.2271738707030154
 50
183.5333556313194947
 51
188.2095140645789968
  0
ARC
  5
EA67
  8
0
 10
3482.3281591639179169
 20
208.1074203010552992
 30
0.0
 40
0.0845541437486937
 50
188.306122359619792
 51
191.9836309276319923
  0
ARC
  5
EA68
  8
0
 10
3482.2610670464641771
 20
208.0928688256379075
 30
0.0
 40
0.0159057150573008
 50
190.888965207993806
 51
202.5295340109636015
  0
ARC
  5
EA69
  8
0
 10
3482.2477600384049765
 20
208.0874636124725043
 30
0.0
 40
0.0015468466856696
 50
206.4592308689022104
 51
219.6184843551197048
  0
ARC
  5
EA6A
  8
0
 10
3482.2468647542918916
 20
208.0867224824131938
 30
0.0
 40
0.0003846042810735
 50
219.6184843553282064
 51
255.8526898245536074
  0
ARC
  5
EA6B
  8
0
 10
3482.2467999814830364
 20
208.0864655092887006
 30
0.0
 40
0.0001195935199029
 50
255.8526898255481967
 51
313.7119697459057761
  0
ARC
  5
EA6C
  8
0
 10
3482.2446560912781024
 20
208.0878619512359933
 30
0.0
 40
0.0026751456253127
 50
326.3361053863782217
 51
356.6954619329114848
  0
ARC
  5
EA6D
  8
0
 10
3482.1934304748479008
 20
208.0929769038909001
 30
0.0
 40
0.0541532701490447
 50
354.4162405880325082
 51
2.1671067333021501
  0
ARC
  5
EA6E
  8
0
 10
3482.0288253728681411
 20
208.0889265905040872
 30
0.0
 40
0.2188046341325249
 50
1.5970367718778919
 51
5.883417153993677
  0
ARC
  5
EA6F
  8
0
 10
3482.1299843712040456
 20
208.1015399181887062
 30
0.0
 40
0.1169058467234006
 50
4.8160994132694714
 51
13.0969118777577709
  0
ARC
  5
EA70
  8
0
 10
3482.2396839937109689
 20
208.1269588910703021
 30
0.0
 40
0.0043009650562455
 50
14.4295252443739592
 51
34.4052325635184673
  0
ARC
  5
EA71
  8
0
 10
3482.24297571525085
 20
208.1291583554383067
 30
0.0
 40
0.0003452807750152
 50
41.9386508729085392
 51
70.9799902795805622
  0
ARC
  5
EA72
  8
0
 10
3482.2430406809880878
 20
208.1293197195493008
 30
0.0
 40
0.0001717812656379
 50
73.9266481064585719
 51
104.7940153649889936
  0
ARC
  5
EA73
  8
0
 10
3482.2414654534068177
 20
208.4026578060388033
 30
0.0
 40
0.0005124261920512
 50
109.3892131125248994
 51
142.7409708768049086
  0
ARC
  5
EA74
  8
0
 10
3482.2427590952429455
 20
208.4016737761469926
 30
0.0
 40
0.0021377950817654
 50
142.7409708768205121
 51
168.5613587444732957
  0
ARC
  5
EA75
  8
0
 10
3482.2788579547977861
 20
208.3943696303093134
 30
0.0
 40
0.0389681929562239
 50
168.5613587444732957
 51
173.1541557751388041
  0
ARC
  5
EA76
  8
0
 10
3482.4064741047650386
 20
208.3893774185432051
 30
0.0
 40
0.1665855111818985
 50
176.68352299087951
 51
183.2511305480009014
  0
ARC
  5
EA77
  8
0
 10
3482.6946882373931658
 20
208.4012208587668056
 30
0.0
 40
0.4550299086462237
 50
182.6818574601226999
 51
186.4567552882984103
  0
ARC
  5
EA78
  8
0
 10
3482.4626801681210964
 20
208.3724795941932086
 30
0.0
 40
0.22127518790063
 50
185.8174604768435927
 51
192.2441012166578957
  0
ARC
  5
EA79
  8
0
 10
3482.2946466094517746
 20
208.3391060653864031
 30
0.0
 40
0.0500773855711469
 50
195.7034467088255099
 51
200.2392311135228908
  0
ARC
  5
EA7A
  8
0
 10
3482.2496187066640232
 20
208.3225040093184077
 30
0.0
 40
0.0020863416655086
 50
200.2392311135747036
 51
233.5647941262141956
  0
ARC
  5
EA7B
  8
0
 10
3482.2485235841809299
 20
208.3210205306010891
 30
0.0
 40
0.0002424321343958
 50
233.5647941267667989
 51
298.2293325915924243
  0
ARC
  5
EA7C
  8
0
 10
3482.2482248890328265
 20
208.321576910558008
 30
0.0
 40
0.0008739204143114
 50
298.2293325916535878
 51
340.8651296004684923
  0
ARC
  5
EA7D
  8
0
 10
3482.2325297986699297
 20
208.3270225226223999
 30
0.0
 40
0.0174868837943584
 50
340.8651296004684923
 51
4.5925511505340753
  0
ARC
  5
EA7E
  8
0
 10
3481.9149034760612267
 20
208.33147143362919
 30
0.0
 40
0.3350709314839681
 50
359.4786692068241791
 51
5.8404702777310042
  0
ARC
  5
EA7F
  8
0
 10
3482.0016572192639615
 20
208.3460083274804902
 30
0.0
 40
0.247352419704253
 50
4.5354440059547327
 51
12.5881206711564797
  0
ARC
  5
EA80
  8
0
 10
3482.2324391963470589
 20
208.3972424647924129
 30
0.0
 40
0.0109559254873459
 50
14.1271934637462202
 51
30.5998817460486414
  0
ARC
  5
EA81
  8
0
 10
3482.2407296615788255
 20
208.4018863771821088
 30
0.0
 40
0.0014730013206495
 50
39.3058866204616777
 51
56.4758220684216923
  0
ARC
  5
EA82
  8
0
 10
3482.2413820675092211
 20
208.4027998683883141
 30
0.0
 40
0.0003533503118235
 50
62.8728020073588496
 51
95.0844633958370764
  0
ARC
  5
EA83
  8
0
 10
3482.2408095097048317
 20
208.4058165369933988
 30
0.0
 40
0.0027191203903723
 50
280.2923305485775813
 51
281.4814433852033062
  0
LINE
  5
EA84
  8
0
 10
3482.2905115268981717
 20
208.4172931760915048
 30
0.0
 11
3482.2412953365410431
 21
208.4031411701272134
 31
0.0
  0
LINE
  5
EA85
  8
0
 10
3482.2485722048650132
 20
208.3207830240351086
 30
0.0
 11
3482.2899738625501413
 21
208.3164006850973067
 31
0.0
  0
ARC
  5
EA86
  8
0
 10
3482.338447952136903
 20
208.3271342696968134
 30
0.0
 40
0.0729641497889476
 50
186.466027145557689
 51
198.423802947747987
  0
ARC
  5
EA87
  8
0
 10
3482.283451015378887
 20
208.3088138440913042
 30
0.0
 40
0.0149960460838016
 50
198.4238029477463954
 51
226.9856413368941901
  0
ARC
  5
EA88
  8
0
 10
3482.2757724327930191
 20
208.3013115403012989
 30
0.0
 40
0.0043010577840267
 50
233.6146373257840878
 51
269.4295002203741092
  0
ARC
  5
EA89
  8
0
 10
3482.2719594431778205
 20
208.3101766746410135
 30
0.0
 40
0.013695150211992
 50
285.9794117272496123
 51
335.1949130685380851
  0
ARC
  5
EA8A
  8
0
 10
3482.2267839410310444
 20
208.3385868583706895
 30
0.0
 40
0.0669716188533802
 50
329.3359503133012822
 51
340.6565933607604961
  0
ARC
  5
EA8B
  8
0
 10
3482.1543408954098595
 20
208.3632616019912973
 30
0.0
 40
0.1435000469598193
 50
340.9414357788047027
 51
3.6425973248317258
  0
ARC
  5
EA8C
  8
0
 10
3482.1697416818601596
 20
208.3753558326413895
 30
0.0
 40
0.1278440309374925
 50
358.6655383474197833
 51
24.410386505302899
  0
ARC
  5
EA8D
  8
0
 10
3482.2646250375428281
 20
208.4188404782177884
 30
0.0
 40
0.0234759277150125
 50
23.2999504858688304
 51
55.6850453809118306
  0
ARC
  5
EA8E
  8
0
 10
3482.2758369506432246
 20
208.4345076732030861
 30
0.0
 40
0.0042366661018933
 50
61.4864152762351424
 51
91.4518408609789049
  0
ARC
  5
EA8F
  8
0
 10
3482.2778963360151465
 20
208.4303447605882127
 30
0.0
 40
0.0086732225030275
 50
104.466752007948898
 51
167.6195127393569066
  0
ARC
  5
EA90
  8
0
 10
3482.3574858677029624
 20
208.4038180258066006
 30
0.0
 40
0.0925231452508242
 50
162.1333833548330006
 51
176.1567144611294111
  0
ARC
  5
EA91
  8
0
 10
3482.2431379598688181
 20
208.3832570888189082
 30
0.0
 40
0.0002956057283896
 50
108.8345739902571978
 51
154.2256997040773001
  0
ARC
  5
EA92
  8
0
 10
3482.2494949161527984
 20
208.3809117500894956
 30
0.0
 40
0.007070093599744
 50
159.5183652354027117
 51
178.1084359255347067
  0
ARC
  5
EA93
  8
0
 10
3482.356217357792957
 20
208.3762191920326075
 30
0.0
 40
0.113895254796273
 50
177.5212054231116099
 51
184.2922807924842914
  0
ARC
  5
EA94
  8
0
 10
3482.4693835868188216
 20
208.3816954091277012
 30
0.0
 40
0.2271738707030154
 50
183.5333556313194947
 51
188.2095140645789968
  0
ARC
  5
EA95
  8
0
 10
3482.3282048738178673
 20
208.3614713610053002
 30
0.0
 40
0.0845541437486937
 50
188.306122359619792
 51
191.9836309276319923
  0
ARC
  5
EA96
  8
0
 10
3482.2611127563641276
 20
208.3469198855879085
 30
0.0
 40
0.0159057150573008
 50
190.888965207993806
 51
202.5295340109636015
  0
ARC
  5
EA97
  8
0
 10
3482.247805748304927
 20
208.3415146724225053
 30
0.0
 40
0.0015468466856696
 50
206.4592308689022104
 51
219.6184843551197048
  0
ARC
  5
EA98
  8
0
 10
3482.246910464191842
 20
208.3407735423631948
 30
0.0
 40
0.0003846042810735
 50
219.6184843553282064
 51
255.8526898245536074
  0
ARC
  5
EA99
  8
0
 10
3482.2468456913829868
 20
208.3405165692387015
 30
0.0
 40
0.0001195935199029
 50
255.8526898255481967
 51
313.7119697459057761
  0
ARC
  5
EA9A
  8
0
 10
3482.2447018011780528
 20
208.3419130111859943
 30
0.0
 40
0.0026751456253127
 50
326.3361053863782217
 51
356.6954619329114848
  0
ARC
  5
EA9B
  8
0
 10
3482.1934761847492155
 20
208.3470279638409011
 30
0.0
 40
0.0541532701490447
 50
354.4162405880325082
 51
2.1671067333021501
  0
ARC
  5
EA9C
  8
0
 10
3482.0288710827690011
 20
208.3429776504540882
 30
0.0
 40
0.2188046341325249
 50
1.5970367718778919
 51
5.883417153993677
  0
ARC
  5
EA9D
  8
0
 10
3482.1300300811039961
 20
208.3555909781387072
 30
0.0
 40
0.1169058467234006
 50
4.8160994132694714
 51
13.0969118777577709
  0
ARC
  5
EA9E
  8
0
 10
3482.2397297036109194
 20
208.3810099510201894
 30
0.0
 40
0.0043009650562455
 50
14.4295252443739592
 51
34.4052325635184673
  0
ARC
  5
EA9F
  8
0
 10
3482.2430214251508005
 20
208.3832094153883077
 30
0.0
 40
0.0003452807750152
 50
41.9386508729085392
 51
70.9799902795805622
  0
ARC
  5
EAA0
  8
0
 10
3482.2430863908889478
 20
208.3833707794993018
 30
0.0
 40
0.0001717812656379
 50
73.9266481064585719
 51
104.7940153649889936
  0
ARC
  5
EAA1
  8
0
 10
3482.2413243441569648
 20
208.6504704329387891
 30
0.0
 40
0.0005124261920512
 50
109.3892131125248994
 51
142.7409708768049086
  0
ARC
  5
EAA2
  8
0
 10
3482.2426179859930926
 20
208.6494864030470069
 30
0.0
 40
0.0021377950817654
 50
142.7409708768205121
 51
168.5613587444732957
  0
ARC
  5
EAA3
  8
0
 10
3482.2787168455479332
 20
208.6421822572092992
 30
0.0
 40
0.0389681929562239
 50
168.5613587444732957
 51
173.1541557751388041
  0
ARC
  5
EAA4
  8
0
 10
3482.4063329955151858
 20
208.6371900454431909
 30
0.0
 40
0.1665855111818985
 50
176.68352299087951
 51
183.2511305480009014
  0
ARC
  5
EAA5
  8
0
 10
3482.6945471281442224
 20
208.6490334856669051
 30
0.0
 40
0.4550299086462237
 50
182.6818574601226999
 51
186.4567552882984103
  0
ARC
  5
EAA6
  8
0
 10
3482.4625390588698792
 20
208.6202922210933082
 30
0.0
 40
0.22127518790063
 50
185.8174604768435927
 51
192.2441012166578957
  0
ARC
  5
EAA7
  8
0
 10
3482.2945055002028312
 20
208.5869186922863889
 30
0.0
 40
0.0500773855711469
 50
195.7034467088255099
 51
200.2392311135228908
  0
ARC
  5
EAA8
  8
0
 10
3482.2494775974141703
 20
208.5703166362185073
 30
0.0
 40
0.0020863416655086
 50
200.2392311135747036
 51
233.5647941262141956
  0
ARC
  5
EAA9
  8
0
 10
3482.248382474931077
 20
208.5688331575011034
 30
0.0
 40
0.0002424321343958
 50
233.5647941267667989
 51
298.2293325915924243
  0
ARC
  5
EAAA
  8
0
 10
3482.2480837797829736
 20
208.5693895374579938
 30
0.0
 40
0.0008739204143114
 50
298.2293325916535878
 51
340.8651296004684923
  0
ARC
  5
EAAB
  8
0
 10
3482.2323886894200768
 20
208.5748351495224995
 30
0.0
 40
0.0174868837943584
 50
340.8651296004684923
 51
4.5925511505340753
  0
ARC
  5
EAAC
  8
0
 10
3481.914762366810919
 20
208.5792840605292042
 30
0.0
 40
0.3350709314839681
 50
359.4786692068241791
 51
5.8404702777310042
  0
ARC
  5
EAAD
  8
0
 10
3482.0015161100141086
 20
208.5938209543805044
 30
0.0
 40
0.247352419704253
 50
4.5354440059547327
 51
12.5881206711564797
  0
ARC
  5
EAAE
  8
0
 10
3482.232298087097206
 20
208.6450550916923987
 30
0.0
 40
0.0109559254873459
 50
14.1271934637462202
 51
30.5998817460486414
  0
ARC
  5
EAAF
  8
0
 10
3482.2405885523289726
 20
208.6496990040820947
 30
0.0
 40
0.0014730013206495
 50
39.3058866204616777
 51
56.4758220684216923
  0
ARC
  5
EAB0
  8
0
 10
3482.2412409582589135
 20
208.6506124952882999
 30
0.0
 40
0.0003533503118235
 50
62.8728020073588496
 51
95.0844633958370764
  0
ARC
  5
EAB1
  8
0
 10
3482.2406684004558883
 20
208.6536291638934131
 30
0.0
 40
0.0027191203903723
 50
280.2923305485775813
 51
281.4814433852033062
  0
LINE
  5
EAB2
  8
0
 10
3482.2903704176478641
 20
208.6651058029914907
 30
0.0
 11
3482.2411542272911902
 21
208.650953797027114
 31
0.0
  0
LINE
  5
EAB3
  8
0
 10
3482.2484310956137961
 20
208.5685956509350945
 30
0.0
 11
3482.289832753301198
 21
208.5642133119972925
 31
0.0
  0
ARC
  5
EAB4
  8
0
 10
3482.3383068428870502
 20
208.5749468965967139
 30
0.0
 40
0.0729641497889476
 50
186.466027145557689
 51
198.423802947747987
  0
ARC
  5
EAB5
  8
0
 10
3482.2833099061281246
 20
208.55662647099129
 30
0.0
 40
0.0149960460838016
 50
198.4238029477463954
 51
226.9856413368941901
  0
ARC
  5
EAB6
  8
0
 10
3482.2756313235431662
 20
208.5491241672013132
 30
0.0
 40
0.0043010577840267
 50
233.6146373257840878
 51
269.4295002203741092
  0
ARC
  5
EAB7
  8
0
 10
3482.2718183339279676
 20
208.5579893015409993
 30
0.0
 40
0.013695150211992
 50
285.9794117272496123
 51
335.1949130685380851
  0
ARC
  5
EAB8
  8
0
 10
3482.2266428317811915
 20
208.5863994852707037
 30
0.0
 40
0.0669716188533802
 50
329.3359503133012822
 51
340.6565933607604961
  0
ARC
  5
EAB9
  8
0
 10
3482.1541997861600066
 20
208.6110742288913116
 30
0.0
 40
0.1435000469598193
 50
340.9414357788047027
 51
3.6425973248317258
  0
ARC
  5
EABA
  8
0
 10
3482.1696005726089425
 20
208.6231684595414038
 30
0.0
 40
0.1278440309374925
 50
358.6655383474197833
 51
24.410386505302899
  0
ARC
  5
EABB
  8
0
 10
3482.2644839282920657
 20
208.6666531051178026
 30
0.0
 40
0.0234759277150125
 50
23.2999504858688304
 51
55.6850453809118306
  0
ARC
  5
EABC
  8
0
 10
3482.2756958413929169
 20
208.6823203001031004
 30
0.0
 40
0.0042366661018933
 50
61.4864152762351424
 51
91.4518408609789049
  0
ARC
  5
EABD
  8
0
 10
3482.2777552267639294
 20
208.6781573874881985
 30
0.0
 40
0.0086732225030275
 50
104.466752007948898
 51
167.6195127393569066
  0
ARC
  5
EABE
  8
0
 10
3482.3573447584522
 20
208.6516306527065865
 30
0.0
 40
0.0925231452508242
 50
162.1333833548330006
 51
176.1567144611294111
  0
ARC
  5
EABF
  8
0
 10
3482.2429968506189653
 20
208.631069715718894
 30
0.0
 40
0.0002956057283896
 50
108.8345739902571978
 51
154.2256997040773001
  0
ARC
  5
EAC0
  8
0
 10
3482.2493538069029455
 20
208.6287243769895099
 30
0.0
 40
0.007070093599744
 50
159.5183652354027117
 51
178.1084359255347067
  0
ARC
  5
EAC1
  8
0
 10
3482.3560762485440137
 20
208.6240318189325933
 30
0.0
 40
0.113895254796273
 50
177.5212054231116099
 51
184.2922807924842914
  0
ARC
  5
EAC2
  8
0
 10
3482.4692424775689688
 20
208.6295080360276017
 30
0.0
 40
0.2271738707030154
 50
183.5333556313194947
 51
188.2095140645789968
  0
ARC
  5
EAC3
  8
0
 10
3482.3280637645680144
 20
208.609283987905286
 30
0.0
 40
0.0845541437486937
 50
188.306122359619792
 51
191.9836309276319923
  0
ARC
  5
EAC4
  8
0
 10
3482.2609716471138199
 20
208.5947325124878944
 30
0.0
 40
0.0159057150573008
 50
190.888965207993806
 51
202.5295340109636015
  0
ARC
  5
EAC5
  8
0
 10
3482.2476646390541646
 20
208.5893272993224912
 30
0.0
 40
0.0015468466856696
 50
206.4592308689022104
 51
219.6184843551197048
  0
ARC
  5
EAC6
  8
0
 10
3482.2467693549419891
 20
208.5885861692632091
 30
0.0
 40
0.0003846042810735
 50
219.6184843553282064
 51
255.8526898245536074
  0
ARC
  5
EAC7
  8
0
 10
3482.246704582133134
 20
208.5883291961386021
 30
0.0
 40
0.0001195935199029
 50
255.8526898255481967
 51
313.7119697459057761
  0
ARC
  5
EAC8
  8
0
 10
3482.2445606919282
 20
208.5897256380860085
 30
0.0
 40
0.0026751456253127
 50
326.3361053863782217
 51
356.6954619329114848
  0
ARC
  5
EAC9
  8
0
 10
3482.1933350754979983
 20
208.5948405907408869
 30
0.0
 40
0.0541532701490447
 50
354.4162405880325082
 51
2.1671067333021501
  0
ARC
  5
EACA
  8
0
 10
3482.0287299735191482
 20
208.5907902773541025
 30
0.0
 40
0.2188046341325249
 50
1.5970367718778919
 51
5.883417153993677
  0
ARC
  5
EACB
  8
0
 10
3482.1298889718541432
 20
208.6034036050386931
 30
0.0
 40
0.1169058467234006
 50
4.8160994132694714
 51
13.0969118777577709
  0
ARC
  5
EACC
  8
0
 10
3482.239588594361976
 20
208.6288225779202889
 30
0.0
 40
0.0043009650562455
 50
14.4295252443739592
 51
34.4052325635184673
  0
ARC
  5
EACD
  8
0
 10
3482.2428803159009476
 20
208.6310220422884072
 30
0.0
 40
0.0003452807750152
 50
41.9386508729085392
 51
70.9799902795805622
  0
ARC
  5
EACE
  8
0
 10
3482.2429452816381854
 20
208.6311834063992876
 30
0.0
 40
0.0001717812656379
 50
73.9266481064585719
 51
104.7940153649889936
  0
ARC
  5
EACF
  8
0
 10
3482.241084895406857
 20
208.8983113822887958
 30
0.0
 40
0.0005124261920512
 50
109.3892131125248994
 51
142.7409708768049086
  0
ARC
  5
EAD0
  8
0
 10
3482.2423785372429847
 20
208.8973273523970136
 30
0.0
 40
0.0021377950817654
 50
142.7409708768205121
 51
168.5613587444732957
  0
ARC
  5
EAD1
  8
0
 10
3482.2784773967978253
 20
208.8900232065593059
 30
0.0
 40
0.0389681929562239
 50
168.5613587444732957
 51
173.1541557751388041
  0
ARC
  5
EAD2
  8
0
 10
3482.4060935467650779
 20
208.8850309947931976
 30
0.0
 40
0.1665855111818985
 50
176.68352299087951
 51
183.2511305480009014
  0
ARC
  5
EAD3
  8
0
 10
3482.694307679393205
 20
208.8968744350167981
 30
0.0
 40
0.4550299086462237
 50
182.6818574601226999
 51
186.4567552882984103
  0
ARC
  5
EAD4
  8
0
 10
3482.4622996101211356
 20
208.8681331704432864
 30
0.0
 40
0.22127518790063
 50
185.8174604768435927
 51
192.2441012166578957
  0
ARC
  5
EAD5
  8
0
 10
3482.2942660514518138
 20
208.8347596416363956
 30
0.0
 40
0.0500773855711469
 50
195.7034467088255099
 51
200.2392311135228908
  0
ARC
  5
EAD6
  8
0
 10
3482.2492381486640625
 20
208.8181575855684002
 30
0.0
 40
0.0020863416655086
 50
200.2392311135747036
 51
233.5647941262141956
  0
ARC
  5
EAD7
  8
0
 10
3482.2481430261800597
 20
208.8166741068511101
 30
0.0
 40
0.0002424321343958
 50
233.5647941267667989
 51
298.2293325915924243
  0
ARC
  5
EAD8
  8
0
 10
3482.2478443310328657
 20
208.8172304868080005
 30
0.0
 40
0.0008739204143114
 50
298.2293325916535878
 51
340.8651296004684923
  0
ARC
  5
EAD9
  8
0
 10
3482.2321492406690595
 20
208.8226760988725061
 30
0.0
 40
0.0174868837943584
 50
340.8651296004684923
 51
4.5925511505340753
  0
ARC
  5
EADA
  8
0
 10
3481.9145229180608112
 20
208.8271250098792109
 30
0.0
 40
0.3350709314839681
 50
359.4786692068241791
 51
5.8404702777310042
  0
ARC
  5
EADB
  8
0
 10
3482.0012766612640007
 20
208.8416619037305111
 30
0.0
 40
0.247352419704253
 50
4.5354440059547327
 51
12.5881206711564797
  0
ARC
  5
EADC
  8
0
 10
3482.2320586383470982
 20
208.8928960410424054
 30
0.0
 40
0.0109559254873459
 50
14.1271934637462202
 51
30.5998817460486414
  0
ARC
  5
EADD
  8
0
 10
3482.2403491035788647
 20
208.8975399534321014
 30
0.0
 40
0.0014730013206495
 50
39.3058866204616777
 51
56.4758220684216923
  0
ARC
  5
EADE
  8
0
 10
3482.2410015095088056
 20
208.8984534446383066
 30
0.0
 40
0.0003533503118235
 50
62.8728020073588496
 51
95.0844633958370764
  0
ARC
  5
EADF
  8
0
 10
3482.240428951704871
 20
208.9014701132433913
 30
0.0
 40
0.0027191203903723
 50
280.2923305485775813
 51
281.4814433852033062
  0
LINE
  5
EAE0
  8
0
 10
3482.290130968898211
 20
208.9129467523414974
 30
0.0
 11
3482.2409147785410823
 21
208.8987947463770922
 31
0.0
  0
LINE
  5
EAE1
  8
0
 10
3482.2481916468650525
 20
208.8164366002851011
 30
0.0
 11
3482.2895933045501806
 21
208.8120542613472992
 31
0.0
  0
ARC
  5
EAE2
  8
0
 10
3482.3380673941369423
 20
208.8227878459468059
 30
0.0
 40
0.0729641497889476
 50
186.466027145557689
 51
198.423802947747987
  0
ARC
  5
EAE3
  8
0
 10
3482.2830704573780167
 20
208.8044674203412967
 30
0.0
 40
0.0149960460838016
 50
198.4238029477463954
 51
226.9856413368941901
  0
ARC
  5
EAE4
  8
0
 10
3482.2753918747930584
 20
208.7969651165512914
 30
0.0
 40
0.0043010577840267
 50
233.6146373257840878
 51
269.4295002203741092
  0
ARC
  5
EAE5
  8
0
 10
3482.2715788851769503
 20
208.805830250891006
 30
0.0
 40
0.013695150211992
 50
285.9794117272496123
 51
335.1949130685380851
  0
ARC
  5
EAE6
  8
0
 10
3482.2264033830319931
 20
208.8342404346207104
 30
0.0
 40
0.0669716188533802
 50
329.3359503133012822
 51
340.6565933607604961
  0
ARC
  5
EAE7
  8
0
 10
3482.1539603374098988
 20
208.8589151782412898
 30
0.0
 40
0.1435000469598193
 50
340.9414357788047027
 51
3.6425973248317258
  0
ARC
  5
EAE8
  8
0
 10
3482.1693611238588346
 20
208.8710094088914104
 30
0.0
 40
0.1278440309374925
 50
358.6655383474197833
 51
24.410386505302899
  0
ARC
  5
EAE9
  8
0
 10
3482.2642444795419578
 20
208.9144940544678093
 30
0.0
 40
0.0234759277150125
 50
23.2999504858688304
 51
55.6850453809118306
  0
ARC
  5
EAEA
  8
0
 10
3482.2754563926428091
 20
208.9301612494531071
 30
0.0
 40
0.0042366661018933
 50
61.4864152762351424
 51
91.4518408609789049
  0
ARC
  5
EAEB
  8
0
 10
3482.2775157780138215
 20
208.9259983368382052
 30
0.0
 40
0.0086732225030275
 50
104.466752007948898
 51
167.6195127393569066
  0
ARC
  5
EAEC
  8
0
 10
3482.3571053097030017
 20
208.8994716020565932
 30
0.0
 40
0.0925231452508242
 50
162.1333833548330006
 51
176.1567144611294111
  0
ARC
  5
EAED
  8
0
 10
3482.2427574018702217
 20
208.8789106650689007
 30
0.0
 40
0.0002956057283896
 50
108.8345739902571978
 51
154.2256997040773001
  0
ARC
  5
EAEE
  8
0
 10
3482.2491143581542019
 20
208.8765653263394881
 30
0.0
 40
0.007070093599744
 50
159.5183652354027117
 51
178.1084359255347067
  0
ARC
  5
EAEF
  8
0
 10
3482.3558367997929963
 20
208.8718727682826
 30
0.0
 40
0.113895254796273
 50
177.5212054231116099
 51
184.2922807924842914
  0
ARC
  5
EAF0
  8
0
 10
3482.4690030288188609
 20
208.8773489853776937
 30
0.0
 40
0.2271738707030154
 50
183.5333556313194947
 51
188.2095140645789968
  0
ARC
  5
EAF1
  8
0
 10
3482.3278243158179066
 20
208.8571249372552927
 30
0.0
 40
0.0845541437486937
 50
188.306122359619792
 51
191.9836309276319923
  0
ARC
  5
EAF2
  8
0
 10
3482.2607321983628026
 20
208.842573461837901
 30
0.0
 40
0.0159057150573008
 50
190.888965207993806
 51
202.5295340109636015
  0
ARC
  5
EAF3
  8
0
 10
3482.2474251903049662
 20
208.8371682486724978
 30
0.0
 40
0.0015468466856696
 50
206.4592308689022104
 51
219.6184843551197048
  0
ARC
  5
EAF4
  8
0
 10
3482.2465299061918813
 20
208.8364271186131873
 30
0.0
 40
0.0003846042810735
 50
219.6184843553282064
 51
255.8526898245536074
  0
ARC
  5
EAF5
  8
0
 10
3482.2464651333821166
 20
208.8361701454886088
 30
0.0
 40
0.0001195935199029
 50
255.8526898255481967
 51
313.7119697459057761
  0
ARC
  5
EAF6
  8
0
 10
3482.2443212431780921
 20
208.8375665874359868
 30
0.0
 40
0.0026751456253127
 50
326.3361053863782217
 51
356.6954619329114848
  0
ARC
  5
EAF7
  8
0
 10
3482.1930956267488
 20
208.8426815400908936
 30
0.0
 40
0.0541532701490447
 50
354.4162405880325082
 51
2.1671067333021501
  0
ARC
  5
EAF8
  8
0
 10
3482.0284905247690403
 20
208.8386312267041092
 30
0.0
 40
0.2188046341325249
 50
1.5970367718778919
 51
5.883417153993677
  0
ARC
  5
EAF9
  8
0
 10
3482.1296495231040353
 20
208.8512445543886997
 30
0.0
 40
0.1169058467234006
 50
4.8160994132694714
 51
13.0969118777577709
  0
ARC
  5
EAFA
  8
0
 10
3482.2393491456118682
 20
208.8766635272702956
 30
0.0
 40
0.0043009650562455
 50
14.4295252443739592
 51
34.4052325635184673
  0
ARC
  5
EAFB
  8
0
 10
3482.2426408671508398
 20
208.8788629916383002
 30
0.0
 40
0.0003452807750152
 50
41.9386508729085392
 51
70.9799902795805622
  0
ARC
  5
EAFC
  8
0
 10
3482.2427058328880776
 20
208.8790243557492943
 30
0.0
 40
0.0001717812656379
 50
73.9266481064585719
 51
104.7940153649889936
  0
ARC
  5
EAFD
  8
0
 10
3482.2413243441569648
 20
209.1522808318266868
 30
0.0
 40
0.0005124261920512
 50
109.3892131125248994
 51
142.7409708768049086
  0
ARC
  5
EAFE
  8
0
 10
3482.2426179859930926
 20
209.1512968019349046
 30
0.0
 40
0.0021377950817654
 50
142.7409708768205121
 51
168.5613587444732957
  0
ARC
  5
EAFF
  8
0
 10
3482.2787168455479332
 20
209.1439926560971969
 30
0.0
 40
0.0389681929562239
 50
168.5613587444732957
 51
173.1541557751388041
  0
ARC
  5
EB00
  8
0
 10
3482.4063329955151858
 20
209.1390004443310886
 30
0.0
 40
0.1665855111818985
 50
176.68352299087951
 51
183.2511305480009014
  0
ARC
  5
EB01
  8
0
 10
3482.6945471281442224
 20
209.1508438845548028
 30
0.0
 40
0.4550299086462237
 50
182.6818574601226999
 51
186.4567552882984103
  0
ARC
  5
EB02
  8
0
 10
3482.4625390588698792
 20
209.1221026199812059
 30
0.0
 40
0.22127518790063
 50
185.8174604768435927
 51
192.2441012166578957
  0
ARC
  5
EB03
  8
0
 10
3482.2945055002028312
 20
209.0887290911742866
 30
0.0
 40
0.0500773855711469
 50
195.7034467088255099
 51
200.2392311135228908
  0
ARC
  5
EB04
  8
0
 10
3482.2494775974141703
 20
209.0721270351064049
 30
0.0
 40
0.0020863416655086
 50
200.2392311135747036
 51
233.5647941262141956
  0
ARC
  5
EB05
  8
0
 10
3482.248382474931077
 20
209.0706435563890011
 30
0.0
 40
0.0002424321343958
 50
233.5647941267667989
 51
298.2293325915924243
  0
ARC
  5
EB06
  8
0
 10
3482.2480837797829736
 20
209.0711999363458915
 30
0.0
 40
0.0008739204143114
 50
298.2293325916535878
 51
340.8651296004684923
  0
ARC
  5
EB07
  8
0
 10
3482.2323886894200768
 20
209.0766455484103972
 30
0.0
 40
0.0174868837943584
 50
340.8651296004684923
 51
4.5925511505340753
  0
ARC
  5
EB08
  8
0
 10
3481.914762366810919
 20
209.0810944594171019
 30
0.0
 40
0.3350709314839681
 50
359.4786692068241791
 51
5.8404702777310042
  0
ARC
  5
EB09
  8
0
 10
3482.0015161100141086
 20
209.0956313532684021
 30
0.0
 40
0.247352419704253
 50
4.5354440059547327
 51
12.5881206711564797
  0
ARC
  5
EB0A
  8
0
 10
3482.232298087097206
 20
209.1468654905802964
 30
0.0
 40
0.0109559254873459
 50
14.1271934637462202
 51
30.5998817460486414
  0
ARC
  5
EB0B
  8
0
 10
3482.2405885523289726
 20
209.1515094029699924
 30
0.0
 40
0.0014730013206495
 50
39.3058866204616777
 51
56.4758220684216923
  0
ARC
  5
EB0C
  8
0
 10
3482.2412409582589135
 20
209.1524228941763113
 30
0.0
 40
0.0003533503118235
 50
62.8728020073588496
 51
95.0844633958370764
  0
ARC
  5
EB0D
  8
0
 10
3482.2406684004558883
 20
209.1554395627813108
 30
0.0
 40
0.0027191203903723
 50
280.2923305485775813
 51
281.4814433852033062
  0
LINE
  5
EB0E
  8
0
 10
3482.2903704176478641
 20
209.1669162018793884
 30
0.0
 11
3482.2411542272911902
 21
209.1527641959150969
 31
0.0
  0
LINE
  5
EB0F
  8
0
 10
3482.2484310956137961
 20
209.0704060498229921
 30
0.0
 11
3482.289832753301198
 21
209.0660237108851902
 31
0.0
  0
ARC
  5
EB10
  8
0
 10
3482.3383068428870502
 20
209.0767572954846969
 30
0.0
 40
0.0729641497889476
 50
186.466027145557689
 51
198.423802947747987
  0
ARC
  5
EB11
  8
0
 10
3482.2833099061281246
 20
209.0584368698793014
 30
0.0
 40
0.0149960460838016
 50
198.4238029477463954
 51
226.9856413368941901
  0
ARC
  5
EB12
  8
0
 10
3482.2756313235431662
 20
209.0509345660892109
 30
0.0
 40
0.0043010577840267
 50
233.6146373257840878
 51
269.4295002203741092
  0
ARC
  5
EB13
  8
0
 10
3482.2718183339279676
 20
209.059799700428897
 30
0.0
 40
0.013695150211992
 50
285.9794117272496123
 51
335.1949130685380851
  0
ARC
  5
EB14
  8
0
 10
3482.2266428317811915
 20
209.0882098841584877
 30
0.0
 40
0.0669716188533802
 50
329.3359503133012822
 51
340.6565933607604961
  0
ARC
  5
EB15
  8
0
 10
3482.1541997861600066
 20
209.1128846277792093
 30
0.0
 40
0.1435000469598193
 50
340.9414357788047027
 51
3.6425973248317258
  0
ARC
  5
EB16
  8
0
 10
3482.1696005726089425
 20
209.1249788584293015
 30
0.0
 40
0.1278440309374925
 50
358.6655383474197833
 51
24.410386505302899
  0
ARC
  5
EB17
  8
0
 10
3482.2644839282920657
 20
209.1684635040057003
 30
0.0
 40
0.0234759277150125
 50
23.2999504858688304
 51
55.6850453809118306
  0
ARC
  5
EB18
  8
0
 10
3482.2756958413929169
 20
209.1841306989909981
 30
0.0
 40
0.0042366661018933
 50
61.4864152762351424
 51
91.4518408609789049
  0
ARC
  5
EB19
  8
0
 10
3482.2777552267639294
 20
209.1799677863760962
 30
0.0
 40
0.0086732225030275
 50
104.466752007948898
 51
167.6195127393569066
  0
ARC
  5
EB1A
  8
0
 10
3482.3573447584522
 20
209.1534410515945126
 30
0.0
 40
0.0925231452508242
 50
162.1333833548330006
 51
176.1567144611294111
  0
ARC
  5
EB1B
  8
0
 10
3482.2429968506189653
 20
209.1328801146067917
 30
0.0
 40
0.0002956057283896
 50
108.8345739902571978
 51
154.2256997040773001
  0
ARC
  5
EB1C
  8
0
 10
3482.2493538069029455
 20
209.1305347758774076
 30
0.0
 40
0.007070093599744
 50
159.5183652354027117
 51
178.1084359255347067
  0
ARC
  5
EB1D
  8
0
 10
3482.3560762485440137
 20
209.1258422178206047
 30
0.0
 40
0.113895254796273
 50
177.5212054231116099
 51
184.2922807924842914
  0
ARC
  5
EB1E
  8
0
 10
3482.4692424775689688
 20
209.1313184349156131
 30
0.0
 40
0.2271738707030154
 50
183.5333556313194947
 51
188.2095140645789968
  0
ARC
  5
EB1F
  8
0
 10
3482.3280637645680144
 20
209.1110943867932122
 30
0.0
 40
0.0845541437486937
 50
188.306122359619792
 51
191.9836309276319923
  0
ARC
  5
EB20
  8
0
 10
3482.2609716471138199
 20
209.0965429113757921
 30
0.0
 40
0.0159057150573008
 50
190.888965207993806
 51
202.5295340109636015
  0
ARC
  5
EB21
  8
0
 10
3482.2476646390541646
 20
209.0911376982103889
 30
0.0
 40
0.0015468466856696
 50
206.4592308689022104
 51
219.6184843551197048
  0
ARC
  5
EB22
  8
0
 10
3482.2467693549419891
 20
209.0903965681511067
 30
0.0
 40
0.0003846042810735
 50
219.6184843553282064
 51
255.8526898245536074
  0
ARC
  5
EB23
  8
0
 10
3482.246704582133134
 20
209.0901395950266135
 30
0.0
 40
0.0001195935199029
 50
255.8526898255481967
 51
313.7119697459057761
  0
ARC
  5
EB24
  8
0
 10
3482.2445606919282
 20
209.0915360369739062
 30
0.0
 40
0.0026751456253127
 50
326.3361053863782217
 51
356.6954619329114848
  0
ARC
  5
EB25
  8
0
 10
3482.1933350754979983
 20
209.096650989628813
 30
0.0
 40
0.0541532701490447
 50
354.4162405880325082
 51
2.1671067333021501
  0
ARC
  5
EB26
  8
0
 10
3482.0287299735191482
 20
209.0926006762420002
 30
0.0
 40
0.2188046341325249
 50
1.5970367718778919
 51
5.883417153993677
  0
ARC
  5
EB27
  8
0
 10
3482.1298889718541432
 20
209.1052140039265907
 30
0.0
 40
0.1169058467234006
 50
4.8160994132694714
 51
13.0969118777577709
  0
ARC
  5
EB28
  8
0
 10
3482.239588594361976
 20
209.1306329768081866
 30
0.0
 40
0.0043009650562455
 50
14.4295252443739592
 51
34.4052325635184673
  0
ARC
  5
EB29
  8
0
 10
3482.2428803159009476
 20
209.1328324411763049
 30
0.0
 40
0.0003452807750152
 50
41.9386508729085392
 51
70.9799902795805622
  0
ARC
  5
EB2A
  8
0
 10
3482.2429452816381854
 20
209.1329938052872137
 30
0.0
 40
0.0001717812656379
 50
73.9266481064585719
 51
104.7940153649889936
  0
ARC
  5
EB2B
  8
0
 10
3482.2412289448079719
 20
209.4043026236888068
 30
0.0
 40
0.0005124261920512
 50
109.3892131125248994
 51
142.7409708768049086
  0
ARC
  5
EB2C
  8
0
 10
3482.2425225866440996
 20
209.4033185937969961
 30
0.0
 40
0.0021377950817654
 50
142.7409708768205121
 51
168.5613587444732957
  0
ARC
  5
EB2D
  8
0
 10
3482.2786214461980308
 20
209.3960144479592884
 30
0.0
 40
0.0389681929562239
 50
168.5613587444732957
 51
173.1541557751388041
  0
ARC
  5
EB2E
  8
0
 10
3482.4062375961648286
 20
209.3910222361932085
 30
0.0
 40
0.1665855111818985
 50
176.68352299087951
 51
183.2511305480009014
  0
ARC
  5
EB2F
  8
0
 10
3482.6944517287929557
 20
209.4028656764168943
 30
0.0
 40
0.4550299086462237
 50
182.6818574601226999
 51
186.4567552882984103
  0
ARC
  5
EB30
  8
0
 10
3482.4624436595199768
 20
209.3741244118432974
 30
0.0
 40
0.22127518790063
 50
185.8174604768435927
 51
192.2441012166578957
  0
ARC
  5
EB31
  8
0
 10
3482.2944101008520192
 20
209.3407508830364065
 30
0.0
 40
0.0500773855711469
 50
195.7034467088255099
 51
200.2392311135228908
  0
ARC
  5
EB32
  8
0
 10
3482.2493821980638131
 20
209.3241488269684965
 30
0.0
 40
0.0020863416655086
 50
200.2392311135747036
 51
233.5647941262141956
  0
ARC
  5
EB33
  8
0
 10
3482.2482870755811746
 20
209.3226653482510926
 30
0.0
 40
0.0002424321343958
 50
233.5647941267667989
 51
298.2293325915924243
  0
ARC
  5
EB34
  8
0
 10
3482.2479883804330711
 20
209.3232217282078977
 30
0.0
 40
0.0008739204143114
 50
298.2293325916535878
 51
340.8651296004684923
  0
ARC
  5
EB35
  8
0
 10
3482.2322932900701744
 20
209.3286673402724887
 30
0.0
 40
0.0174868837943584
 50
340.8651296004684923
 51
4.5925511505340753
  0
ARC
  5
EB36
  8
0
 10
3481.9146669674610166
 20
209.3331162512791934
 30
0.0
 40
0.3350709314839681
 50
359.4786692068241791
 51
5.8404702777310042
  0
ARC
  5
EB37
  8
0
 10
3482.0014207106642061
 20
209.3476531451304936
 30
0.0
 40
0.247352419704253
 50
4.5354440059547327
 51
12.5881206711564797
  0
ARC
  5
EB38
  8
0
 10
3482.2322026877468488
 20
209.3988872824423879
 30
0.0
 40
0.0109559254873459
 50
14.1271934637462202
 51
30.5998817460486414
  0
ARC
  5
EB39
  8
0
 10
3482.2404931529790701
 20
209.4035311948321123
 30
0.0
 40
0.0014730013206495
 50
39.3058866204616777
 51
56.4758220684216923
  0
ARC
  5
EB3A
  8
0
 10
3482.241145558909011
 20
209.4044446860382891
 30
0.0
 40
0.0003533503118235
 50
62.8728020073588496
 51
95.0844633958370764
  0
ARC
  5
EB3B
  8
0
 10
3482.2405730011059859
 20
209.4074613546434023
 30
0.0
 40
0.0027191203903723
 50
280.2923305485775813
 51
281.4814433852033062
  0
LINE
  5
EB3C
  8
0
 10
3482.2902750182988711
 20
209.4189379937415083
 30
0.0
 11
3482.2410588279399235
 21
209.4047859877771032
 31
0.0
  0
LINE
  5
EB3D
  8
0
 10
3482.2483356962638936
 20
209.3224278416851121
 30
0.0
 11
3482.2897373539499313
 21
209.3180455027473101
 31
0.0
  0
ARC
  5
EB3E
  8
0
 10
3482.3382114435371477
 20
209.3287790873467884
 30
0.0
 40
0.0729641497889476
 50
186.466027145557689
 51
198.423802947747987
  0
ARC
  5
EB3F
  8
0
 10
3482.2832145067791316
 20
209.3104586617413077
 30
0.0
 40
0.0149960460838016
 50
198.4238029477463954
 51
226.9856413368941901
  0
ARC
  5
EB40
  8
0
 10
3482.275535924192809
 20
209.3029563579513024
 30
0.0
 40
0.0043010577840267
 50
233.6146373257840878
 51
269.4295002203741092
  0
ARC
  5
EB41
  8
0
 10
3482.2717229345780652
 20
209.3118214922909885
 30
0.0
 40
0.013695150211992
 50
285.9794117272496123
 51
335.1949130685380851
  0
ARC
  5
EB42
  8
0
 10
3482.2265474324308343
 20
209.3402316760206077
 30
0.0
 40
0.0669716188533802
 50
329.3359503133012822
 51
340.6565933607604961
  0
ARC
  5
EB43
  8
0
 10
3482.1541043868101042
 20
209.3649064196413008
 30
0.0
 40
0.1435000469598193
 50
340.9414357788047027
 51
3.6425973248317258
  0
ARC
  5
EB44
  8
0
 10
3482.16950517325904
 20
209.377000650291393
 30
0.0
 40
0.1278440309374925
 50
358.6655383474197833
 51
24.410386505302899
  0
ARC
  5
EB45
  8
0
 10
3482.2643885289430727
 20
209.4204852958677918
 30
0.0
 40
0.0234759277150125
 50
23.2999504858688304
 51
55.6850453809118306
  0
ARC
  5
EB46
  8
0
 10
3482.275600442043924
 20
209.4361524908530896
 30
0.0
 40
0.0042366661018933
 50
61.4864152762351424
 51
91.4518408609789049
  0
ARC
  5
EB47
  8
0
 10
3482.2776598274149364
 20
209.4319895782381877
 30
0.0
 40
0.0086732225030275
 50
104.466752007948898
 51
167.6195127393569066
  0
ARC
  5
EB48
  8
0
 10
3482.3572493591032071
 20
209.4054628434566041
 30
0.0
 40
0.0925231452508242
 50
162.1333833548330006
 51
176.1567144611294111
  0
ARC
  5
EB49
  8
0
 10
3482.2429014512690628
 20
209.3849019064689116
 30
0.0
 40
0.0002956057283896
 50
108.8345739902571978
 51
154.2256997040773001
  0
ARC
  5
EB4A
  8
0
 10
3482.2492584075530431
 20
209.3825565677394991
 30
0.0
 40
0.007070093599744
 50
159.5183652354027117
 51
178.1084359255347067
  0
ARC
  5
EB4B
  8
0
 10
3482.3559808491941112
 20
209.3778640096826109
 30
0.0
 40
0.113895254796273
 50
177.5212054231116099
 51
184.2922807924842914
  0
ARC
  5
EB4C
  8
0
 10
3482.4691470782190663
 20
209.3833402267777046
 30
0.0
 40
0.2271738707030154
 50
183.5333556313194947
 51
188.2095140645789968
  0
ARC
  5
EB4D
  8
0
 10
3482.3279683652172025
 20
209.3631161786553037
 30
0.0
 40
0.0845541437486937
 50
188.306122359619792
 51
191.9836309276319923
  0
ARC
  5
EB4E
  8
0
 10
3482.260876247763008
 20
209.348564703237912
 30
0.0
 40
0.0159057150573008
 50
190.888965207993806
 51
202.5295340109636015
  0
ARC
  5
EB4F
  8
0
 10
3482.2475692397038074
 20
209.3431594900725088
 30
0.0
 40
0.0015468466856696
 50
206.4592308689022104
 51
219.6184843551197048
  0
ARC
  5
EB50
  8
0
 10
3482.2466739555920867
 20
209.3424183600131983
 30
0.0
 40
0.0003846042810735
 50
219.6184843553282064
 51
255.8526898245536074
  0
ARC
  5
EB51
  8
0
 10
3482.2466091827827768
 20
209.342161386888705
 30
0.0
 40
0.0001195935199029
 50
255.8526898255481967
 51
313.7119697459057761
  0
ARC
  5
EB52
  8
0
 10
3482.2444652925778428
 20
209.3435578288359125
 30
0.0
 40
0.0026751456253127
 50
326.3361053863782217
 51
356.6954619329114848
  0
ARC
  5
EB53
  8
0
 10
3482.1932396761490054
 20
209.3486727814909045
 30
0.0
 40
0.0541532701490447
 50
354.4162405880325082
 51
2.1671067333021501
  0
ARC
  5
EB54
  8
0
 10
3482.028634574168791
 20
209.3446224681040917
 30
0.0
 40
0.2188046341325249
 50
1.5970367718778919
 51
5.883417153993677
  0
ARC
  5
EB55
  8
0
 10
3482.129793572503786
 20
209.3572357957887107
 30
0.0
 40
0.1169058467234006
 50
4.8160994132694714
 51
13.0969118777577709
  0
ARC
  5
EB56
  8
0
 10
3482.2394931950120736
 20
209.3826547686703066
 30
0.0
 40
0.0043009650562455
 50
14.4295252443739592
 51
34.4052325635184673
  0
ARC
  5
EB57
  8
0
 10
3482.2427849165519547
 20
209.3848542330383964
 30
0.0
 40
0.0003452807750152
 50
41.9386508729085392
 51
70.9799902795805622
  0
ARC
  5
EB58
  8
0
 10
3482.2428498822878282
 20
209.3850155971493052
 30
0.0
 40
0.0001717812656379
 50
73.9266481064585719
 51
104.7940153649889936
  0
ARC
  5
EB59
  8
0
 10
3482.2415111633072229
 20
209.6645828816888013
 30
0.0
 40
0.0005124261920512
 50
109.3892131125248994
 51
142.7409708768049086
  0
ARC
  5
EB5A
  8
0
 10
3482.2428048051428959
 20
209.6635988517969906
 30
0.0
 40
0.0021377950817654
 50
142.7409708768205121
 51
168.5613587444732957
  0
ARC
  5
EB5B
  8
0
 10
3482.2789036646981913
 20
209.6562947059593114
 30
0.0
 40
0.0389681929562239
 50
168.5613587444732957
 51
173.1541557751388041
  0
ARC
  5
EB5C
  8
0
 10
3482.4065198146649891
 20
209.6513024941932031
 30
0.0
 40
0.1665855111818985
 50
176.68352299087951
 51
183.2511305480009014
  0
ARC
  5
EB5D
  8
0
 10
3482.6947339472931162
 20
209.6631459344168888
 30
0.0
 40
0.4550299086462237
 50
182.6818574601226999
 51
186.4567552882984103
  0
ARC
  5
EB5E
  8
0
 10
3482.4627258780210468
 20
209.6344046698432919
 30
0.0
 40
0.22127518790063
 50
185.8174604768435927
 51
192.2441012166578957
  0
ARC
  5
EB5F
  8
0
 10
3482.2946923193521798
 20
209.6010311410364011
 30
0.0
 40
0.0500773855711469
 50
195.7034467088255099
 51
200.2392311135228908
  0
ARC
  5
EB60
  8
0
 10
3482.2496644165639736
 20
209.5844290849684057
 30
0.0
 40
0.0020863416655086
 50
200.2392311135747036
 51
233.5647941262141956
  0
ARC
  5
EB61
  8
0
 10
3482.2485692940799709
 20
209.5829456062510872
 30
0.0
 40
0.0002424321343958
 50
233.5647941267667989
 51
298.2293325915924243
  0
ARC
  5
EB62
  8
0
 10
3482.2482705989327769
 20
209.583501986208006
 30
0.0
 40
0.0008739204143114
 50
298.2293325916535878
 51
340.8651296004684923
  0
ARC
  5
EB63
  8
0
 10
3482.2325755085689707
 20
209.588947598272398
 30
0.0
 40
0.0174868837943584
 50
340.8651296004684923
 51
4.5925511505340753
  0
ARC
  5
EB64
  8
0
 10
3481.9149491859611771
 20
209.593396509279188
 30
0.0
 40
0.3350709314839681
 50
359.4786692068241791
 51
5.8404702777310042
  0
ARC
  5
EB65
  8
0
 10
3482.0017029291639119
 20
209.6079334031304882
 30
0.0
 40
0.247352419704253
 50
4.5354440059547327
 51
12.5881206711564797
  0
ARC
  5
EB66
  8
0
 10
3482.2324849062470093
 20
209.6591675404424109
 30
0.0
 40
0.0109559254873459
 50
14.1271934637462202
 51
30.5998817460486414
  0
ARC
  5
EB67
  8
0
 10
3482.2407753714787759
 20
209.6638114528321069
 30
0.0
 40
0.0014730013206495
 50
39.3058866204616777
 51
56.4758220684216923
  0
ARC
  5
EB68
  8
0
 10
3482.241427777410081
 20
209.6647249440383121
 30
0.0
 40
0.0003533503118235
 50
62.8728020073588496
 51
95.0844633958370764
  0
ARC
  5
EB69
  8
0
 10
3482.2408552196047822
 20
209.6677416126433968
 30
0.0
 40
0.0027191203903723
 50
280.2923305485775813
 51
281.4814433852033062
  0
LINE
  5
EB6A
  8
0
 10
3482.2905572367981222
 20
209.6792182517415029
 30
0.0
 11
3482.2413410464409935
 21
209.6650662457772114
 31
0.0
  0
LINE
  5
EB6B
  8
0
 10
3482.2486179147649636
 20
209.5827080996851066
 30
0.0
 11
3482.2900195724500918
 21
209.5783257607473047
 31
0.0
  0
ARC
  5
EB6C
  8
0
 10
3482.338493662035944
 20
209.5890593453466977
 30
0.0
 40
0.0729641497889476
 50
186.466027145557689
 51
198.423802947747987
  0
ARC
  5
EB6D
  8
0
 10
3482.2834967252779279
 20
209.5707389197413022
 30
0.0
 40
0.0149960460838016
 50
198.4238029477463954
 51
226.9856413368941901
  0
ARC
  5
EB6E
  8
0
 10
3482.2758181426938791
 20
209.5632366159512969
 30
0.0
 40
0.0043010577840267
 50
233.6146373257840878
 51
269.4295002203741092
  0
ARC
  5
EB6F
  8
0
 10
3482.2720051530782257
 20
209.5721017502910115
 30
0.0
 40
0.013695150211992
 50
285.9794117272496123
 51
335.1949130685380851
  0
ARC
  5
EB70
  8
0
 10
3482.2268296509319043
 20
209.6005119340206022
 30
0.0
 40
0.0669716188533802
 50
329.3359503133012822
 51
340.6565933607604961
  0
ARC
  5
EB71
  8
0
 10
3482.15438660530981
 20
209.6251866776412953
 30
0.0
 40
0.1435000469598193
 50
340.9414357788047027
 51
3.6425973248317258
  0
ARC
  5
EB72
  8
0
 10
3482.16978739176011
 20
209.6372809082913875
 30
0.0
 40
0.1278440309374925
 50
358.6655383474197833
 51
24.410386505302899
  0
ARC
  5
EB73
  8
0
 10
3482.2646707474427785
 20
209.6807655538677864
 30
0.0
 40
0.0234759277150125
 50
23.2999504858688304
 51
55.6850453809118306
  0
ARC
  5
EB74
  8
0
 10
3482.275882660543175
 20
209.6964327488531126
 30
0.0
 40
0.0042366661018933
 50
61.4864152762351424
 51
91.4518408609789049
  0
ARC
  5
EB75
  8
0
 10
3482.277942045915097
 20
209.6922698362382107
 30
0.0
 40
0.0086732225030275
 50
104.466752007948898
 51
167.6195127393569066
  0
ARC
  5
EB76
  8
0
 10
3482.3575315776029129
 20
209.6657431014565987
 30
0.0
 40
0.0925231452508242
 50
162.1333833548330006
 51
176.1567144611294111
  0
ARC
  5
EB77
  8
0
 10
3482.2431836697701328
 20
209.6451821644689062
 30
0.0
 40
0.0002956057283896
 50
108.8345739902571978
 51
154.2256997040773001
  0
ARC
  5
EB78
  8
0
 10
3482.2495406260541131
 20
209.6428368257394936
 30
0.0
 40
0.007070093599744
 50
159.5183652354027117
 51
178.1084359255347067
  0
ARC
  5
EB79
  8
0
 10
3482.3562630676929075
 20
209.6381442676826055
 30
0.0
 40
0.113895254796273
 50
177.5212054231116099
 51
184.2922807924842914
  0
ARC
  5
EB7A
  8
0
 10
3482.4694292967192268
 20
209.6436204847776992
 30
0.0
 40
0.2271738707030154
 50
183.5333556313194947
 51
188.2095140645789968
  0
ARC
  5
EB7B
  8
0
 10
3482.3282505837178178
 20
209.6233964366552982
 30
0.0
 40
0.0845541437486937
 50
188.306122359619792
 51
191.9836309276319923
  0
ARC
  5
EB7C
  8
0
 10
3482.2611584662631685
 20
209.6088449612379065
 30
0.0
 40
0.0159057150573008
 50
190.888965207993806
 51
202.5295340109636015
  0
ARC
  5
EB7D
  8
0
 10
3482.2478514582039679
 20
209.6034397480725033
 30
0.0
 40
0.0015468466856696
 50
206.4592308689022104
 51
219.6184843551197048
  0
ARC
  5
EB7E
  8
0
 10
3482.2469561740917925
 20
209.6026986180131928
 30
0.0
 40
0.0003846042810735
 50
219.6184843553282064
 51
255.8526898245536074
  0
ARC
  5
EB7F
  8
0
 10
3482.2468914012820278
 20
209.6024416448886996
 30
0.0
 40
0.0001195935199029
 50
255.8526898255481967
 51
313.7119697459057761
  0
ARC
  5
EB80
  8
0
 10
3482.2447475110780033
 20
209.6038380868359923
 30
0.0
 40
0.0026751456253127
 50
326.3361053863782217
 51
356.6954619329114848
  0
ARC
  5
EB81
  8
0
 10
3482.1935218946491659
 20
209.6089530394908991
 30
0.0
 40
0.0541532701490447
 50
354.4162405880325082
 51
2.1671067333021501
  0
ARC
  5
EB82
  8
0
 10
3482.0289167926689515
 20
209.6049027261040862
 30
0.0
 40
0.2188046341325249
 50
1.5970367718778919
 51
5.883417153993677
  0
ARC
  5
EB83
  8
0
 10
3482.1300757910039465
 20
209.6175160537887052
 30
0.0
 40
0.1169058467234006
 50
4.8160994132694714
 51
13.0969118777577709
  0
ARC
  5
EB84
  8
0
 10
3482.2397754135117793
 20
209.6429350266701874
 30
0.0
 40
0.0043009650562455
 50
14.4295252443739592
 51
34.4052325635184673
  0
ARC
  5
EB85
  8
0
 10
3482.2430671350512057
 20
209.6451344910383057
 30
0.0
 40
0.0003452807750152
 50
41.9386508729085392
 51
70.9799902795805622
  0
ARC
  5
EB86
  8
0
 10
3482.2431321007879887
 20
209.6452958551492998
 30
0.0
 40
0.0001717812656379
 50
73.9266481064585719
 51
104.7940153649889936
  0
ARC
  5
EB87
  8
0
 10
3482.241084895406857
 20
209.9061853980387866
 30
0.0
 40
0.0005124261920512
 50
109.3892131125248994
 51
142.7409708768049086
  0
ARC
  5
EB88
  8
0
 10
3482.2423785372429847
 20
209.9052013681470044
 30
0.0
 40
0.0021377950817654
 50
142.7409708768205121
 51
168.5613587444732957
  0
ARC
  5
EB89
  8
0
 10
3482.2784773967978253
 20
209.8978972223092967
 30
0.0
 40
0.0389681929562239
 50
168.5613587444732957
 51
173.1541557751388041
  0
ARC
  5
EB8A
  8
0
 10
3482.4060935467650779
 20
209.8929050105431884
 30
0.0
 40
0.1665855111818985
 50
176.68352299087951
 51
183.2511305480009014
  0
ARC
  5
EB8B
  8
0
 10
3482.694307679393205
 20
209.9047484507667889
 30
0.0
 40
0.4550299086462237
 50
182.6818574601226999
 51
186.4567552882984103
  0
ARC
  5
EB8C
  8
0
 10
3482.4622996101211356
 20
209.876007186193192
 30
0.0
 40
0.22127518790063
 50
185.8174604768435927
 51
192.2441012166578957
  0
ARC
  5
EB8D
  8
0
 10
3482.2942660514518138
 20
209.8426336573863864
 30
0.0
 40
0.0500773855711469
 50
195.7034467088255099
 51
200.2392311135228908
  0
ARC
  5
EB8E
  8
0
 10
3482.2492381486640625
 20
209.826031601318391
 30
0.0
 40
0.0020863416655086
 50
200.2392311135747036
 51
233.5647941262141956
  0
ARC
  5
EB8F
  8
0
 10
3482.2481430261800597
 20
209.8245481226011009
 30
0.0
 40
0.0002424321343958
 50
233.5647941267667989
 51
298.2293325915924243
  0
ARC
  5
EB90
  8
0
 10
3482.2478443310328657
 20
209.8251045025579913
 30
0.0
 40
0.0008739204143114
 50
298.2293325916535878
 51
340.8651296004684923
  0
ARC
  5
EB91
  8
0
 10
3482.2321492406690595
 20
209.8305501146224969
 30
0.0
 40
0.0174868837943584
 50
340.8651296004684923
 51
4.5925511505340753
  0
ARC
  5
EB92
  8
0
 10
3481.9145229180608112
 20
209.8349990256292017
 30
0.0
 40
0.3350709314839681
 50
359.4786692068241791
 51
5.8404702777310042
  0
ARC
  5
EB93
  8
0
 10
3482.0012766612640007
 20
209.8495359194805019
 30
0.0
 40
0.247352419704253
 50
4.5354440059547327
 51
12.5881206711564797
  0
ARC
  5
EB94
  8
0
 10
3482.2320586383470982
 20
209.9007700567923962
 30
0.0
 40
0.0109559254873459
 50
14.1271934637462202
 51
30.5998817460486414
  0
ARC
  5
EB95
  8
0
 10
3482.2403491035788647
 20
209.9054139691820922
 30
0.0
 40
0.0014730013206495
 50
39.3058866204616777
 51
56.4758220684216923
  0
ARC
  5
EB96
  8
0
 10
3482.2410015095088056
 20
209.9063274603882974
 30
0.0
 40
0.0003533503118235
 50
62.8728020073588496
 51
95.0844633958370764
  0
ARC
  5
EB97
  8
0
 10
3482.240428951704871
 20
209.9093441289934105
 30
0.0
 40
0.0027191203903723
 50
280.2923305485775813
 51
281.4814433852033062
  0
LINE
  5
EB98
  8
0
 10
3482.290130968898211
 20
209.9208207680914882
 30
0.0
 11
3482.2409147785410823
 21
209.9066687621271967
 31
0.0
  0
LINE
  5
EB99
  8
0
 10
3482.2481916468650525
 20
209.8243106160350919
 30
0.0
 11
3482.2895933045501806
 21
209.81992827709729
 31
0.0
  0
ARC
  5
EB9A
  8
0
 10
3482.3380673941369423
 20
209.8306618616967114
 30
0.0
 40
0.0729641497889476
 50
186.466027145557689
 51
198.423802947747987
  0
ARC
  5
EB9B
  8
0
 10
3482.2830704573780167
 20
209.8123414360912875
 30
0.0
 40
0.0149960460838016
 50
198.4238029477463954
 51
226.9856413368941901
  0
ARC
  5
EB9C
  8
0
 10
3482.2753918747930584
 20
209.8048391323013107
 30
0.0
 40
0.0043010577840267
 50
233.6146373257840878
 51
269.4295002203741092
  0
ARC
  5
EB9D
  8
0
 10
3482.2715788851769503
 20
209.8137042666409968
 30
0.0
 40
0.013695150211992
 50
285.9794117272496123
 51
335.1949130685380851
  0
ARC
  5
EB9E
  8
0
 10
3482.2264033830319931
 20
209.8421144503705875
 30
0.0
 40
0.0669716188533802
 50
329.3359503133012822
 51
340.6565933607604961
  0
ARC
  5
EB9F
  8
0
 10
3482.1539603374098988
 20
209.866789193991309
 30
0.0
 40
0.1435000469598193
 50
340.9414357788047027
 51
3.6425973248317258
  0
ARC
  5
EBA0
  8
0
 10
3482.1693611238588346
 20
209.8788834246414012
 30
0.0
 40
0.1278440309374925
 50
358.6655383474197833
 51
24.410386505302899
  0
ARC
  5
EBA1
  8
0
 10
3482.2642444795419578
 20
209.9223680702178001
 30
0.0
 40
0.0234759277150125
 50
23.2999504858688304
 51
55.6850453809118306
  0
ARC
  5
EBA2
  8
0
 10
3482.2754563926428091
 20
209.9380352652030979
 30
0.0
 40
0.0042366661018933
 50
61.4864152762351424
 51
91.4518408609789049
  0
ARC
  5
EBA3
  8
0
 10
3482.2775157780138215
 20
209.933872352588196
 30
0.0
 40
0.0086732225030275
 50
104.466752007948898
 51
167.6195127393569066
  0
ARC
  5
EBA4
  8
0
 10
3482.3571053097030017
 20
209.9073456178066124
 30
0.0
 40
0.0925231452508242
 50
162.1333833548330006
 51
176.1567144611294111
  0
ARC
  5
EBA5
  8
0
 10
3482.2427574018702217
 20
209.8867846808190052
 30
0.0
 40
0.0002956057283896
 50
108.8345739902571978
 51
154.2256997040773001
  0
ARC
  5
EBA6
  8
0
 10
3482.2491143581542019
 20
209.8844393420895926
 30
0.0
 40
0.007070093599744
 50
159.5183652354027117
 51
178.1084359255347067
  0
ARC
  5
EBA7
  8
0
 10
3482.3558367997929963
 20
209.8797467840325908
 30
0.0
 40
0.113895254796273
 50
177.5212054231116099
 51
184.2922807924842914
  0
ARC
  5
EBA8
  8
0
 10
3482.4690030288188609
 20
209.8852230011277129
 30
0.0
 40
0.2271738707030154
 50
183.5333556313194947
 51
188.2095140645789968
  0
ARC
  5
EBA9
  8
0
 10
3482.3278243158179066
 20
209.8649989530053119
 30
0.0
 40
0.0845541437486937
 50
188.306122359619792
 51
191.9836309276319923
  0
ARC
  5
EBAA
  8
0
 10
3482.2607321983628026
 20
209.8504474775878919
 30
0.0
 40
0.0159057150573008
 50
190.888965207993806
 51
202.5295340109636015
  0
ARC
  5
EBAB
  8
0
 10
3482.2474251903049662
 20
209.8450422644224886
 30
0.0
 40
0.0015468466856696
 50
206.4592308689022104
 51
219.6184843551197048
  0
ARC
  5
EBAC
  8
0
 10
3482.2465299061918813
 20
209.8443011343632065
 30
0.0
 40
0.0003846042810735
 50
219.6184843553282064
 51
255.8526898245536074
  0
ARC
  5
EBAD
  8
0
 10
3482.2464651333821166
 20
209.8440441612387133
 30
0.0
 40
0.0001195935199029
 50
255.8526898255481967
 51
313.7119697459057761
  0
ARC
  5
EBAE
  8
0
 10
3482.2443212431780921
 20
209.8454406031858923
 30
0.0
 40
0.0026751456253127
 50
326.3361053863782217
 51
356.6954619329114848
  0
ARC
  5
EBAF
  8
0
 10
3482.1930956267488
 20
209.8505555558409128
 30
0.0
 40
0.0541532701490447
 50
354.4162405880325082
 51
2.1671067333021501
  0
ARC
  5
EBB0
  8
0
 10
3482.0284905247690403
 20
209.8465052424541
 30
0.0
 40
0.2188046341325249
 50
1.5970367718778919
 51
5.883417153993677
  0
ARC
  5
EBB1
  8
0
 10
3482.1296495231040353
 20
209.8591185701386905
 30
0.0
 40
0.1169058467234006
 50
4.8160994132694714
 51
13.0969118777577709
  0
ARC
  5
EBB2
  8
0
 10
3482.2393491456118682
 20
209.8845375430202864
 30
0.0
 40
0.0043009650562455
 50
14.4295252443739592
 51
34.4052325635184673
  0
ARC
  5
EBB3
  8
0
 10
3482.2426408671508398
 20
209.886737007388291
 30
0.0
 40
0.0003452807750152
 50
41.9386508729085392
 51
70.9799902795805622
  0
ARC
  5
EBB4
  8
0
 10
3482.2427058328880776
 20
209.8868983714993135
 30
0.0
 40
0.0001717812656379
 50
73.9266481064585719
 51
104.7940153649889936
  0
ARC
  5
EBB5
  8
0
 10
3482.2415071101581816
 20
210.1706021324388018
 30
0.0
 40
0.0005124261920512
 50
109.3892131125248994
 51
142.7409708768049086
  0
ARC
  5
EBB6
  8
0
 10
3482.2428007519929452
 20
210.1696181025469912
 30
0.0
 40
0.0021377950817654
 50
142.7409708768205121
 51
168.5613587444732957
  0
ARC
  5
EBB7
  8
0
 10
3482.27889961154915
 20
210.1623139567093119
 30
0.0
 40
0.0389681929562239
 50
168.5613587444732957
 51
173.1541557751388041
  0
ARC
  5
EBB8
  8
0
 10
3482.4065157615141288
 20
210.1573217449432036
 30
0.0
 40
0.1665855111818985
 50
176.68352299087951
 51
183.2511305480009014
  0
ARC
  5
EBB9
  8
0
 10
3482.6947298941440749
 20
210.1691651851668894
 30
0.0
 40
0.4550299086462237
 50
182.6818574601226999
 51
186.4567552882984103
  0
ARC
  5
EBBA
  8
0
 10
3482.4627218248701865
 20
210.1404239205932072
 30
0.0
 40
0.22127518790063
 50
185.8174604768435927
 51
192.2441012166578957
  0
ARC
  5
EBBB
  8
0
 10
3482.2946882662017742
 20
210.1070503917864016
 30
0.0
 40
0.0500773855711469
 50
195.7034467088255099
 51
200.2392311135228908
  0
ARC
  5
EBBC
  8
0
 10
3482.2496603634140229
 20
210.0904483357184063
 30
0.0
 40
0.0020863416655086
 50
200.2392311135747036
 51
233.5647941262141956
  0
ARC
  5
EBBD
  8
0
 10
3482.2485652409309296
 20
210.0889648570010877
 30
0.0
 40
0.0002424321343958
 50
233.5647941267667989
 51
298.2293325915924243
  0
ARC
  5
EBBE
  8
0
 10
3482.2482665457828261
 20
210.0895212369580065
 30
0.0
 40
0.0008739204143114
 50
298.2293325916535878
 51
340.8651296004684923
  0
ARC
  5
EBBF
  8
0
 10
3482.2325714554199294
 20
210.0949668490223985
 30
0.0
 40
0.0174868837943584
 50
340.8651296004684923
 51
4.5925511505340753
  0
ARC
  5
EBC0
  8
0
 10
3481.9149451328112264
 20
210.0994157600291885
 30
0.0
 40
0.3350709314839681
 50
359.4786692068241791
 51
5.8404702777310042
  0
ARC
  5
EBC1
  8
0
 10
3482.0016988760139611
 20
210.1139526538804887
 30
0.0
 40
0.247352419704253
 50
4.5354440059547327
 51
12.5881206711564797
  0
ARC
  5
EBC2
  8
0
 10
3482.2324808530979681
 20
210.1651867911924114
 30
0.0
 40
0.0109559254873459
 50
14.1271934637462202
 51
30.5998817460486414
  0
ARC
  5
EBC3
  8
0
 10
3482.2407713183279157
 20
210.1698307035821074
 30
0.0
 40
0.0014730013206495
 50
39.3058866204616777
 51
56.4758220684216923
  0
ARC
  5
EBC4
  8
0
 10
3482.2414237242592208
 20
210.1707441947883126
 30
0.0
 40
0.0003533503118235
 50
62.8728020073588496
 51
95.0844633958370764
  0
ARC
  5
EBC5
  8
0
 10
3482.2408511664548314
 20
210.1737608633933974
 30
0.0
 40
0.0027191203903723
 50
280.2923305485775813
 51
281.4814433852033062
  0
LINE
  5
EBC6
  8
0
 10
3482.2905531836481714
 20
210.1852375024915034
 30
0.0
 11
3482.2413369932910427
 21
210.1710854965272119
 31
0.0
  0
LINE
  5
EBC7
  8
0
 10
3482.2486138616150129
 20
210.0887273504351072
 30
0.0
 11
3482.290015519300141
 21
210.0843450114973052
 31
0.0
  0
ARC
  5
EBC8
  8
0
 10
3482.3384896088869027
 20
210.0950785960966982
 30
0.0
 40
0.0729641497889476
 50
186.466027145557689
 51
198.423802947747987
  0
ARC
  5
EBC9
  8
0
 10
3482.2834926721288866
 20
210.0767581704913027
 30
0.0
 40
0.0149960460838016
 50
198.4238029477463954
 51
226.9856413368941901
  0
ARC
  5
EBCA
  8
0
 10
3482.2758140895430188
 20
210.0692558667012975
 30
0.0
 40
0.0043010577840267
 50
233.6146373257840878
 51
269.4295002203741092
  0
ARC
  5
EBCB
  8
0
 10
3482.2720010999278202
 20
210.0781210010410121
 30
0.0
 40
0.013695150211992
 50
285.9794117272496123
 51
335.1949130685380851
  0
ARC
  5
EBCC
  8
0
 10
3482.2268255977810441
 20
210.1065311847706027
 30
0.0
 40
0.0669716188533802
 50
329.3359503133012822
 51
340.6565933607604961
  0
ARC
  5
EBCD
  8
0
 10
3482.1543825521598592
 20
210.1312059283912959
 30
0.0
 40
0.1435000469598193
 50
340.9414357788047027
 51
3.6425973248317258
  0
ARC
  5
EBCE
  8
0
 10
3482.1697833386101593
 20
210.143300159041388
 30
0.0
 40
0.1278440309374925
 50
358.6655383474197833
 51
24.410386505302899
  0
ARC
  5
EBCF
  8
0
 10
3482.2646666942919182
 20
210.1867848046177869
 30
0.0
 40
0.0234759277150125
 50
23.2999504858688304
 51
55.6850453809118306
  0
ARC
  5
EBD0
  8
0
 10
3482.2758786073932242
 20
210.2024519996031131
 30
0.0
 40
0.0042366661018933
 50
61.4864152762351424
 51
91.4518408609789049
  0
ARC
  5
EBD1
  8
0
 10
3482.2779379927651462
 20
210.1982890869882112
 30
0.0
 40
0.0086732225030275
 50
104.466752007948898
 51
167.6195127393569066
  0
ARC
  5
EBD2
  8
0
 10
3482.3575275244529621
 20
210.1717623522065992
 30
0.0
 40
0.0925231452508242
 50
162.1333833548330006
 51
176.1567144611294111
  0
ARC
  5
EBD3
  8
0
 10
3482.2431796166188178
 20
210.1512014152189067
 30
0.0
 40
0.0002956057283896
 50
108.8345739902571978
 51
154.2256997040773001
  0
ARC
  5
EBD4
  8
0
 10
3482.2495365729027981
 20
210.1488560764894942
 30
0.0
 40
0.007070093599744
 50
159.5183652354027117
 51
178.1084359255347067
  0
ARC
  5
EBD5
  8
0
 10
3482.3562590145438662
 20
210.144163518432606
 30
0.0
 40
0.113895254796273
 50
177.5212054231116099
 51
184.2922807924842914
  0
ARC
  5
EBD6
  8
0
 10
3482.4694252435688213
 20
210.1496397355276997
 30
0.0
 40
0.2271738707030154
 50
183.5333556313194947
 51
188.2095140645789968
  0
ARC
  5
EBD7
  8
0
 10
3482.328246530567867
 20
210.1294156874052987
 30
0.0
 40
0.0845541437486937
 50
188.306122359619792
 51
191.9836309276319923
  0
ARC
  5
EBD8
  8
0
 10
3482.2611544131141272
 20
210.1148642119879071
 30
0.0
 40
0.0159057150573008
 50
190.888965207993806
 51
202.5295340109636015
  0
ARC
  5
EBD9
  8
0
 10
3482.2478474050549266
 20
210.1094589988225039
 30
0.0
 40
0.0015468466856696
 50
206.4592308689022104
 51
219.6184843551197048
  0
ARC
  5
EBDA
  8
0
 10
3482.2469521209418417
 20
210.1087178687631933
 30
0.0
 40
0.0003846042810735
 50
219.6184843553282064
 51
255.8526898245536074
  0
ARC
  5
EBDB
  8
0
 10
3482.2468873481329865
 20
210.1084608956387001
 30
0.0
 40
0.0001195935199029
 50
255.8526898255481967
 51
313.7119697459057761
  0
ARC
  5
EBDC
  8
0
 10
3482.2447434579280525
 20
210.1098573375859928
 30
0.0
 40
0.0026751456253127
 50
326.3361053863782217
 51
356.6954619329114848
  0
ARC
  5
EBDD
  8
0
 10
3482.1935178414992151
 20
210.1149722902408996
 30
0.0
 40
0.0541532701490447
 50
354.4162405880325082
 51
2.1671067333021501
  0
ARC
  5
EBDE
  8
0
 10
3482.0289127395190008
 20
210.1109219768540868
 30
0.0
 40
0.2188046341325249
 50
1.5970367718778919
 51
5.883417153993677
  0
ARC
  5
EBDF
  8
0
 10
3482.1300717378539957
 20
210.1235353045387058
 30
0.0
 40
0.1169058467234006
 50
4.8160994132694714
 51
13.0969118777577709
  0
ARC
  5
EBE0
  8
0
 10
3482.2397713603618286
 20
210.148954277420188
 30
0.0
 40
0.0043009650562455
 50
14.4295252443739592
 51
34.4052325635184673
  0
ARC
  5
EBE1
  8
0
 10
3482.2430630819008002
 20
210.1511537417883062
 30
0.0
 40
0.0003452807750152
 50
41.9386508729085392
 51
70.9799902795805622
  0
ARC
  5
EBE2
  8
0
 10
3482.243128047638038
 20
210.1513151058993003
 30
0.0
 40
0.0001717812656379
 50
73.9266481064585719
 51
104.7940153649889936
  0
ARC
  5
EBE3
  8
0
 10
3482.4538375475399334
 20
210.0812527414987017
 30
0.0
 40
0.1932680997071298
 50
178.1620652409212084
 51
188.7737810643359921
  0
ARC
  5
EBE4
  8
0
 10
3481.7286514534780508
 20
210.0014067511507108
 30
0.0
 40
0.5365487397910628
 50
352.4774156747135976
 51
5.3863150867148581
  0
LINE
  5
EBE5
  8
0
 10
3482.2605822978680408
 20
209.9311634101283914
 30
0.0
 11
3482.2610851143331274
 21
209.9124686972778022
 31
0.0
  0
LINE
  5
EBE6
  8
0
 10
3482.2605651926910468
 20
209.823000884137798
 30
0.0
 11
3482.2607248241902198
 21
209.8191876216270941
 31
0.0
  0
ARC
  5
EBE7
  8
0
 10
3481.729455651338867
 20
209.7495356928741046
 30
0.0
 40
0.5358155701371272
 50
352.4421070624733261
 51
7.4691506434460031
  0
LINE
  5
EBE8
  8
0
 10
3482.2606163069399372
 20
209.6790609942771937
 30
0.0
 11
3482.2602447262038368
 21
209.6705019568069019
 31
0.0
  0
LINE
  5
EBE9
  8
0
 10
3482.2605768970188365
 20
209.5814422490761899
 30
0.0
 11
3482.2605822968130269
 21
209.5679320699609889
 31
0.0
  0
ARC
  5
EBEA
  8
0
 10
3481.7324161372521303
 20
209.4976508643825923
 30
0.0
 40
0.5328216774526373
 50
352.5209382943618834
 51
7.579619687348023
  0
LINE
  5
EBEB
  8
0
 10
3482.2607048315908287
 20
209.4282967340272137
 30
0.0
 11
3482.2607290331739023
 21
209.4104408646726938
 31
0.0
  0
LINE
  5
EBEC
  8
0
 10
3482.2605651926910468
 20
209.3211333573244985
 30
0.0
 11
3482.2605651876469892
 21
209.3164769055375132
 31
0.0
  0
ARC
  5
EBED
  8
0
 10
3481.7212107103641756
 20
209.245610724602102
 30
0.0
 40
0.543990135724207
 50
352.5147470201657143
 51
7.4852571026179451
  0
LINE
  5
EBEE
  8
0
 10
3482.2605651927460713
 20
209.1747445824765919
 30
0.0
 11
3482.2608397678909569
 21
209.1584247292875887
 31
0.0
  0
LINE
  5
EBEF
  8
0
 10
3482.2605651926910468
 20
209.0691216634224929
 30
0.0
 11
3482.2605651927469808
 21
209.0645083615872011
 31
0.0
  0
ARC
  5
EBF0
  8
0
 10
3481.7333144184058256
 20
208.9939086416565033
 30
0.0
 40
0.5319564827103588
 50
352.4875476026193724
 51
7.6266312930723483
  0
LINE
  5
EBF1
  8
0
 10
3482.2607048366899107
 20
208.9243597653270967
 30
0.0
 11
3482.2607444195409698
 21
208.9044967154989934
 31
0.0
  0
LINE
  5
EBF2
  8
0
 10
3482.2605651926910468
 20
208.8151268683878072
 30
0.0
 11
3482.2606327773601151
 21
208.8115154602311918
 31
0.0
  0
ARC
  5
EBF3
  8
0
 10
3481.7332020555700183
 20
208.7414114697479874
 30
0.0
 40
0.5320692960223611
 50
352.390494614784302
 51
7.5711492388030557
  0
LINE
  5
EBF4
  8
0
 10
3482.2605857286907849
 20
208.6709544112271999
 30
0.0
 11
3482.2605327450041841
 21
208.6565260466518907
 31
0.0
  0
LINE
  5
EBF5
  8
0
 10
3482.2605651926910468
 20
208.5673112645345952
 30
0.0
 11
3482.2605651876469892
 21
208.5605713937374901
 31
0.0
  0
ARC
  5
EBF6
  8
0
 10
3481.7251586853271874
 20
208.4899557101890935
 30
0.0
 40
0.5400420590988838
 50
352.5425264318020027
 51
7.5125112255031281
  0
LINE
  5
EBF7
  8
0
 10
3482.2606327815160512
 20
208.4198635001654054
 30
0.0
 11
3482.2605651926910468
 21
208.4086821743615019
 31
0.0
  0
LINE
  5
EBF8
  8
0
 10
3482.2605308905199308
 20
208.3195172048210964
 30
0.0
 11
3482.2605822968130269
 21
208.3080895502608882
 31
0.0
  0
ARC
  5
EBF9
  8
0
 10
3481.7285183908297768
 20
208.2378049245901934
 30
0.0
 40
0.5366860615444918
 50
352.5754717710735804
 51
7.5250941423792046
  0
LINE
  5
EBFA
  8
0
 10
3482.2607048411900905
 20
208.1684542886272027
 30
0.0
 11
3482.260667038101019
 21
208.1546735436124891
 31
0.0
  0
LINE
  5
EBFB
  8
0
 10
3482.2605651926910468
 20
208.0654576756446943
 30
0.0
 11
3482.2605651882290658
 21
208.0566343813748915
 31
0.0
  0
ARC
  5
EBFC
  8
0
 10
3481.7260349023199524
 20
207.9860236428031897
 30
0.0
 40
0.5391739078948996
 50
352.5299208380970981
 51
7.5251266772104533
  0
LINE
  5
EBFD
  8
0
 10
3482.2606327815160512
 20
207.9159264922656973
 30
0.0
 11
3482.2606494290121191
 21
207.8986081978993923
 31
0.0
  0
LINE
  5
EBFE
  8
0
 10
3482.2605651926910468
 20
207.8093223337245092
 30
0.0
 11
3482.2605822968130269
 21
207.8041525423608959
 31
0.0
  0
ARC
  5
EBFF
  8
0
 10
3481.724597013193943
 20
207.7336079669290996
 30
0.0
 40
0.5406077703654564
 50
352.4881411285699073
 51
7.4979798019803239
  0
LINE
  5
EC00
  8
0
 10
3482.2605651926910468
 20
207.6629335589271079
 30
0.0
 11
3482.261338115963099
 21
207.6468377242993029
 31
0.0
  0
LINE
  5
EC01
  8
0
 10
3482.2605651926910468
 20
207.5573538297244909
 30
0.0
 11
3482.2605822968130269
 21
207.5521840384608083
 31
0.0
  0
ARC
  5
EC02
  8
0
 10
3481.7246792380301486
 20
207.4816394530201933
 30
0.0
 40
0.5405262500084432
 50
352.4870027370042749
 51
7.4991181935471261
  0
LINE
  5
EC03
  8
0
 10
3482.2605651926910468
 20
207.4109650549270896
 30
0.0
 11
3482.260514464420794
 21
207.3966782704112859
 31
0.0
  0
LINE
  5
EC04
  8
0
 10
3482.2632196676968306
 20
207.5279301925125992
 30
0.0
 11
3482.2254662348900638
 21
207.5171069617271939
 31
0.0
  0
LINE
  5
EC05
  8
0
 10
3482.2254662348900638
 20
207.5171069617271939
 30
0.0
 11
3482.2326720245901015
 21
207.4347444080271998
 31
0.0
  0
LINE
  5
EC06
  8
0
 10
3482.2326720245901015
 20
207.4347444080271998
 30
0.0
 11
3482.262881508916962
 21
207.4315700755489047
 31
0.0
  0
LINE
  5
EC07
  8
0
 10
3482.2631543997199515
 20
207.7806473419036877
 30
0.0
 11
3482.225538606407099
 21
207.7698635698876046
 31
0.0
  0
LINE
  5
EC08
  8
0
 10
3482.225538606407099
 20
207.7698635698876046
 30
0.0
 11
3482.2327443961071367
 21
207.6875010161876105
 31
0.0
  0
LINE
  5
EC09
  8
0
 10
3482.2327443961071367
 20
207.6875010161876105
 30
0.0
 11
3482.2629538804330878
 21
207.684326683709287
 31
0.0
  0
LINE
  5
EC0A
  8
0
 10
3482.2631254233310756
 20
208.0333763111046892
 30
0.0
 11
3482.2255667795188856
 21
208.0226089228237925
 31
0.0
  0
LINE
  5
EC0B
  8
0
 10
3482.2255667795188856
 20
208.0226089228237925
 30
0.0
 11
3482.2327725692189233
 21
207.9402463691237983
 31
0.0
  0
LINE
  5
EC0C
  8
0
 10
3482.2327725692189233
 20
207.9402463691237983
 30
0.0
 11
3482.2629820535457839
 21
207.9370720366455885
 31
0.0
  0
LINE
  5
EC0D
  8
0
 10
3482.2630314499360793
 20
208.2860513576304982
 30
0.0
 11
3482.2256374054918524
 21
208.2753311570305073
 31
0.0
  0
LINE
  5
EC0E
  8
0
 10
3482.2256374054918524
 20
208.2753311570305073
 30
0.0
 11
3482.2328431951918901
 21
208.1929686033303994
 31
0.0
  0
LINE
  5
EC0F
  8
0
 10
3482.2328431951918901
 20
208.1929686033303994
 30
0.0
 11
3482.2630526795192054
 21
208.1897942708521896
 31
0.0
  0
LINE
  5
EC10
  8
0
 10
3482.2629939357429976
 20
208.538727310589195
 30
0.0
 11
3482.2256961739608414
 21
208.5280347124983962
 31
0.0
  0
LINE
  5
EC11
  8
0
 10
3482.2256961739608414
 20
208.5280347124983962
 30
0.0
 11
3482.2329019636608791
 21
208.4456721587982884
 31
0.0
  0
LINE
  5
EC12
  8
0
 10
3482.2329019636608791
 20
208.4456721587982884
 30
0.0
 11
3482.2631114479881944
 21
208.4424978263201069
 31
0.0
  0
LINE
  5
EC13
  8
0
 10
3482.2630517431148292
 20
208.7899608711678923
 30
0.0
 11
3482.2257143830138375
 21
208.7792569209503029
 31
0.0
  0
LINE
  5
EC14
  8
0
 10
3482.2257143830138375
 20
208.7792569209503029
 30
0.0
 11
3482.2329201727129657
 21
208.6968943672503087
 31
0.0
  0
LINE
  5
EC15
  8
0
 10
3482.2329201727129657
 20
208.6968943672503087
 30
0.0
 11
3482.2631296570398263
 21
208.6937200347720989
 31
0.0
  0
LINE
  5
EC16
  8
0
 10
3482.2631600350478038
 20
209.0412512442657089
 30
0.0
 11
3482.2255974970908028
 21
209.030482739603201
 31
0.0
  0
LINE
  5
EC17
  8
0
 10
3482.2255974970908028
 20
209.030482739603201
 30
0.0
 11
3482.2328032867908405
 21
208.9481201859032069
 31
0.0
  0
LINE
  5
EC18
  8
0
 10
3482.2328032867908405
 20
208.9481201859032069
 30
0.0
 11
3482.2630127711181558
 21
208.944945853424997
 31
0.0
  0
LINE
  5
EC19
  8
0
 10
3482.2630574705549407
 20
209.2938534052547084
 30
0.0
 11
3482.2256624473511692
 21
209.283132924061988
 31
0.0
  0
LINE
  5
EC1A
  8
0
 10
3482.2256624473511692
 20
209.283132924061988
 30
0.0
 11
3482.232868237051207
 21
209.2007703703619939
 31
0.0
  0
LINE
  5
EC1B
  8
0
 10
3482.232868237051207
 20
209.2007703703619939
 30
0.0
 11
3482.263077721377158
 21
209.1975960378838124
 31
0.0
  0
LINE
  5
EC1C
  8
0
 10
3482.2629983777828784
 20
209.546450720912901
 30
0.0
 11
3482.22570752249203
 21
209.5357601027891121
 31
0.0
  0
LINE
  5
EC1D
  8
0
 10
3482.22570752249203
 20
209.5357601027891121
 30
0.0
 11
3482.2329133121920677
 21
209.4533975490890896
 31
0.0
  0
LINE
  5
EC1E
  8
0
 10
3482.2329133121920677
 20
209.4533975490890896
 30
0.0
 11
3482.2631227965180187
 21
209.4502232166109081
 31
0.0
  0
LINE
  5
EC1F
  8
0
 10
3482.2629820867941817
 20
209.7990116251162078
 30
0.0
 11
3482.2258155614381394
 21
209.788356650150206
 31
0.0
  0
LINE
  5
EC20
  8
0
 10
3482.2258155614381394
 20
209.788356650150206
 30
0.0
 11
3482.2330213511381771
 21
209.7059940964502118
 31
0.0
  0
LINE
  5
EC21
  8
0
 10
3482.2330213511381771
 20
209.7059940964502118
 30
0.0
 11
3482.2632157501589063
 21
209.7026477188385911
 31
0.0
  0
LINE
  5
EC22
  8
0
 10
3482.2628493221491226
 20
210.0515783295471124
 30
0.0
 11
3482.2257930936020784
 21
210.0409549746945004
 31
0.0
  0
LINE
  5
EC23
  8
0
 10
3482.2257930936020784
 20
210.0409549746945004
 30
0.0
 11
3482.2329988833021162
 21
209.9585924209945063
 31
0.0
  0
LINE
  5
EC24
  8
0
 10
3482.2329988833021162
 20
209.9585924209945063
 30
0.0
 11
3482.2632255150929268
 21
209.9554162867061962
 31
0.0
  0
ARC
  5
EC25
  8
0
 10
3482.2960269428658648
 20
210.4211158527450891
 30
0.0
 40
0.009561719798291
 50
94.451573042963517
 51
145.2421073197413932
  0
ARC
  5
EC26
  8
0
 10
3482.3183337798282082
 20
210.4056364972259132
 30
0.0
 40
0.0367132468744005
 50
145.2421073197413932
 51
158.4548422864145891
  0
ARC
  5
EC27
  8
0
 10
3482.3730085568290633
 20
210.3913856359031911
 30
0.0
 40
0.0930517265978039
 50
162.6600212367870881
 51
185.2892275018463124
  0
ARC
  5
EC28
  8
0
 10
3482.3463537512798212
 20
210.3861454209670114
 30
0.0
 40
0.0660850475162893
 50
182.8949392079489087
 51
203.2105700473898082
  0
ARC
  5
EC29
  8
0
 10
3482.3005815458350298
 20
210.3665622386808991
 30
0.0
 40
0.0162996184786249
 50
203.3553233172895034
 51
237.0344886660033978
  0
ARC
  5
EC2A
  8
0
 10
3482.296021317920804
 20
210.3616356226860091
 30
0.0
 40
0.0097523036450049
 50
243.7787091801853023
 51
265.6527936399457985
  0
ARC
  5
EC2B
  8
0
 10
3482.2952601957231309
 20
210.3608079460751981
 30
0.0
 40
0.0088965967898859
 50
270.1410066203573024
 51
300.861231637548201
  0
ARC
  5
EC2C
  8
0
 10
3482.284551377572825
 20
210.3747015913970984
 30
0.0
 40
0.0263972207104709
 50
305.3494446179083752
 51
334.7495289289174139
  0
ARC
  5
EC2D
  8
0
 10
3482.2529948601159049
 20
210.3895849284130009
 30
0.0
 40
0.0612874416144493
 50
334.7495289289174139
 51
356.1670940891544888
  0
ARC
  5
EC2E
  8
0
 10
3482.2485483915229452
 20
210.3915711658835903
 30
0.0
 40
0.0658782797755205
 50
354.7018340798168765
 51
25.0032486448025715
  0
ARC
  5
EC2F
  8
0
 10
3482.2879202842350423
 20
210.4105590466884905
 30
0.0
 40
0.0221778212734587
 50
23.5379886354574595
 51
61.0087858237692373
  0
ARC
  5
EC30
  8
0
 10
3482.2953449427791384
 20
210.4223076537373913
 30
0.0
 40
0.0083412907436076
 50
66.5126867483109834
 51
90.4131479241476796
  0
LINE
  5
EC31
  8
0
 10
3482.332991252991178
 20
210.4700201730271942
 30
0.0
 11
3482.2748100077910749
 21
210.4700201730271942
 31
0.0
  0
ARC
  5
EC32
  8
0
 10
3482.2750835568449475
 20
210.4666679911339884
 30
0.0
 40
0.0033633246245179
 50
94.6651868342396057
 51
145.3571495369226909
  0
ARC
  5
EC33
  8
0
 10
3482.2831528641718251
 20
210.4605500196348942
 30
0.0
 40
0.0134872380076465
 50
143.4610534831604127
 51
163.2030583501509966
  0
ARC
  5
EC34
  8
0
 10
3482.3187037168859206
 20
210.4498186549708123
 30
0.0
 40
0.0506224681300181
 50
163.2030583501525882
 51
170.2233269084233029
  0
ARC
  5
EC35
  8
0
 10
3482.3335257364619792
 20
210.4472646617525982
 30
0.0
 40
0.0656629184444289
 50
170.2233269084248946
 51
182.5122451437732991
  0
ARC
  5
EC36
  8
0
 10
3503.8720349644218004
 20
210.429917417980306
 30
0.0
 40
21.6041138814508891
 50
179.9616269648604998
 51
180.1151213940327125
  0
ARC
  5
EC37
  8
0
 10
3482.5241068242921756
 20
210.390018470003497
 30
0.0
 40
0.2561661675702525
 50
180.7848772437706089
 51
186.8680845956241114
  0
ARC
  5
EC38
  8
0
 10
3482.3714653995839399
 20
210.3683522992654957
 30
0.0
 40
0.1020811378721967
 50
185.0395545826237935
 51
205.9252051481589092
  0
ARC
  5
EC39
  8
0
 10
3482.3015655216559026
 20
210.335375703424404
 30
0.0
 40
0.0248147125501852
 50
208.0084150222446908
 51
236.7696715781320052
  0
ARC
  5
EC3A
  8
0
 10
3482.2954129465338156
 20
210.3269074613500038
 30
0.0
 40
0.0143685028688232
 50
238.7871069185223121
 51
273.2245873381535262
  0
ARC
  5
EC3B
  8
0
 10
3482.2950280988129634
 20
210.3308641998372082
 30
0.0
 40
0.0183413369436811
 50
273.7296347144334732
 51
293.3788009998676216
  0
ARC
  5
EC3C
  8
0
 10
3482.2828742521051026
 20
210.3528450113392125
 30
0.0
 40
0.0434085897813619
 50
296.5929897629281982
 51
326.7482863316719772
  0
ARC
  5
EC3D
  8
0
 10
3482.2287408941069771
 20
210.3890192950379117
 30
0.0
 40
0.1085151921145463
 50
326.4477741066575049
 51
357.935181772411795
  0
ARC
  5
EC3E
  8
0
 10
3482.217598633569196
 20
210.3914323453774102
 30
0.0
 40
0.1197540304063521
 50
356.9734481663505221
 51
20.3025645036961784
  0
ARC
  5
EC3F
  8
0
 10
3482.2653080902191505
 20
210.4129415802595133
 30
0.0
 40
0.0676422484905935
 50
17.2358059341110383
 51
45.1901768496473224
  0
ARC
  5
EC40
  8
0
 10
3482.289738157714055
 20
210.4375343656024882
 30
0.0
 40
0.032977665863297
 50
45.1901768496461713
 51
80.0919313475503003
  0
ARC
  5
EC41
  8
0
 10
3482.3046811477238407
 20
210.467404574726288
 30
0.0
 40
0.0262241018192581
 50
139.4928347761349983
 51
174.2568582565818076
  0
ARC
  5
EC42
  8
0
 10
3482.2876612361951629
 20
210.4819446338890998
 30
0.0
 40
0.0038390463375749
 50
84.8536763325117676
 51
139.4928347761349983
  0
LINE
  5
EC43
  8
0
 10
3482.2880055969899331
 20
210.4857682045270906
 30
0.0
 11
3482.309779432391224
 21
210.4857682045270906
 31
0.0
  0
ARC
  5
EC44
  8
0
 10
3482.3064298528461222
 20
210.449477237012502
 30
0.0
 40
0.0364452192511934
 50
43.8622986133408617
 51
84.7266612162913049
  0
ARC
  5
EC45
  8
0
 10
3482.2463317092001489
 20
210.3924750992877932
 30
0.0
 40
0.119276010115377
 50
355.494804035585787
 51
43.6006410350025178
  0
ARC
  5
EC46
  8
0
 10
3482.2532246700188807
 20
210.3871030451751096
 30
0.0
 40
0.1120858021574906
 50
313.4567817655137105
 51
357.9563800758203911
  0
ARC
  5
EC47
  8
0
 10
3482.3051352398510971
 20
210.3341015538433965
 30
0.0
 40
0.0379200055307865
 50
283.0071743061707821
 51
311.9917200579138239
  0
ARC
  5
EC48
  8
0
 10
3482.3098848809117953
 20
210.315940604321213
 30
0.0
 40
0.0191636316753109
 50
244.7261857047325861
 51
281.3917593390722232
  0
ARC
  5
EC49
  8
0
 10
3482.3176651257408594
 20
210.3262058473951015
 30
0.0
 40
0.0318785667005073
 50
201.3136702341244018
 51
239.9527305474493915
  0
LINE
  5
EC4A
  8
0
 10
3482.2841857454900492
 20
210.419118865226892
 30
0.0
 11
3482.3082565564977813
 21
210.4194540460991902
 31
0.0
  0
ARC
  5
EC4B
  8
0
 10
3482.2960269428658648
 20
210.8686322670789082
 30
0.0
 40
0.009561719798291
 50
94.451573042963517
 51
145.2421073197413932
  0
ARC
  5
EC4C
  8
0
 10
3482.3183337798282082
 20
210.8531529115595902
 30
0.0
 40
0.0367132468744005
 50
145.2421073197413932
 51
158.4548422864145891
  0
ARC
  5
EC4D
  8
0
 10
3482.3730085568290633
 20
210.8389020502368965
 30
0.0
 40
0.0930517265978039
 50
162.6600212367870881
 51
185.2892275018463124
  0
ARC
  5
EC4E
  8
0
 10
3482.3463537512798212
 20
210.8336618353006884
 30
0.0
 40
0.0660850475162893
 50
182.8949392079489087
 51
203.2105700473898082
  0
ARC
  5
EC4F
  8
0
 10
3482.3005815458350298
 20
210.8140786530146045
 30
0.0
 40
0.0162996184786249
 50
203.3553233172895034
 51
237.0344886660033978
  0
ARC
  5
EC50
  8
0
 10
3482.296021317920804
 20
210.8091520370196861
 30
0.0
 40
0.0097523036450049
 50
243.7787091801853023
 51
265.6527936399457985
  0
ARC
  5
EC51
  8
0
 10
3482.2952601957231309
 20
210.8083243604089034
 30
0.0
 40
0.0088965967898859
 50
270.1410066203573024
 51
300.861231637548201
  0
ARC
  5
EC52
  8
0
 10
3482.284551377572825
 20
210.8222180057308037
 30
0.0
 40
0.0263972207104709
 50
305.3494446179083752
 51
334.7495289289174139
  0
ARC
  5
EC53
  8
0
 10
3482.2529948601159049
 20
210.8371013427467915
 30
0.0
 40
0.0612874416144493
 50
334.7495289289174139
 51
356.1670940891544888
  0
ARC
  5
EC54
  8
0
 10
3482.2485483915229452
 20
210.8390875802174094
 30
0.0
 40
0.0658782797755205
 50
354.7018340798168765
 51
25.0032486448025715
  0
ARC
  5
EC55
  8
0
 10
3482.2879202842350423
 20
210.8580754610221959
 30
0.0
 40
0.0221778212734587
 50
23.5379886354574595
 51
61.0087858237692373
  0
ARC
  5
EC56
  8
0
 10
3482.2953449427791384
 20
210.8698240680712104
 30
0.0
 40
0.0083412907436076
 50
66.5126867483109834
 51
90.4131479241476796
  0
LINE
  5
EC57
  8
0
 10
3482.332991252991178
 20
210.9175365873608996
 30
0.0
 11
3482.2748100077910749
 21
210.9175365873608996
 31
0.0
  0
ARC
  5
EC58
  8
0
 10
3482.2750835568449475
 20
210.9141844054676938
 30
0.0
 40
0.0033633246245179
 50
94.6651868342396057
 51
145.3571495369226909
  0
ARC
  5
EC59
  8
0
 10
3482.2831528641718251
 20
210.9080664339687132
 30
0.0
 40
0.0134872380076465
 50
143.4610534831604127
 51
163.2030583501509966
  0
ARC
  5
EC5A
  8
0
 10
3482.3187037168859206
 20
210.8973350693046029
 30
0.0
 40
0.0506224681300181
 50
163.2030583501525882
 51
170.2233269084233029
  0
ARC
  5
EC5B
  8
0
 10
3482.3335257364619792
 20
210.8947810760863888
 30
0.0
 40
0.0656629184444289
 50
170.2233269084248946
 51
182.5122451437732991
  0
ARC
  5
EC5C
  8
0
 10
3503.8720349644218004
 20
210.8774338323140114
 30
0.0
 40
21.6041138814508891
 50
179.9616269648604998
 51
180.1151213940327125
  0
ARC
  5
EC5D
  8
0
 10
3482.5241068242921756
 20
210.8375348843372876
 30
0.0
 40
0.2561661675702525
 50
180.7848772437706089
 51
186.8680845956241114
  0
ARC
  5
EC5E
  8
0
 10
3482.3714653995839399
 20
210.8158687135992864
 30
0.0
 40
0.1020811378721967
 50
185.0395545826237935
 51
205.9252051481589092
  0
ARC
  5
EC5F
  8
0
 10
3482.3015655216559026
 20
210.7828921177581947
 30
0.0
 40
0.0248147125501852
 50
208.0084150222446908
 51
236.7696715781320052
  0
ARC
  5
EC60
  8
0
 10
3482.2954129465338156
 20
210.7744238756837944
 30
0.0
 40
0.0143685028688232
 50
238.7871069185223121
 51
273.2245873381535262
  0
ARC
  5
EC61
  8
0
 10
3482.2950280988129634
 20
210.7783806141709135
 30
0.0
 40
0.0183413369436811
 50
273.7296347144334732
 51
293.3788009998676216
  0
ARC
  5
EC62
  8
0
 10
3482.2828742521051026
 20
210.8003614256728895
 30
0.0
 40
0.0434085897813619
 50
296.5929897629281982
 51
326.7482863316719772
  0
ARC
  5
EC63
  8
0
 10
3482.2287408941069771
 20
210.8365357093715886
 30
0.0
 40
0.1085151921145463
 50
326.4477741066575049
 51
357.935181772411795
  0
ARC
  5
EC64
  8
0
 10
3482.217598633569196
 20
210.8389487597110872
 30
0.0
 40
0.1197540304063521
 50
356.9734481663505221
 51
20.3025645036961784
  0
ARC
  5
EC65
  8
0
 10
3482.2653080902191505
 20
210.8604579945931903
 30
0.0
 40
0.0676422484905935
 50
17.2358059341110383
 51
45.1901768496473224
  0
ARC
  5
EC66
  8
0
 10
3482.289738157714055
 20
210.8850507799361935
 30
0.0
 40
0.032977665863297
 50
45.1901768496461713
 51
80.0919313475503003
  0
ARC
  5
EC67
  8
0
 10
3482.3046811477238407
 20
210.9149209890599934
 30
0.0
 40
0.0262241018192581
 50
139.4928347761349983
 51
174.2568582565818076
  0
ARC
  5
EC68
  8
0
 10
3482.2876612361951629
 20
210.9294610482228052
 30
0.0
 40
0.0038390463375749
 50
84.8536763325117676
 51
139.4928347761349983
  0
LINE
  5
EC69
  8
0
 10
3482.2880055969899331
 20
210.9332846188609096
 30
0.0
 11
3482.309779432391224
 21
210.9332846188609096
 31
0.0
  0
ARC
  5
EC6A
  8
0
 10
3482.3064298528461222
 20
210.8969936513462926
 30
0.0
 40
0.0364452192511934
 50
43.8622986133408617
 51
84.7266612162913049
  0
ARC
  5
EC6B
  8
0
 10
3482.2463317092001489
 20
210.8399915136216123
 30
0.0
 40
0.119276010115377
 50
355.494804035585787
 51
43.6006410350025178
  0
ARC
  5
EC6C
  8
0
 10
3482.2532246700188807
 20
210.8346194595087866
 30
0.0
 40
0.1120858021574906
 50
313.4567817655137105
 51
357.9563800758203911
  0
ARC
  5
EC6D
  8
0
 10
3482.3051352398510971
 20
210.7816179681771871
 30
0.0
 40
0.0379200055307865
 50
283.0071743061707821
 51
311.9917200579138239
  0
ARC
  5
EC6E
  8
0
 10
3482.3098848809117953
 20
210.7634570186548899
 30
0.0
 40
0.0191636316753109
 50
244.7261857047325861
 51
281.3917593390722232
  0
ARC
  5
EC6F
  8
0
 10
3482.3176651257408594
 20
210.7737222617288921
 30
0.0
 40
0.0318785667005073
 50
201.3136702341244018
 51
239.9527305474493915
  0
LINE
  5
EC70
  8
0
 10
3482.2841857454900492
 20
210.8666352795605974
 30
0.0
 11
3482.3082565564977813
 21
210.8669704604330093
 31
0.0
  0
ENDSEC
  0
EOF
