  0
SECTION
  2
HEADER
  9
$ACADVER
  1
AC1009
  9
$INSBASE
 10
3462.5312871074961549
 20
221.260869620366492
 30
0.0
  9
$EXTMIN
 10
3455.24311375786192
 20
212.0902253733563896
 30
-0.0015258207003583
  9
$EXTMAX
 10
3469.8025362552621118
 20
222.9417009796950992
 30
0.0000000349246037
  9
$LIMMIN
 10
0.0
 20
0.0
  9
$LIMMAX
 10
11.6929133858000007
 20
8.2677165353999982
  9
$ORTHOMODE
 70
     0
  9
$REGENMODE
 70
     1
  9
$FILLMODE
 70
     1
  9
$QTEXTMODE
 70
     0
  9
$MIRRTEXT
 70
     0
  9
$DRAGMODE
 70
     2
  9
$LTSCALE
 40
0.6431102362
  9
$OSMODE
 70
  2047
  9
$ATTMODE
 70
     1
  9
$TEXTSIZE
 40
0.2
  9
$TRACEWID
 40
0.05
  9
$TEXTSTYLE
  7
STANDARD
  9
$CLAYER
  8
0
  9
$CELTYPE
  6
BYLAYER
  9
$CECOLOR
 62
   256
  9
$DIMSCALE
 40
1.0
  9
$DIMASZ
 40
0.1875
  9
$DIMEXO
 40
0.0625
  9
$DIMDLI
 40
0.4443307087
  9
$DIMRND
 40
0.0
  9
$DIMDLE
 40
0.0
  9
$DIMEXE
 40
0.125
  9
$DIMTP
 40
0.01
  9
$DIMTM
 40
0.01
  9
$DIMTXT
 40
2.0
  9
$DIMCEN
 40
0.1052362205
  9
$DIMTSZ
 40
0.0
  9
$DIMTOL
 70
     1
  9
$DIMLIM
 70
     0
  9
$DIMTIH
 70
     1
  9
$DIMTOH
 70
     1
  9
$DIMSE1
 70
     0
  9
$DIMSE2
 70
     0
  9
$DIMTAD
 70
     0
  9
$DIMZIN
 70
     0
  9
$DIMBLK
  1

  9
$DIMASO
 70
     1
  9
$DIMSHO
 70
     1
  9
$DIMPOST
  1
\X
  9
$DIMAPOST
  1

  9
$DIMALT
 70
     1
  9
$DIMALTD
 70
     2
  9
$DIMALTF
 40
25.3999999999999986
  9
$DIMLFAC
 40
1.0
  9
$DIMTOFL
 70
     0
  9
$DIMTVP
 40
0.0
  9
$DIMTIX
 70
     0
  9
$DIMSOXD
 70
     0
  9
$DIMSAH
 70
     0
  9
$DIMBLK1
  1

  9
$DIMBLK2
  1

  9
$DIMSTYLE
  2
STANDARD
  9
$DIMCLRD
 70
     0
  9
$DIMCLRE
 70
     0
  9
$DIMCLRT
 70
     0
  9
$DIMTFAC
 40
1.0
  9
$DIMGAP
 40
0.09
  9
$LUNITS
 70
     2
  9
$LUPREC
 70
     4
  9
$SKETCHINC
 40
0.1
  9
$FILLETRAD
 40
0.0
  9
$AUNITS
 70
     0
  9
$AUPREC
 70
     0
  9
$MENU
  1
.
  9
$ELEVATION
 40
0.0
  9
$PELEVATION
 40
0.0
  9
$THICKNESS
 40
0.0
  9
$LIMCHECK
 70
     0
  9
$BLIPMODE
 70
     0
  9
$CHAMFERA
 40
0.0
  9
$CHAMFERB
 40
0.0
  9
$SKPOLY
 70
     0
  9
$TDCREATE
 40
2458060.468368056230247
  9
$TDUPDATE
 40
2459028.4619791661389172
  9
$TDINDWG
 40
0.7150302083
  9
$TDUSRTIMER
 40
0.7150302083
  9
$USRTIMER
 70
     1
  9
$ANGBASE
 50
0.0
  9
$ANGDIR
 70
     0
  9
$PDMODE
 70
     0
  9
$PDSIZE
 40
0.3125
  9
$PLINEWID
 40
0.0
  9
$COORDS
 70
     1
  9
$SPLFRAME
 70
     0
  9
$SPLINETYPE
 70
     6
  9
$SPLINESEGS
 70
     8
  9
$ATTDIA
 70
     1
  9
$ATTREQ
 70
     1
  9
$HANDLING
 70
     1
  9
$HANDSEED
  5
D8F8
  9
$SURFTAB1
 70
     6
  9
$SURFTAB2
 70
     6
  9
$SURFTYPE
 70
     6
  9
$SURFU
 70
     6
  9
$SURFV
 70
     6
  9
$UCSNAME
  2

  9
$UCSORG
 10
0.0
 20
0.0
 30
0.0
  9
$UCSXDIR
 10
1.0
 20
0.0
 30
0.0
  9
$UCSYDIR
 10
0.0
 20
1.0
 30
0.0
  9
$PUCSNAME
  2

  9
$PUCSORG
 10
0.0
 20
0.0
 30
0.0
  9
$PUCSXDIR
 10
1.0
 20
0.0
 30
0.0
  9
$PUCSYDIR
 10
0.0
 20
1.0
 30
0.0
  9
$USERI1
 70
     0
  9
$USERI2
 70
     0
  9
$USERI3
 70
     0
  9
$USERI4
 70
     0
  9
$USERI5
 70
     0
  9
$USERR1
 40
0.0
  9
$USERR2
 40
0.0
  9
$USERR3
 40
0.0
  9
$USERR4
 40
0.0
  9
$USERR5
 40
0.0
  9
$WORLDVIEW
 70
     1
  9
$SHADEDGE
 70
     3
  9
$SHADEDIF
 70
    70
  9
$TILEMODE
 70
     1
  9
$MAXACTVP
 70
    64
  9
$PLIMCHECK
 70
     0
  9
$PEXTMIN
 10
1.0000000000000000E+20
 20
1.0000000000000000E+20
 30
1.0000000000000000E+20
  9
$PEXTMAX
 10
-1.0000000000000000E+20
 20
-1.0000000000000000E+20
 30
-1.0000000000000000E+20
  9
$PLIMMIN
 10
0.0
 20
0.0
  9
$PLIMMAX
 10
12.0
 20
9.0
  9
$UNITMODE
 70
     0
  9
$VISRETAIN
 70
     1
  9
$PLINEGEN
 70
     0
  9
$PSLTSCALE
 70
     1
  0
ENDSEC
  0
SECTION
  2
TABLES
  0
TABLE
  2
VPORT
 70
     1
  0
VPORT
  2
*ACTIVE
 70
     0
 10
0.0
 20
0.0
 11
1.0
 21
1.0
 12
-20.2893087825004912
 22
11.1119020706420901
 13
0.0
 23
0.0
 14
1.0
 24
1.0
 15
0.0
 25
0.0
 16
0.0
 26
0.0
 36
32.8147386803597172
 17
3482.8121337890629547
 27
206.4040611058836134
 37
0.0
 40
10.9454277760905292
 41
2.7557803468208091
 42
50.0
 43
0.0
 44
0.0
 50
0.0
 51
0.0
 71
     0
 72
   100
 73
     1
 74
     1
 75
     0
 76
     0
 77
     0
 78
     0
  0
ENDTAB
  0
TABLE
  2
LTYPE
 70
     2
  0
LTYPE
  2
CONTINUOUS
 70
     0
  3
Solid line
 72
    65
 73
     0
 40
0.0
  0
LTYPE
  2
PHANTOM2
 70
     0
  3
___ _ _ ___ _ _ ___ _ _ ___ _ _
 72
    65
 73
     6
 40
1.25
 49
0.625
 49
-0.125
 49
0.125
 49
-0.125
 49
0.125
 49
-0.125
  0
ENDTAB
  0
TABLE
  2
LAYER
 70
     2
  0
LAYER
  2
0
 70
     0
 62
   255
  6
CONTINUOUS
  0
LAYER
  2
DEFPOINTS
 70
     0
 62
     7
  6
CONTINUOUS
  0
ENDTAB
  0
TABLE
  2
STYLE
 70
     1
  0
STYLE
  2
STANDARD
 70
     0
 40
0.0
 41
0.8
 50
0.0
 71
     0
 42
0.2
  3
txt
  4

  0
ENDTAB
  0
TABLE
  2
VIEW
 70
     0
  0
ENDTAB
  0
TABLE
  2
UCS
 70
     0
  0
ENDTAB
  0
TABLE
  2
APPID
 70
     9
  0
APPID
  2
ACAD
 70
     0
  0
APPID
  2
ACAD_MLEADERVER
 70
     0
  0
APPID
  2
ACAD_EXEMPT_FROM_CAD_STANDARDS
 70
     0
  0
APPID
  2
ACAD_NAV_VCDISPLAY
 70
     0
  0
APPID
  2
ACAECLAYERSTANDARD
 70
     0
  0
APPID
  2
ACCMTRANSPARENCY
 70
     0
  0
APPID
  2
ACAD_DSTYLE_DIMJAG
 70
     0
  0
APPID
  2
ACAD_DSTYLE_DIMTALN
 70
     0
  0
APPID
  2
ACDBATTR
 70
     0
  0
ENDTAB
  0
TABLE
  2
DIMSTYLE
 70
     1
  0
DIMSTYLE
  2
STANDARD
 70
     0
  3

  4

  5

  6

  7

 40
1.0
 41
0.1875
 42
0.0625
 43
0.38
 44
0.125
 45
0.0
 46
0.0
 47
0.01
 48
0.01
140
0.15625
141
0.09
142
0.0
143
25.3999999999999986
144
1.0
145
0.0
146
1.0
147
0.09
 71
     1
 72
     0
 73
     1
 74
     1
 75
     0
 76
     0
 77
     0
 78
     4
170
     0
171
     2
172
     0
173
     0
174
     0
175
     0
176
     0
177
     0
178
     0
  0
ENDTAB
  0
ENDSEC
  0
SECTION
  2
BLOCKS
  0
BLOCK
  8
0
  2
$MODEL_SPACE
 70
     0
 10
0.0
 20
0.0
 30
0.0
  3
$MODEL_SPACE
  1

  0
ENDBLK
  5
21
  8
0
  0
BLOCK
 67
     1
  8
0
  2
$PAPER_SPACE
 70
     0
 10
0.0
 20
0.0
 30
0.0
  3
$PAPER_SPACE
  1

  0
ENDBLK
  5
1D
 67
     1
  8
0
  0
BLOCK
  8
0
  2
_FILLED
 70
     0
 10
0.0
 20
0.0
 30
0.0
  3
_FILLED
  1

  0
SOLID
  5
D552
  8
0
  6
BYBLOCK
 62
     0
 10
0.0
 20
0.0
 30
0.0
 11
-1.0
 21
0.1666666667
 31
0.0
 12
-1.0
 22
-0.1666666667
 32
0.0
 13
-1.0
 23
-0.1666666667
 33
0.0
  0
ENDBLK
  5
D553
  8
0
  6
BYBLOCK
 62
     0
  0
ENDSEC
  0
SECTION
  2
ENTITIES
  0
ATTDEF
  5
CE6C
  8
DEFPOINTS
 10
3462.5315007692638574
 20
221.2644752915091999
 30
0.0
 40
0.001
  1
K-73078T-4E
  3

  2
MODELNUMBER
 70
     0
1001
ACDBATTR
1070
     0
1070
     1
  0
ATTDEF
  5
CE6D
  8
DEFPOINTS
 10
3462.5315007692638574
 20
221.2628086248425063
 30
0.0
 40
0.001
  1
COMPOSED
  3

  2
TRADENAME
 70
     0
1001
ACDBATTR
1070
     0
1070
     1
  0
ATTDEF
  5
CE6E
  8
DEFPOINTS
 10
3462.5315007692638574
 20
221.2611419581758128
 30
0.0
 40
0.001
  1
BATH FAUCET
  3

  2
PRODUCT
 70
     0
1001
ACDBATTR
1070
     0
1070
     1
  0
LINE
  5
D644
  8
0
 10
3455.6809139540878277
 20
221.260869620366492
 30
0.0
 11
3455.6809139540878277
 21
219.4894858421664026
 31
0.0
  0
LINE
  5
D645
  8
0
 10
3457.5676372398761487
 20
219.4894858421664026
 30
0.0
 11
3457.5676372398761487
 21
221.260869620366492
 31
0.0
  0
LINE
  5
D646
  8
0
 10
3461.5864052177457779
 20
221.2828015120664986
 30
0.0
 11
3461.5864052177958001
 21
212.243843716566488
 31
0.0
  0
LINE
  5
D647
  8
0
 10
3462.334954939095951
 20
222.2065684285514919
 30
0.0
 11
3462.334954939095951
 21
222.2458304296986
 31
0.0
  0
LINE
  5
D648
  8
0
 10
3462.1878097919961874
 20
222.5973678411664878
 30
0.0
 11
3462.1813935086961465
 21
222.2297792214664867
 31
0.0
  0
LINE
  5
D649
  8
0
 10
3462.881180706196119
 20
222.229779221666405
 30
0.0
 11
3462.874764422896078
 21
222.5973678411664878
 31
0.0
  0
LINE
  5
D64A
  8
0
 10
3462.7275762159420083
 20
222.2458391941744935
 30
0.0
 11
3462.7275762328031306
 21
222.2065775707420983
 31
0.0
  0
LINE
  5
D64B
  8
0
 10
3463.4761689972460772
 20
221.2828015215665118
 30
0.0
 11
3463.4761689972960994
 21
212.243843716566488
 31
0.0
  0
LINE
  5
D64C
  8
0
 10
3455.8807694710958458
 20
219.2926429439665128
 30
0.0
 11
3457.370781121896016
 21
219.2926429439665128
 31
0.0
  0
ARC
  5
D64D
  8
0
 10
3455.8829341698387907
 20
219.4947193433461905
 30
0.0
 40
0.202087993475407
 50
181.4839627619884084
 51
269.3862551073232225
  0
ARC
  5
D64E
  8
0
 10
3456.6257752964961583
 20
221.2628381242664943
 30
0.0
 40
1.2598425197000001
 50
318.3822544391314864
 51
221.61770686054669
  0
ARC
  5
D64F
  8
0
 10
3456.6242755969819882
 20
221.2643548808227081
 30
0.0
 40
0.9433680810392361
 50
359.7883210456927827
 51
180.2116789543071889
  0
ARC
  5
D650
  8
0
 10
3457.3707769160359931
 20
219.4895032685321041
 30
0.0
 40
0.1968603246105908
 50
270.0012241065895751
 51
359.9949280932672764
  0
ARC
  5
D651
  8
0
 10
3462.2010755499959487
 20
222.229435670366513
 30
0.0
 40
0.0196850394
 50
179.0000004298003091
 51
289.2030313346035086
  0
ARC
  5
D652
  8
0
 10
3462.5312871074961549
 20
221.2813587519665077
 30
0.0
 40
1.2598425197000001
 50
318.5903778893209051
 51
74.0927017429115438
  0
ARC
  5
D653
  8
0
 10
3462.5312871074961549
 20
221.2813587519665077
 30
0.0
 40
1.2598425197000001
 50
105.9072982618018983
 51
221.4096221109965086
  0
ARC
  5
D654
  8
0
 10
3462.5312871074961549
 20
221.2813587519665077
 30
0.0
 40
0.9842519684999999
 50
70.7969686567893035
 51
109.2030313357064983
  0
ARC
  5
D655
  8
0
 10
3462.5312871074961549
 20
222.5913724223665042
 30
0.0
 40
0.3435296367
 50
1.000000000000133
 51
178.9999999999998863
  0
ARC
  5
D656
  8
0
 10
3462.861498664895862
 20
222.229435670366513
 30
0.0
 40
0.0196850394
 50
250.7969690993072049
 51
1.000000000000133
  0
ARC
  5
D657
  8
0
 10
3462.5312871074979739
 20
221.282308882787504
 30
0.0
 40
0.9448820181725542
 50
0.0298726439826308
 51
179.9701279320794924
  0
CIRCLE
  5
D658
  8
0
 10
3468.436798918596196
 20
221.260869620366492
 30
0.0
 40
0.5511811023000011
  0
CIRCLE
  5
D659
  8
0
 10
3468.436798918596196
 20
221.260869620366492
 30
0.0
 40
1.2598425196999989
  0
CIRCLE
  5
D65A
  8
0
 10
3468.436798918596196
 20
221.260869620366492
 30
0.0
 40
0.6692913386000008
  0
LINE
  5
D65B
  8
0
 10
3468.1336493122958018
 20
220.8006788242664982
 30
0.0
 11
3468.1336493122958018
 21
220.7864642555665
 31
0.0
  0
ARC
  5
D65C
  8
0
 10
3468.4367989187580861
 20
221.260869620826611
 30
0.0
 40
0.5629921264864191
 50
237.42102962019041
 51
255.0046139965940029
  0
LINE
  5
D65D
  8
0
 10
3468.2911296272541222
 20
220.717049253427291
 30
0.0
 11
3468.2911296271959145
 21
220.7292860754876074
 31
0.0
  0
LINE
  5
D65E
  8
0
 10
3468.1374887186962042
 20
220.784036144366496
 30
0.0
 11
3468.1382097984178472
 21
220.7443662793158978
 31
0.0
  0
ARC
  5
D65F
  8
0
 10
3468.1385490204338566
 20
220.7443653307153113
 30
0.0
 40
0.0003392308149331
 50
139.1218094571611061
 51
179.7794876153639905
  0
ARC
  5
D660
  8
0
 10
3468.1391364952860386
 20
220.7438568353196899
 30
0.0
 40
0.0011162084655582
 50
90.3399509785390364
 51
139.1218094571536881
  0
ARC
  5
D661
  8
0
 10
3468.1436541909170046
 20
220.704430406392305
 30
0.0
 40
0.0407942803617138
 50
84.3137440012973087
 51
96.3675280138004808
  0
ARC
  5
D662
  8
0
 10
3468.1199528325519168
 20
220.4198728551455133
 30
0.0
 40
0.3263325406356747
 50
80.009728513587163
 51
85.1230882972585334
  0
ARC
  5
D663
  8
0
 10
3468.1066281663652262
 20
220.3249875103034867
 30
0.0
 40
0.4221039361072379
 50
76.873445304921745
 51
80.4628520903178952
  0
ARC
  5
D664
  8
0
 10
3468.1743509125021774
 20
220.6109341124764001
 30
0.0
 40
0.1282528754610004
 50
70.8569650503116861
 51
77.3264289955731527
  0
ARC
  5
D665
  8
0
 10
3468.2124825076439265
 20
220.7206446349860869
 30
0.0
 40
0.0121047159740734
 50
55.7275155522074002
 51
71.0743375992724395
  0
ARC
  5
D666
  8
0
 10
3468.2186526917412266
 20
220.7298070376311045
 30
0.0
 40
0.0010603236875417
 50
24.4195919152115195
 51
52.4419808724681502
  0
ARC
  5
D667
  8
0
 10
3468.2192975831940203
 20
220.7301258952639103
 30
0.0
 40
0.0003421255342232
 50
347.8964050474062901
 51
20.4431641024590682
  0
ARC
  5
D668
  8
0
 10
3468.2193407029831178
 20
220.7301186960154098
 30
0.0
 40
0.0002984614716081
 50
337.5123367147048157
 51
347.5120497206552272
  0
ARC
  5
D669
  8
0
 10
3468.2189636641378456
 20
220.7303931470345901
 30
0.0
 40
0.0007597181167281
 50
287.8389803050990281
 51
329.2351432883511961
  0
ARC
  5
D66A
  8
0
 10
3468.2172060264788342
 20
220.7355333799553989
 30
0.0
 40
0.0061920376178041
 50
273.5964387129367879
 51
288.7500657235966059
  0
ARC
  5
D66B
  8
0
 10
3468.2151123374319468
 20
220.8162833632428885
 30
0.0
 40
0.0869652550410576
 50
262.9702562776136006
 51
271.6355212689181826
  0
ARC
  5
D66C
  8
0
 10
3468.2458389076309686
 20
221.107735259196204
 30
0.0
 40
0.3800219119949887
 50
260.1372633422989225
 51
263.7503065621892233
  0
ARC
  5
D66D
  8
0
 10
3468.2559712157999456
 20
221.1751125346640094
 30
0.0
 40
0.4481416705769298
 50
257.7282489328829911
 51
260.3365059305289719
  0
ARC
  5
D66E
  8
0
 10
3468.1875231407589126
 20
220.8728433999851006
 30
0.0
 40
0.1382558467817776
 50
249.8529370834571068
 51
258.8212097740039894
  0
ARC
  5
D66F
  8
0
 10
3468.1422259033738555
 20
220.7484510240859095
 30
0.0
 40
0.0058817217268476
 50
229.8930509495513093
 51
246.7438271988791882
  0
ARC
  5
D670
  8
0
 10
3468.1389388019929356
 20
220.7445093147316868
 30
0.0
 40
0.0007497507311691
 50
195.0271737749480963
 51
227.9671836544272026
  0
ARC
  5
D671
  8
0
 10
3468.1385519456262045
 20
220.7443729572985092
 30
0.0
 40
0.0003422123706071
 50
181.1181492400118884
 51
189.7875298379840956
  0
LINE
  5
D672
  8
0
 10
3468.2234175302960466
 20
220.7398848137665084
 30
0.0
 11
3468.2196164700180816
 21
220.7300045391359049
 31
0.0
  0
ARC
  5
D673
  8
0
 10
3468.1395416942941665
 20
220.5149985332942038
 30
0.0
 40
0.2275703952171147
 50
79.9657363393781964
 51
82.6181311320402472
  0
ARC
  5
D674
  8
0
 10
3468.1541304944698823
 20
220.6276050565386981
 30
0.0
 40
0.1140227745120131
 50
82.618131132040034
 51
86.1136877347189937
  0
ARC
  5
D675
  8
0
 10
3468.1601276955661888
 20
220.7158859675000997
 30
0.0
 40
0.0255383936237775
 50
86.1136877347189937
 51
93.260546758446111
  0
ARC
  5
D676
  8
0
 10
3468.1588502440681623
 20
220.7383096767362076
 30
0.0
 40
0.0030783264324885
 50
93.2605467584200056
 51
110.0110081027759037
  0
ARC
  5
D677
  8
0
 10
3468.1579192579019946
 20
220.740866011932809
 30
0.0
 40
0.000357741040004
 50
110.0110081027213056
 51
146.0006972413357005
  0
ARC
  5
D678
  8
0
 10
3468.1577435860390324
 20
220.7409845009902085
 30
0.0
 40
0.0001458442250279
 50
146.0006972408230865
 51
183.3125698621319088
  0
ARC
  5
D679
  8
0
 10
3468.1578450663919284
 20
220.7409903746481064
 30
0.0
 40
0.000247494418523
 50
183.312569861681709
 51
219.2686820437083099
  0
ARC
  5
D67A
  8
0
 10
3468.159683921991018
 20
220.7429762438405021
 30
0.0
 40
0.0029518097987118
 50
226.5382372365102128
 51
249.0594331117544868
  0
ARC
  5
D67B
  8
0
 10
3468.1740905432998261
 20
220.7794810070462006
 30
0.0
 40
0.0421963866403139
 50
248.5050074276526004
 51
256.356254970936277
  0
ARC
  5
D67C
  8
0
 10
3468.2131758994569282
 20
220.9344676607084921
 30
0.0
 40
0.202034131375147
 50
255.9525486553112046
 51
260.4445039898092773
  0
ARC
  5
D67D
  8
0
 10
3468.2154851384671019
 20
220.9412056696120885
 30
0.0
 40
0.2090652032669371
 50
260.1269606490276942
 51
263.2920849551985043
  0
ARC
  5
D67E
  8
0
 10
3468.1981480635849948
 20
220.7865299232956033
 30
0.0
 40
0.0534299234069427
 50
262.3816607960175133
 51
271.0670191779377092
  0
ARC
  5
D67F
  8
0
 10
3468.1990440161907827
 20
220.7358156452384037
 30
0.0
 40
0.0027081911124652
 50
272.09528024748289
 51
293.5702198207142146
  0
ARC
  5
D680
  8
0
 10
3468.2000749483509026
 20
220.7334956373516093
 30
0.0
 40
0.0001703701783874
 50
287.7710871474599799
 51
346.8858906449905248
  0
ARC
  5
D681
  8
0
 10
3468.200003876241226
 20
220.7335121948003973
 30
0.0
 40
0.0002433454753144
 50
346.8858906450154791
 51
35.62564066278496
  0
ARC
  5
D682
  8
0
 10
3468.1984314613619063
 20
220.7318945321142962
 30
0.0
 40
0.0024958328118009
 50
44.824561898248902
 51
68.0228946244498331
  0
ARC
  5
D683
  8
0
 10
3468.1814464270410099
 20
220.6884389615701991
 30
0.0
 40
0.0491527154623065
 50
68.6195544186686561
 51
77.3236893877591456
  0
ARC
  5
D684
  8
0
 10
3468.143350385335907
 20
220.5327214403787934
 30
0.0
 40
0.2094560148221127
 50
76.5040178287062247
 51
80.1469455264878547
  0
ARC
  5
D685
  8
0
 10
3468.2662769415251205
 20
220.7000782371108869
 30
0.0
 40
0.0003392308149331
 50
142.149894753176909
 51
182.8075729113876093
  0
ARC
  5
D686
  8
0
 10
3468.2668904576239584
 20
220.699601485325303
 30
0.0
 40
0.0011162084655582
 50
93.3680362745564167
 51
142.1498947531678994
  0
ARC
  5
D687
  8
0
 10
3468.2734845646778012
 20
220.660468754473186
 30
0.0
 40
0.0407942803617138
 50
87.3418292973126569
 51
99.3956133098237302
  0
ARC
  5
D688
  8
0
 10
3468.2648481823489419
 20
220.3750564785279948
 30
0.0
 40
0.3263325406356747
 50
83.0378138096345566
 51
88.1511735932994185
  0
ARC
  5
D689
  8
0
 10
3468.2565544824851713
 20
220.279599734725906
 30
0.0
 40
0.4221039361072379
 50
79.9015306009520572
 51
83.4909373863295059
  0
ARC
  5
D68A
  8
0
 10
3468.309077410937789
 20
220.5687245721665874
 30
0.0
 40
0.1282528754610004
 50
73.8850503463305444
 51
80.3545142915969421
  0
ARC
  5
D68B
  8
0
 10
3468.3413602565337897
 20
220.6802962315503009
 30
0.0
 40
0.0121047159740734
 50
58.7556008482508432
 51
74.1024228952854997
  0
ARC
  5
D68C
  8
0
 10
3468.3470378174538382
 20
220.6897717840959103
 30
0.0
 40
0.0010603236875417
 50
27.4476772112264804
 51
55.4700661684890406
  0
ARC
  5
D68D
  8
0
 10
3468.3476649646818259
 20
220.6901242632141873
 30
0.0
 40
0.0003421255342232
 50
350.9244903434262142
 51
23.4712493984777311
  0
ARC
  5
D68E
  8
0
 10
3468.3477084045698575
 20
220.6901193518401953
 30
0.0
 40
0.0002984614716081
 50
340.5404220107249103
 51
350.5401350166778798
  0
ARC
  5
D68F
  8
0
 10
3468.3473173941588357
 20
220.6903735024100115
 30
0.0
 40
0.0007597181167281
 50
290.8670656011234996
 51
332.263228584374815
  0
ARC
  5
D690
  8
0
 10
3468.3452906754191645
 20
220.6954137103195137
 30
0.0
 40
0.0061920376178041
 50
276.6245240089551771
 51
291.7781510196173826
  0
ARC
  5
D691
  8
0
 10
3468.3389342547288834
 20
220.7759403472213933
 30
0.0
 40
0.0869652550410576
 50
265.9983415736494976
 51
274.6636065649428815
  0
ARC
  5
D692
  8
0
 10
3468.3542218430889079
 20
221.0686084517581946
 30
0.0
 40
0.3800219119949887
 50
263.1653486383157201
 51
266.7783918582093747
  0
ARC
  5
D693
  8
0
 10
3468.3607807686248634
 20
221.1364268962560118
 30
0.0
 40
0.4481416705769298
 50
260.7563342288838726
 51
263.3645912265607194
  0
ARC
  5
D694
  8
0
 10
3468.3083957692720105
 20
220.8309640006384882
 30
0.0
 40
0.1382558467817776
 50
252.8810223794912986
 51
261.8492950700306778
  0
ARC
  5
D695
  8
0
 10
3468.2697328620288317
 20
220.704352458905106
 30
0.0
 40
0.0058817217268476
 50
232.9211362455829999
 51
249.7719124948908984
  0
ARC
  5
D696
  8
0
 10
3468.266658572833876
 20
220.7002426104810979
 30
0.0
 40
0.0007497507311691
 50
198.0552590709746994
 51
230.995268950447894
  0
ARC
  5
D697
  8
0
 10
3468.2662794597540596
 20
220.7000860075702064
 30
0.0
 40
0.0003422123706071
 50
184.1462345360357062
 51
192.8156151340112103
  0
ARC
  5
D698
  8
0
 10
3468.2793846357380971
 20
220.4710841290797987
 30
0.0
 40
0.2275703952171147
 50
82.9938216353956335
 51
85.646216428080038
  0
ARC
  5
D699
  8
0
 10
3468.2880045751758189
 20
220.5843040867368927
 30
0.0
 40
0.1140227745120131
 50
85.646216428080038
 51
89.1417730307327929
  0
ARC
  5
D69A
  8
0
 10
3468.2893299230991033
 20
220.6727785413216054
 30
0.0
 40
0.0255383936237775
 50
89.1417730307327929
 51
96.2886320544847649
  0
ARC
  5
D69B
  8
0
 10
3468.2868697124940809
 20
220.6951034597317118
 30
0.0
 40
0.0030783264324885
 50
96.2886320544585033
 51
113.0390933987915929
  0
ARC
  5
D69C
  8
0
 10
3468.2858049866281362
 20
220.6976070459010089
 30
0.0
 40
0.000357741040004
 50
113.039093398760599
 51
149.0287825373594899
  0
ARC
  5
D69D
  8
0
 10
3468.2856233008051277
 20
220.6977160895725092
 30
0.0
 40
0.0001458442250279
 50
149.028782536848496
 51
186.3406551581533108
  0
ARC
  5
D69E
  8
0
 10
3468.2857243291878149
 20
220.697727315775694
 30
0.0
 40
0.000247494418523
 50
186.3406551577024004
 51
222.2967673397353963
  0
ARC
  5
D69F
  8
0
 10
3468.2874557128538981
 20
220.6998075506105863
 30
0.0
 40
0.0029518097987118
 50
229.5663225325338033
 51
252.0875184077746951
  0
ARC
  5
D6A0
  8
0
 10
3468.299913838197881
 20
220.7370223808150911
 30
0.0
 40
0.0421963866403139
 50
251.5330927236778109
 51
259.3843402669534726
  0
ARC
  5
D6A1
  8
0
 10
3468.3307573807178414
 20
220.8938573379008972
 30
0.0
 40
0.202034131375147
 50
258.980633951329196
 51
263.4725892858306793
  0
ARC
  5
D6A2
  8
0
 10
3468.3327074570652258
 20
220.900707925542406
 30
0.0
 40
0.2090652032669371
 50
263.1550459450435824
 51
266.320170251216382
  0
ARC
  5
D6A3
  8
0
 10
3468.3235654061909372
 20
220.745332304643199
 30
0.0
 40
0.0534299234069427
 50
265.4097460920538083
 51
274.0951044739520057
  0
ARC
  5
D6A4
  8
0
 10
3468.3271391128510004
 20
220.694736164961995
 30
0.0
 40
0.0027081911124652
 50
275.1233655435273135
 51
296.5983051167319218
  0
ARC
  5
D6A5
  8
0
 10
3468.3282911610649535
 20
220.6924738558259094
 30
0.0
 40
0.0001703701783874
 50
290.7991724434666025
 51
349.9139759410160764
  0
ARC
  5
D6A6
  8
0
 10
3468.3282193135328271
 20
220.6924866357396979
 30
0.0
 40
0.0002433454753144
 50
349.9139759410354031
 51
38.6537259587946522
  0
ARC
  5
D6A7
  8
0
 10
3468.3267345478971038
 20
220.6907881681599974
 30
0.0
 40
0.0024958328118009
 50
47.8526471942849909
 51
71.0509799204736083
  0
ARC
  5
D6A8
  8
0
 10
3468.3120687892101159
 20
220.6464960297566051
 30
0.0
 40
0.0491527154623065
 50
71.6476397146813326
 51
80.3517746837651998
  0
ARC
  5
D6A9
  8
0
 10
3468.2822517882350439
 20
220.4889834865975899
 30
0.0
 40
0.2094560148221127
 50
79.5321031247315062
 51
83.1750308224976465
  0
LINE
  5
D6AA
  8
0
 10
3468.2659457722570551
 20
220.7000100999891004
 30
0.0
 11
3468.2627354283968089
 21
220.7254613319381917
 31
0.0
  0
LINE
  5
D6AB
  8
0
 10
3468.3479974118022255
 20
220.6900448262072985
 30
0.0
 11
3468.3553683919749346
 21
220.7157369053537082
 31
0.0
  0
ARC
  5
D6AC
  8
0
 10
3468.3958029211257781
 20
220.6785374033827054
 30
0.0
 40
0.0003392308149331
 50
148.8846240045778018
 51
189.5423021627887863
  0
ARC
  5
D6AD
  8
0
 10
3468.3964681137867956
 20
220.6781358900036025
 30
0.0
 40
0.0011162084655582
 50
100.1027655259551068
 51
148.8846240045679963
  0
ARC
  5
D6AE
  8
0
 10
3468.4076059214689849
 20
220.6400464936862136
 30
0.0
 40
0.0407942803617138
 50
94.0765585487163065
 51
106.1303425612313021
  0
ARC
  5
D6AF
  8
0
 10
3468.4325002050950388
 20
220.3555908222668904
 30
0.0
 40
0.3263325406356747
 50
89.7725430610106372
 51
94.8859028446817945
  0
ARC
  5
D6B0
  8
0
 10
3468.4354582054411367
 20
220.2598201293137947
 30
0.0
 40
0.4221039361072379
 50
86.6362598523512446
 51
90.2256666377373477
  0
ARC
  5
D6B1
  8
0
 10
3468.4537122575561625
 20
220.5531094390744045
 30
0.0
 40
0.1282528754610004
 50
80.6197795977280833
 51
87.0892435429937848
  0
ARC
  5
D6B2
  8
0
 10
3468.4726880318839903
 20
220.6676971229071
 30
0.0
 40
0.0121047159740734
 50
65.4903300996524536
 51
80.8371521466918068
  0
ARC
  5
D6B3
  8
0
 10
3468.4772151924212267
 20
220.6777731147437009
 30
0.0
 40
0.0010603236875417
 50
34.1824064626265667
 51
62.2047954198996393
  0
ARC
  5
D6B4
  8
0
 10
3468.4777966759929768
 20
220.6781967089262082
 30
0.0
 40
0.0003421255342232
 50
357.6592195948276753
 51
30.2059786498838783
  0
ARC
  5
D6B5
  8
0
 10
3468.477840392104099
 20
220.6781969257556
 30
0.0
 40
0.0002984614716081
 50
347.2751512621288157
 51
357.274864268078602
  0
ARC
  5
D6B6
  8
0
 10
3468.4774222748369539
 20
220.678403467769698
 30
0.0
 40
0.0007597181167281
 50
297.6017948525160932
 51
338.9979578357666128
  0
ARC
  5
D6B7
  8
0
 10
3468.4748184620962093
 20
220.6831712181651142
 30
0.0
 40
0.0061920376178041
 50
283.3592532603660743
 51
298.5128802710066793
  0
ARC
  5
D6B8
  8
0
 10
3468.4590623248991506
 20
220.7623967662877931
 30
0.0
 40
0.0869652550410576
 50
272.7330708250374869
 51
281.3983358163362141
  0
ARC
  5
D6B9
  8
0
 10
3468.439922441582894
 20
221.0548382042505011
 30
0.0
 40
0.3800219119949887
 50
269.9000778897200803
 51
273.5131211096334027
  0
ARC
  5
D6BA
  8
0
 10
3468.4384828557090259
 20
221.1229578674235086
 30
0.0
 40
0.4481416705769298
 50
267.4910634802992035
 51
270.0993204779479129
  0
ARC
  5
D6BB
  8
0
 10
3468.4222817894042237
 20
220.8134594115198013
 30
0.0
 40
0.1382558467817776
 50
259.6157516308908839
 51
268.5840243214177008
  0
ARC
  5
D6BC
  8
0
 10
3468.3987337453108921
 20
220.6831874171541017
 30
0.0
 40
0.0058817217268476
 50
239.6558654969886106
 51
256.5066417462859931
  0
ARC
  5
D6BD
  8
0
 10
3468.3961626425721079
 20
220.6787453974752964
 30
0.0
 40
0.0007497507311691
 50
204.7899883223755921
 51
237.7299982018514015
  0
ARC
  5
D6BE
  8
0
 10
3468.395804510716971
 20
220.6785454155433968
 30
0.0
 40
0.0003422123706071
 50
190.8809637874373948
 51
199.5503443854113073
  0
ARC
  5
D6BF
  8
0
 10
3468.4356749299181502
 20
220.4526605872295022
 30
0.0
 40
0.2275703952171147
 50
89.7285508867966257
 51
92.3809456794726032
  0
ARC
  5
D6C0
  8
0
 10
3468.4309577776789411
 20
220.5661101823920092
 30
0.0
 40
0.1140227745120131
 50
92.3809456794726032
 51
95.876502282153524
  0
ARC
  5
D6C1
  8
0
 10
3468.4218983407931773
 20
220.65412956812321
 30
0.0
 40
0.0255383936237775
 50
95.876502282153524
 51
103.0233613058688036
  0
ARC
  5
D6C2
  8
0
 10
3468.4168370024472097
 20
220.6760119233983062
 30
0.0
 40
0.0030783264324885
 50
103.0233613058423003
 51
119.7738226502068954
  0
ARC
  5
D6C3
  8
0
 10
3468.4154860211078812
 20
220.6783733708988962
 30
0.0
 40
0.000357741040004
 50
119.7738226501503931
 51
155.7635117887602121
  0
ARC
  5
D6C4
  8
0
 10
3468.415292801115811
 20
220.6784603553518878
 30
0.0
 40
0.0001458442250279
 50
155.7635117882485076
 51
193.075384409555312
  0
ARC
  5
D6C5
  8
0
 10
3468.4153918158508532
 20
220.6784833519641893
 30
0.0
 40
0.000247494418523
 50
193.0753844091034068
 51
229.0314965911312015
  0
ARC
  5
D6C6
  8
0
 10
3468.4168672977439201
 20
220.6807522767198861
 30
0.0
 40
0.0029518097987118
 50
236.3010517839445015
 51
258.8222476591744226
  0
ARC
  5
D6C7
  8
0
 10
3468.4248751746790731
 20
220.7191713134234874
 30
0.0
 40
0.0421963866403139
 50
258.2678219750728204
 51
266.119069518361016
  0
ARC
  5
D6C8
  8
0
 10
3468.4371134276320845
 20
220.8785411758316002
 30
0.0
 40
0.202034131375147
 50
265.7153632027304866
 51
270.2073185372356079
  0
ARC
  5
D6C9
  8
0
 10
3468.4382466609431503
 20
220.8855731834435119
 30
0.0
 40
0.2090652032669371
 50
269.8897751964498752
 51
273.0548995026189232
  0
ARC
  5
D6CA
  8
0
 10
3468.4473890135641341
 20
220.730197580298892
 30
0.0
 40
0.0534299234069427
 50
272.1444753434548147
 51
280.8298337253739874
  0
ARC
  5
D6CB
  8
0
 10
3468.4568716074618351
 20
220.680369665001308
 30
0.0
 40
0.0027081911124652
 50
281.8580947949291726
 51
303.3330343681299723
  0
ARC
  5
D6CC
  8
0
 10
3468.4582810133902058
 20
220.678258070190509
 30
0.0
 40
0.0001703701783874
 50
297.5339016948881863
 51
356.6487051924150933
  0
ARC
  5
D6CD
  8
0
 10
3468.4582081628891501
 20
220.6782623361644937
 30
0.0
 40
0.0002433454753144
 50
356.6487051924345906
 51
45.3884552101988916
  0
ARC
  5
D6CE
  8
0
 10
3468.4569328264151409
 20
220.6764014659399891
 30
0.0
 40
0.0024958328118009
 50
54.5873764456861679
 51
77.7857091718637719
  0
ARC
  5
D6CF
  8
0
 10
3468.4475625245167976
 20
220.6306950610874935
 30
0.0
 40
0.0491527154623065
 50
78.382368966092244
 51
87.08650393517091
  0
ARC
  5
D6D0
  8
0
 10
3468.4364231920731072
 20
220.4707726734355901
 30
0.0
 40
0.2094560148221127
 50
86.2668323761311768
 51
89.9097600739066252
  0
LINE
  5
D6D1
  8
0
 10
3468.4781315230961809
 20
220.6781311838664124
 30
0.0
 11
3468.4846968837118766
 21
220.7117736427991019
 31
0.0
  0
LINE
  5
D6D2
  8
0
 10
3468.3954636903108621
 20
220.6785374033827054
 30
0.0
 11
3468.3889009534368597
 21
220.7117736428029104
 31
0.0
  0
LINE
  5
D6D3
  8
0
 10
3468.7405775429679124
 20
220.8009575038622927
 30
0.0
 11
3468.7405775429679124
 21
220.7864642555665
 31
0.0
  0
ARC
  5
D6D4
  8
0
 10
3468.4374279365060829
 20
221.260869620826611
 30
0.0
 40
0.5629921264864191
 50
284.9953860034059971
 51
302.5789703798096184
  0
LINE
  5
D6D5
  8
0
 10
3468.5830972280100468
 20
220.717049253427291
 30
0.0
 11
3468.5830972280677997
 21
220.7294588449975947
 31
0.0
  0
LINE
  5
D6D6
  8
0
 10
3468.7367381365679648
 20
220.784036144366496
 30
0.0
 11
3468.7360170568449576
 21
220.7443662793158978
 31
0.0
  0
ARC
  5
D6D7
  8
0
 10
3468.7356778348312218
 20
220.7443653307153113
 30
0.0
 40
0.0003392308149331
 50
0.2205123846360046
 51
40.8781905428388868
  0
ARC
  5
D6D8
  8
0
 10
3468.7350903599781304
 20
220.7438568353196899
 30
0.0
 40
0.0011162084655582
 50
40.8781905428462693
 51
89.6600490214609636
  0
ARC
  5
D6D9
  8
0
 10
3468.7305726643471644
 20
220.704430406392305
 30
0.0
 40
0.0407942803617138
 50
83.6324719861993771
 51
95.6862559987026771
  0
ARC
  5
D6DA
  8
0
 10
3468.7542740227131617
 20
220.4198728551455133
 30
0.0
 40
0.3263325406356747
 50
94.876911702741495
 51
99.9902714864128228
  0
ARC
  5
D6DB
  8
0
 10
3468.7675986888989428
 20
220.3249875103034867
 30
0.0
 40
0.4221039361072379
 50
99.5371479096821048
 51
103.1265546950781982
  0
ARC
  5
D6DC
  8
0
 10
3468.6998759427629011
 20
220.6109341124764001
 30
0.0
 40
0.1282528754610004
 50
102.6735710044268046
 51
109.1430349496882997
  0
ARC
  5
D6DD
  8
0
 10
3468.6617443476197877
 20
220.7206446349860869
 30
0.0
 40
0.0121047159740734
 50
108.9256624007275036
 51
124.2724844477926069
  0
ARC
  5
D6DE
  8
0
 10
3468.6555741635220329
 20
220.7298070376311045
 30
0.0
 40
0.0010603236875417
 50
127.5580191275317929
 51
155.5804080847885018
  0
ARC
  5
D6DF
  8
0
 10
3468.6549292720687845
 20
220.7301258952639103
 30
0.0
 40
0.0003421255342232
 50
159.5568358975409069
 51
192.1035949525935962
  0
ARC
  5
D6E0
  8
0
 10
3468.6548861522787774
 20
220.7301186960154098
 30
0.0
 40
0.0002984614716081
 50
192.4879502793448012
 51
202.487663285295298
  0
ARC
  5
D6E1
  8
0
 10
3468.6552631911258686
 20
220.7303931470345901
 30
0.0
 40
0.0007597181167281
 50
210.7648567116488039
 51
252.1610196949008866
  0
ARC
  5
D6E2
  8
0
 10
3468.65702082878488
 20
220.7355333799553989
 30
0.0
 40
0.0061920376178041
 50
251.2499342764033941
 51
266.4035612870632121
  0
ARC
  5
D6E3
  8
0
 10
3468.6591145178308579
 20
220.8162833632428885
 30
0.0
 40
0.0869652550410576
 50
268.3644787310818174
 51
277.0297437223863994
  0
ARC
  5
D6E4
  8
0
 10
3468.6283879476318361
 20
221.107735259196204
 30
0.0
 40
0.3800219119949887
 50
276.2496934378107767
 51
279.8627366577011912
  0
ARC
  5
D6E5
  8
0
 10
3468.6182556394628591
 20
221.1751125346640094
 30
0.0
 40
0.4481416705769298
 50
279.6634940694709144
 51
282.2717510671170089
  0
ARC
  5
D6E6
  8
0
 10
3468.6867037145038921
 20
220.8728433999851006
 30
0.0
 40
0.1382558467817776
 50
281.1787902259961243
 51
290.1470629165427795
  0
ARC
  5
D6E7
  8
0
 10
3468.7320009518889492
 20
220.7484510240859095
 30
0.0
 40
0.0058817217268476
 50
293.2561728011207833
 51
310.1069490504485771
  0
ARC
  5
D6E8
  8
0
 10
3468.7352880532707786
 20
220.7445093147316868
 30
0.0
 40
0.0007497507311691
 50
312.0328163455728259
 51
344.9728262250517901
  0
ARC
  5
D6E9
  8
0
 10
3468.7356749096379644
 20
220.7443729572985092
 30
0.0
 40
0.0003422123706071
 50
350.2124701620159044
 51
358.8818507599880263
  0
LINE
  5
D6EA
  8
0
 10
3468.6508093249681224
 20
220.7398848137665084
 30
0.0
 11
3468.6546103852469969
 21
220.7300045391359049
 31
0.0
  0
ARC
  5
D6EB
  8
0
 10
3468.734685160970912
 20
220.5149985332942038
 30
0.0
 40
0.2275703952171147
 50
97.3818688679599518
 51
100.0342636606218036
  0
ARC
  5
D6EC
  8
0
 10
3468.720096360793832
 20
220.6276050565386981
 30
0.0
 40
0.1140227745120131
 50
93.8863122652810063
 51
97.3818688679599518
  0
ARC
  5
D6ED
  8
0
 10
3468.7140991596970707
 20
220.7158859675000997
 30
0.0
 40
0.0255383936237775
 50
86.7394532415538748
 51
93.8863122652810063
  0
ARC
  5
D6EE
  8
0
 10
3468.7153766111950972
 20
220.7383096767362076
 30
0.0
 40
0.0030783264324885
 50
69.9889918972241531
 51
86.7394532415799802
  0
ARC
  5
D6EF
  8
0
 10
3468.7163075973608102
 20
220.740866011932809
 30
0.0
 40
0.000357741040004
 50
33.9993027586642924
 51
69.9889918972786802
  0
ARC
  5
D6F0
  8
0
 10
3468.7164832692242271
 20
220.7409845009902085
 30
0.0
 40
0.0001458442250279
 50
356.6874301378680912
 51
33.9993027591769206
  0
ARC
  5
D6F1
  8
0
 10
3468.7163817888717858
 20
220.7409903746481064
 30
0.0
 40
0.000247494418523
 50
320.7313179562917185
 51
356.687430138318291
  0
ARC
  5
D6F2
  8
0
 10
3468.7145429332717868
 20
220.7429762438405021
 30
0.0
 40
0.0029518097987118
 50
290.9405668882455984
 51
313.4617627634896735
  0
ARC
  5
D6F3
  8
0
 10
3468.7001363119638881
 20
220.7794810070462006
 30
0.0
 40
0.0421963866403139
 50
283.643745029063723
 51
291.494992572347428
  0
ARC
  5
D6F4
  8
0
 10
3468.6610509558081503
 20
220.9344676607084921
 30
0.0
 40
0.202034131375147
 50
279.555496010190609
 51
284.0474513446887954
  0
ARC
  5
D6F5
  8
0
 10
3468.6587417167961576
 20
220.9412056696120885
 30
0.0
 40
0.2090652032669371
 50
276.7079150448016094
 51
279.8730393509723058
  0
ARC
  5
D6F6
  8
0
 10
3468.6760787916778099
 20
220.7865299232956033
 30
0.0
 40
0.0534299234069427
 50
268.9329808220624045
 51
277.6183392039824867
  0
ARC
  5
D6F7
  8
0
 10
3468.6751828390729315
 20
220.7358156452384037
 30
0.0
 40
0.0027081911124652
 50
246.4297801792858138
 51
267.90471975251711
  0
ARC
  5
D6F8
  8
0
 10
3468.6741519069128117
 20
220.7334956373516093
 30
0.0
 40
0.0001703701783874
 50
193.1141093550093899
 51
252.2289128525399917
  0
ARC
  5
D6F9
  8
0
 10
3468.6742229790238525
 20
220.7335121948003973
 30
0.0
 40
0.0002433454753144
 50
144.3743593372149974
 51
193.1141093549844925
  0
ARC
  5
D6FA
  8
0
 10
3468.6757953939008985
 20
220.7318945321142962
 30
0.0
 40
0.0024958328118009
 50
111.9771053755500958
 51
135.175438101751098
  0
ARC
  5
D6FB
  8
0
 10
3468.6927804282217949
 20
220.6884389615701991
 30
0.0
 40
0.0491527154623065
 50
102.6763106122407976
 51
111.3804455813313012
  0
ARC
  5
D6FC
  8
0
 10
3468.7308764699278072
 20
220.5327214403787934
 30
0.0
 40
0.2094560148221127
 50
99.8530544735121453
 51
103.4959821712938037
  0
ARC
  5
D6FD
  8
0
 10
3468.6079499137390485
 20
220.7000782371108869
 30
0.0
 40
0.0003392308149331
 50
357.1924270886124191
 51
37.8501052468231265
  0
ARC
  5
D6FE
  8
0
 10
3468.6073363976388464
 20
220.699601485325303
 30
0.0
 40
0.0011162084655582
 50
37.8501052468321433
 51
86.631963725443569
  0
ARC
  5
D6FF
  8
0
 10
3468.6007422905850035
 20
220.660468754473186
 30
0.0
 40
0.0407942803617138
 50
80.604386690176284
 51
92.6581707026873289
  0
ARC
  5
D700
  8
0
 10
3468.6093786729138628
 20
220.3750564785279948
 30
0.0
 40
0.3263325406356747
 50
91.8488264067005957
 51
96.962186190365486
  0
ARC
  5
D701
  8
0
 10
3468.6176723727789977
 20
220.279599734725906
 30
0.0
 40
0.4221039361072379
 50
96.5090626136704941
 51
100.0984693990479002
  0
ARC
  5
D702
  8
0
 10
3468.5651494443259253
 20
220.5687245721665874
 30
0.0
 40
0.1282528754610004
 50
99.6454857084030721
 51
106.1149496536693988
  0
ARC
  5
D703
  8
0
 10
3468.5328665987281056
 20
220.6802962315503009
 30
0.0
 40
0.0121047159740734
 50
105.8975771047145003
 51
121.2443991517491071
  0
ARC
  5
D704
  8
0
 10
3468.5271890378107855
 20
220.6897717840959103
 30
0.0
 40
0.0010603236875417
 50
124.5299338315109026
 51
152.5523227887734947
  0
ARC
  5
D705
  8
0
 10
3468.5265618905809788
 20
220.6901242632141873
 30
0.0
 40
0.0003421255342232
 50
156.5287506015222903
 51
189.0755096565737006
  0
ARC
  5
D706
  8
0
 10
3468.5265184506929472
 20
220.6901193518401953
 30
0.0
 40
0.0002984614716081
 50
189.4598649833220918
 51
199.4595779892750897
  0
ARC
  5
D707
  8
0
 10
3468.5269094611039691
 20
220.6903735024100115
 30
0.0
 40
0.0007597181167281
 50
207.7367714156252134
 51
249.1329343988765004
  0
ARC
  5
D708
  8
0
 10
3468.528936179844095
 20
220.6954137103195137
 30
0.0
 40
0.0061920376178041
 50
248.2218489803825889
 51
263.3754759910448229
  0
ARC
  5
D709
  8
0
 10
3468.5352926005348309
 20
220.7759403472213933
 30
0.0
 40
0.0869652550410576
 50
265.3363934350571185
 51
274.0016584263503887
  0
ARC
  5
D70A
  8
0
 10
3468.5200050121748063
 20
221.0686084517581946
 30
0.0
 40
0.3800219119949887
 50
273.2216081417906253
 51
276.8346513616842799
  0
ARC
  5
D70B
  8
0
 10
3468.5134460866388508
 20
221.1364268962560118
 30
0.0
 40
0.4481416705769298
 50
276.6354087734392806
 51
279.2436657711161274
  0
ARC
  5
D70C
  8
0
 10
3468.5658310859907942
 20
220.8309640006384882
 30
0.0
 40
0.1382558467817776
 50
278.1507049299693222
 51
287.1189776205087014
  0
ARC
  5
D70D
  8
0
 10
3468.6044939932348825
 20
220.704352458905106
 30
0.0
 40
0.0058817217268476
 50
290.2280875051091016
 51
307.0788637544170001
  0
ARC
  5
D70E
  8
0
 10
3468.6075682824289288
 20
220.7002426104810979
 30
0.0
 40
0.0007497507311691
 50
309.004731049552106
 51
341.9447409290252153
  0
ARC
  5
D70F
  8
0
 10
3468.6079473955091999
 20
220.7000860075702064
 30
0.0
 40
0.0003422123706071
 50
347.1843848659887044
 51
355.8537654639641801
  0
ARC
  5
D710
  8
0
 10
3468.5948422195260719
 20
220.4710841290797987
 30
0.0
 40
0.2275703952171147
 50
94.3537835719199478
 51
97.0061783646043807
  0
ARC
  5
D711
  8
0
 10
3468.5862222800878953
 20
220.5843040867368927
 30
0.0
 40
0.1140227745120131
 50
90.8582269692671929
 51
94.3537835719199478
  0
ARC
  5
D712
  8
0
 10
3468.5848969321659752
 20
220.6727785413216054
 30
0.0
 40
0.0255383936237775
 50
83.7113679455152351
 51
90.8582269692671929
  0
ARC
  5
D713
  8
0
 10
3468.5873571427700881
 20
220.6951034597317118
 30
0.0
 40
0.0030783264324885
 50
66.9609066012083645
 51
83.7113679455414967
  0
ARC
  5
D714
  8
0
 10
3468.5884218686360327
 20
220.6976070459010089
 30
0.0
 40
0.000357741040004
 50
30.971217462640471
 51
66.9609066012393441
  0
ARC
  5
D715
  8
0
 10
3468.5886035544581318
 20
220.6977160895725092
 30
0.0
 40
0.0001458442250279
 50
353.6593448418465755
 51
30.9712174631515502
  0
ARC
  5
D716
  8
0
 10
3468.5885025260749899
 20
220.697727315775694
 30
0.0
 40
0.000247494418523
 50
317.7032326602645753
 51
353.6593448422959227
  0
ARC
  5
D717
  8
0
 10
3468.5867711424098161
 20
220.6998075506105863
 30
0.0
 40
0.0029518097987118
 50
287.9124815922252765
 51
310.433677467466282
  0
ARC
  5
D718
  8
0
 10
3468.5743130170658333
 20
220.7370223808150911
 30
0.0
 40
0.0421963866403139
 50
280.6156597330465274
 51
288.4669072763222175
  0
ARC
  5
D719
  8
0
 10
3468.5434694745449633
 20
220.8938573379008972
 30
0.0
 40
0.202034131375147
 50
276.5274107141693776
 51
281.019366048670804
  0
ARC
  5
D71A
  8
0
 10
3468.5415193981989432
 20
220.900707925542406
 30
0.0
 40
0.2090652032669371
 50
273.6798297487835043
 51
276.8449540549564176
  0
ARC
  5
D71B
  8
0
 10
3468.550661449072777
 20
220.745332304643199
 30
0.0
 40
0.0534299234069427
 50
265.9048955260479943
 51
274.5902539079461917
  0
ARC
  5
D71C
  8
0
 10
3468.5470877424118044
 20
220.694736164961995
 30
0.0
 40
0.0027081911124652
 50
243.4016948832681067
 51
264.8766344564728001
  0
ARC
  5
D71D
  8
0
 10
3468.5459356941992155
 20
220.6924738558259094
 30
0.0
 40
0.0001703701783874
 50
190.0860240589838952
 51
249.2008275565333975
  0
ARC
  5
D71E
  8
0
 10
3468.5460075417308872
 20
220.6924866357396979
 30
0.0
 40
0.0002433454753144
 50
141.3462740412053051
 51
190.0860240589645969
  0
ARC
  5
D71F
  8
0
 10
3468.5474923073670652
 20
220.6907881681599974
 30
0.0
 40
0.0024958328118009
 50
108.9490200795264059
 51
132.147352805715002
  0
ARC
  5
D720
  8
0
 10
3468.5621580660540531
 20
220.6464960297566051
 30
0.0
 40
0.0491527154623065
 50
99.6482253162348144
 51
108.3523602853185963
  0
ARC
  5
D721
  8
0
 10
3468.5919750670300346
 20
220.4889834865975899
 30
0.0
 40
0.2094560148221127
 50
96.8249691775023678
 51
100.4678968752684938
  0
LINE
  5
D722
  8
0
 10
3468.6082810830071139
 20
220.7000100999891004
 30
0.0
 11
3468.6114914268669054
 21
220.7254613319381917
 31
0.0
  0
LINE
  5
D723
  8
0
 10
3468.5262294434619434
 20
220.6900448262072985
 30
0.0
 11
3468.5188325200651889
 21
220.7158273323165929
 31
0.0
  0
LINE
  5
D724
  8
0
 10
3468.1607193127929349
 20
220.7372106827830009
 30
0.0
 11
3468.1611517186602214
 21
220.6879681446573045
 31
0.0
  0
ARC
  5
D725
  8
0
 10
3468.1729643634780587
 20
220.6880718732041942
 30
0.0
 40
0.0118131002379449
 50
180.5031096163849895
 51
240.6925678515165998
  0
ARC
  5
D726
  8
0
 10
3468.4367989186348495
 20
221.158076655853705
 30
0.0
 40
0.5508058350759195
 50
240.6925678515165998
 51
299.3074321189292277
  0
ARC
  5
D727
  8
0
 10
3468.7006334721031635
 20
220.6880718756443969
 30
0.0
 40
0.0118131031924336
 50
299.3074321189299098
 51
359.5038085690903813
  0
LINE
  5
D728
  8
0
 10
3468.7124461323151081
 20
220.687969573391797
 30
0.0
 11
3468.7128713969309501
 21
220.7370741267172036
 31
0.0
  0
ARC
  5
D729
  8
0
 10
3463.3265706786291958
 20
212.2439140257646102
 30
0.0
 40
0.1496046590109786
 50
269.9969436052739979
 51
359.9730720838301181
  0
ARC
  5
D72A
  8
0
 10
3461.7360035126798721
 20
212.243913965965703
 30
0.0
 40
0.1496045992133792
 50
180.0269050353502962
 51
270.0030655039029739
  0
LINE
  5
D72B
  8
0
 10
3461.736011516995859
 20
212.0943093669663995
 30
0.0
 11
3463.3265626980960405
 21
212.0943093669663995
 31
0.0
  0
ENDSEC
  0
EOF
