  0
SECTION
  2
HEADER
  9
$ACADVER
  1
AC1009
  9
$INSBASE
 10
3462.5315595964898421
 20
200.7146067611589899
 30
0.0
  9
$EXTMIN
 10
3455.3662052657718959
 20
200.7146067611589899
 30
0.0
  9
$EXTMAX
 10
3469.6969139272719076
 20
211.1553547926590113
 30
0.0
  9
$LIMMIN
 10
0.0
 20
0.0
  9
$LIMMAX
 10
11.6929133858000007
 20
8.2677165353999982
  9
$ORTHOMODE
 70
     0
  9
$REGENMODE
 70
     1
  9
$FILLMODE
 70
     1
  9
$QTEXTMODE
 70
     0
  9
$MIRRTEXT
 70
     0
  9
$DRAGMODE
 70
     2
  9
$LTSCALE
 40
0.6431102362
  9
$OSMODE
 70
  2047
  9
$ATTMODE
 70
     1
  9
$TEXTSIZE
 40
0.2
  9
$TRACEWID
 40
0.05
  9
$TEXTSTYLE
  7
STANDARD
  9
$CLAYER
  8
0
  9
$CELTYPE
  6
BYLAYER
  9
$CECOLOR
 62
   256
  9
$DIMSCALE
 40
1.0
  9
$DIMASZ
 40
0.1875
  9
$DIMEXO
 40
0.0625
  9
$DIMDLI
 40
0.4443307087
  9
$DIMRND
 40
0.0
  9
$DIMDLE
 40
0.0
  9
$DIMEXE
 40
0.125
  9
$DIMTP
 40
0.01
  9
$DIMTM
 40
0.01
  9
$DIMTXT
 40
2.0
  9
$DIMCEN
 40
0.1052362205
  9
$DIMTSZ
 40
0.0
  9
$DIMTOL
 70
     1
  9
$DIMLIM
 70
     0
  9
$DIMTIH
 70
     1
  9
$DIMTOH
 70
     1
  9
$DIMSE1
 70
     0
  9
$DIMSE2
 70
     0
  9
$DIMTAD
 70
     0
  9
$DIMZIN
 70
     0
  9
$DIMBLK
  1

  9
$DIMASO
 70
     1
  9
$DIMSHO
 70
     1
  9
$DIMPOST
  1
\X
  9
$DIMAPOST
  1

  9
$DIMALT
 70
     1
  9
$DIMALTD
 70
     2
  9
$DIMALTF
 40
25.3999999999999986
  9
$DIMLFAC
 40
1.0
  9
$DIMTOFL
 70
     0
  9
$DIMTVP
 40
0.0
  9
$DIMTIX
 70
     0
  9
$DIMSOXD
 70
     0
  9
$DIMSAH
 70
     0
  9
$DIMBLK1
  1

  9
$DIMBLK2
  1

  9
$DIMSTYLE
  2
STANDARD
  9
$DIMCLRD
 70
     0
  9
$DIMCLRE
 70
     0
  9
$DIMCLRT
 70
     0
  9
$DIMTFAC
 40
1.0
  9
$DIMGAP
 40
0.09
  9
$LUNITS
 70
     2
  9
$LUPREC
 70
     4
  9
$SKETCHINC
 40
0.1
  9
$FILLETRAD
 40
0.0
  9
$AUNITS
 70
     0
  9
$AUPREC
 70
     0
  9
$MENU
  1
.
  9
$ELEVATION
 40
0.0
  9
$PELEVATION
 40
0.0
  9
$THICKNESS
 40
0.0
  9
$LIMCHECK
 70
     0
  9
$BLIPMODE
 70
     0
  9
$CHAMFERA
 40
0.0
  9
$CHAMFERB
 40
0.0
  9
$SKPOLY
 70
     0
  9
$TDCREATE
 40
2458060.468368056230247
  9
$TDUPDATE
 40
2459028.4624189808964729
  9
$TDINDWG
 40
0.7149376157
  9
$TDUSRTIMER
 40
0.7149376157
  9
$USRTIMER
 70
     1
  9
$ANGBASE
 50
0.0
  9
$ANGDIR
 70
     0
  9
$PDMODE
 70
     0
  9
$PDSIZE
 40
0.3125
  9
$PLINEWID
 40
0.0
  9
$COORDS
 70
     1
  9
$SPLFRAME
 70
     0
  9
$SPLINETYPE
 70
     6
  9
$SPLINESEGS
 70
     8
  9
$ATTDIA
 70
     1
  9
$ATTREQ
 70
     1
  9
$HANDLING
 70
     1
  9
$HANDSEED
  5
DEBA
  9
$SURFTAB1
 70
     6
  9
$SURFTAB2
 70
     6
  9
$SURFTYPE
 70
     6
  9
$SURFU
 70
     6
  9
$SURFV
 70
     6
  9
$UCSNAME
  2

  9
$UCSORG
 10
0.0
 20
0.0
 30
0.0
  9
$UCSXDIR
 10
1.0
 20
0.0
 30
0.0
  9
$UCSYDIR
 10
0.0
 20
1.0
 30
0.0
  9
$PUCSNAME
  2

  9
$PUCSORG
 10
0.0
 20
0.0
 30
0.0
  9
$PUCSXDIR
 10
1.0
 20
0.0
 30
0.0
  9
$PUCSYDIR
 10
0.0
 20
1.0
 30
0.0
  9
$USERI1
 70
     0
  9
$USERI2
 70
     0
  9
$USERI3
 70
     0
  9
$USERI4
 70
     0
  9
$USERI5
 70
     0
  9
$USERR1
 40
0.0
  9
$USERR2
 40
0.0
  9
$USERR3
 40
0.0
  9
$USERR4
 40
0.0
  9
$USERR5
 40
0.0
  9
$WORLDVIEW
 70
     1
  9
$SHADEDGE
 70
     3
  9
$SHADEDIF
 70
    70
  9
$TILEMODE
 70
     1
  9
$MAXACTVP
 70
    64
  9
$PLIMCHECK
 70
     0
  9
$PEXTMIN
 10
1.0000000000000000E+20
 20
1.0000000000000000E+20
 30
1.0000000000000000E+20
  9
$PEXTMAX
 10
-1.0000000000000000E+20
 20
-1.0000000000000000E+20
 30
-1.0000000000000000E+20
  9
$PLIMMIN
 10
0.0
 20
0.0
  9
$PLIMMAX
 10
12.0
 20
9.0
  9
$UNITMODE
 70
     0
  9
$VISRETAIN
 70
     1
  9
$PLINEGEN
 70
     0
  9
$PSLTSCALE
 70
     1
  0
ENDSEC
  0
SECTION
  2
TABLES
  0
TABLE
  2
VPORT
 70
     1
  0
VPORT
  2
*ACTIVE
 70
     0
 10
0.0
 20
0.0
 11
1.0
 21
1.0
 12
-20.2805741925401506
 22
-0.4690803289745987
 13
0.0
 23
0.0
 14
1.0
 24
1.0
 15
0.0
 25
0.0
 16
0.0
 26
0.0
 36
32.8147386803597172
 17
3482.8121337890629547
 27
206.4040611058836134
 37
0.0
 40
10.5311441183528007
 41
2.7557803468208091
 42
50.0
 43
0.0
 44
0.0
 50
0.0
 51
0.0
 71
     0
 72
   100
 73
     1
 74
     1
 75
     0
 76
     0
 77
     0
 78
     0
  0
ENDTAB
  0
TABLE
  2
LTYPE
 70
     2
  0
LTYPE
  2
CONTINUOUS
 70
     0
  3
Solid line
 72
    65
 73
     0
 40
0.0
  0
LTYPE
  2
PHANTOM2
 70
     0
  3
___ _ _ ___ _ _ ___ _ _ ___ _ _
 72
    65
 73
     6
 40
1.25
 49
0.625
 49
-0.125
 49
0.125
 49
-0.125
 49
0.125
 49
-0.125
  0
ENDTAB
  0
TABLE
  2
LAYER
 70
     2
  0
LAYER
  2
0
 70
     0
 62
   255
  6
CONTINUOUS
  0
LAYER
  2
DEFPOINTS
 70
     0
 62
     7
  6
CONTINUOUS
  0
ENDTAB
  0
TABLE
  2
STYLE
 70
     1
  0
STYLE
  2
STANDARD
 70
     0
 40
0.0
 41
0.8
 50
0.0
 71
     0
 42
0.2
  3
txt
  4

  0
ENDTAB
  0
TABLE
  2
VIEW
 70
     0
  0
ENDTAB
  0
TABLE
  2
UCS
 70
     0
  0
ENDTAB
  0
TABLE
  2
APPID
 70
     9
  0
APPID
  2
ACAD
 70
     0
  0
APPID
  2
ACAD_MLEADERVER
 70
     0
  0
APPID
  2
ACAD_EXEMPT_FROM_CAD_STANDARDS
 70
     0
  0
APPID
  2
ACAD_NAV_VCDISPLAY
 70
     0
  0
APPID
  2
ACAECLAYERSTANDARD
 70
     0
  0
APPID
  2
ACCMTRANSPARENCY
 70
     0
  0
APPID
  2
ACAD_DSTYLE_DIMJAG
 70
     0
  0
APPID
  2
ACAD_DSTYLE_DIMTALN
 70
     0
  0
APPID
  2
ACDBATTR
 70
     0
  0
ENDTAB
  0
TABLE
  2
DIMSTYLE
 70
     1
  0
DIMSTYLE
  2
STANDARD
 70
     0
  3

  4

  5

  6

  7

 40
1.0
 41
0.1875
 42
0.0625
 43
0.38
 44
0.125
 45
0.0
 46
0.0
 47
0.01
 48
0.01
140
0.15625
141
0.09
142
0.0
143
25.3999999999999986
144
1.0
145
0.0
146
1.0
147
0.09
 71
     1
 72
     0
 73
     1
 74
     1
 75
     0
 76
     0
 77
     0
 78
     4
170
     0
171
     2
172
     0
173
     0
174
     0
175
     0
176
     0
177
     0
178
     0
  0
ENDTAB
  0
ENDSEC
  0
SECTION
  2
BLOCKS
  0
BLOCK
  8
0
  2
$MODEL_SPACE
 70
     0
 10
0.0
 20
0.0
 30
0.0
  3
$MODEL_SPACE
  1

  0
ENDBLK
  5
21
  8
0
  0
BLOCK
 67
     1
  8
0
  2
$PAPER_SPACE
 70
     0
 10
0.0
 20
0.0
 30
0.0
  3
$PAPER_SPACE
  1

  0
ENDBLK
  5
1D
 67
     1
  8
0
  0
BLOCK
  8
0
  2
_FILLED
 70
     0
 10
0.0
 20
0.0
 30
0.0
  3
_FILLED
  1

  0
SOLID
  5
D552
  8
0
  6
BYBLOCK
 62
     0
 10
0.0
 20
0.0
 30
0.0
 11
-1.0
 21
0.1666666667
 31
0.0
 12
-1.0
 22
-0.1666666667
 32
0.0
 13
-1.0
 23
-0.1666666667
 33
0.0
  0
ENDBLK
  5
D553
  8
0
  6
BYBLOCK
 62
     0
  0
ENDSEC
  0
SECTION
  2
ENTITIES
  0
ATTDEF
  5
CE69
  8
DEFPOINTS
 10
3462.5318321092099723
 20
200.7182811849114898
 30
0.0
 40
0.001
  1
K-73078T-4E
  3

  2
MODELNUMBER
 70
     0
1001
ACDBATTR
1070
     0
1070
     1
  0
ATTDEF
  5
CE6A
  8
DEFPOINTS
 10
3462.5318321092099723
 20
200.7166145182447963
 30
0.0
 40
0.001
  1
COMPOSED
  3

  2
TRADENAME
 70
     0
1001
ACDBATTR
1070
     0
1070
     1
  0
ATTDEF
  5
CE6B
  8
DEFPOINTS
 10
3462.5318321092099723
 20
200.714947851578188
 30
0.0
 40
0.001
  1
BATH FAUCET
  3

  2
PRODUCT
 70
     0
1001
ACDBATTR
1070
     0
1070
     1
  0
LINE
  5
D925
  8
0
 10
3463.791402116172776
 20
200.74610282415901
 30
0.0
 11
3463.791402116172776
 21
200.879961091859002
 31
0.0
  0
LINE
  5
D926
  8
0
 10
3455.3977013287722002
 20
200.7146067611589899
 30
0.0
 11
3457.8543942421720203
 21
200.7146067611589899
 31
0.0
  0
LINE
  5
D927
  8
0
 10
3461.3032131398581441
 20
200.7146067611589899
 30
0.0
 11
3463.7599060531219948
 21
200.7146067611589899
 31
0.0
  0
LINE
  5
D928
  8
0
 10
3467.2087204269228096
 20
200.7146067611589899
 30
0.0
 11
3469.6654133403221749
 21
200.7146067611589899
 31
0.0
  0
LINE
  5
D929
  8
0
 10
3469.6654133403221749
 20
200.9114571548589936
 30
0.0
 11
3467.2087204269228096
 21
200.9114571548589936
 31
0.0
  0
LINE
  5
D92A
  8
0
 10
3463.7599060531219948
 20
200.9114571548589936
 30
0.0
 11
3461.3032131398581441
 21
200.9114571548589936
 31
0.0
  0
LINE
  5
D92B
  8
0
 10
3457.8543942421720203
 20
200.9114571548589936
 30
0.0
 11
3455.3977013287722002
 21
200.9114571548589936
 31
0.0
  0
LINE
  5
D92C
  8
0
 10
3469.0748621592219934
 20
201.7185437690590106
 30
0.0
 11
3467.7992716080220816
 21
201.7185437690590106
 31
0.0
  0
LINE
  5
D92D
  8
0
 10
3467.7677755450231416
 20
201.6870477060589906
 30
0.0
 11
3467.7677755450231416
 21
200.970512272959013
 31
0.0
  0
LINE
  5
D92E
  8
0
 10
3463.3518021722788944
 20
207.2091415031113115
 30
0.0
 11
3462.5315595964721069
 21
207.2091415031113115
 31
0.0
  0
ARC
  5
D92F
  8
0
 10
3457.8543942421720203
 20
200.7461028241590952
 30
0.0
 40
0.031496063000017
 50
270.0000000000259774
 51
359.9999999999740226
  0
ARC
  5
D930
  8
0
 10
3457.8543942421720203
 20
200.879961091859002
 30
0.0
 40
0.0314960629999934
 50
0.000000000014656
 51
90.0
  0
ARC
  5
D931
  8
0
 10
3457.5394336122722052
 20
200.9429532178590136
 30
0.0
 40
0.031496063
 50
270.0
 51
334.704579072705485
  0
ARC
  5
D932
  8
0
 10
3463.7599060530869792
 20
200.7461028242443888
 30
0.0
 40
0.0314960630854008
 50
270.0000000643822204
 51
359.9999998446448899
  0
ARC
  5
D933
  8
0
 10
3463.7599060530869792
 20
200.8799610917737084
 30
0.0
 40
0.0314960630853847
 50
0.000000155304704
 51
89.9999999356178364
  0
ARC
  5
D934
  8
0
 10
3467.2087204269569156
 20
200.7461028242443888
 30
0.0
 40
0.0314960630853705
 50
180.000000155289996
 51
269.9999999356439275
  0
ARC
  5
D935
  8
0
 10
3467.2087204269569156
 20
200.8799610917735947
 30
0.0
 40
0.0314960630853908
 50
90.0000000643300666
 51
179.9999998446610903
  0
ARC
  5
D936
  8
0
 10
3469.6653951777871043
 20
200.8799163168064865
 30
0.0
 40
0.0315408432819203
 50
2.144675090685193
 51
89.967006694065546
  0
ARC
  5
D937
  8
0
 10
3469.6653951777871043
 20
200.7461475992116107
 30
0.0
 40
0.0315408432819134
 50
270.032993305934383
 51
357.8553249093441195
  0
ARC
  5
D938
  8
0
 10
3463.4449454232230892
 20
200.9429532178590136
 30
0.0
 40
0.031496063
 50
270.0
 51
0.0
  0
ARC
  5
D939
  8
0
 10
3467.7087204269228096
 20
200.970512272959013
 30
0.0
 40
0.0590551181
 50
270.0
 51
0.0
  0
ARC
  5
D93A
  8
0
 10
3467.7992716080220816
 20
201.6870477060589906
 30
0.0
 40
0.031496063
 50
90.0
 51
180.0
  0
ARC
  5
D93B
  8
0
 10
3469.1654101416547746
 20
200.9705045507600971
 30
0.0
 40
0.0590473959877923
 50
179.9925068769489087
 51
270.0031037800233094
  0
ARC
  5
D93C
  8
0
 10
3469.0748546595041262
 20
201.6870294608368965
 30
0.0
 40
0.0315143091145368
 50
1.138600773618146
 51
89.9863648547269719
  0
ARC
  5
D93D
  8
0
 10
3463.4424371523600712
 20
206.306327984573187
 30
0.0
 40
0.0340057546383259
 50
0.5237520292276387
 51
69.39039008300756
  0
LINE
  5
D93E
  8
0
 10
3468.988252509871927
 20
211.1553547926590113
 30
0.0
 11
3467.8858903051727793
 21
211.1553547926590113
 31
0.0
  0
CIRCLE
  5
D93F
  8
0
 10
3468.4376933944731718
 20
205.5788297314589954
 30
0.0
 40
0.303396836160804
  0
CIRCLE
  5
D940
  8
0
 10
3468.4370177649720972
 20
205.5785975005589989
 30
0.0
 40
0.2757098977868138
  0
ARC
  5
D941
  8
0
 10
3463.9264484694808743
 20
289.3814356569350252
 30
0.0
 40
83.0231219629347805
 50
269.03731633156832
 51
269.4539449393383279
  0
ARC
  5
D942
  8
0
 10
3463.1057899839729544
 20
203.2750200072671873
 30
0.0
 40
3.0872043422371749
 50
85.0702996105916043
 51
89.4539449393382711
  0
ARC
  5
D943
  8
0
 10
3463.2604062171290025
 20
205.0676211806841991
 30
0.0
 40
1.2879475105170599
 50
82.4058755646682641
 51
85.0702996105916043
  0
ARC
  5
D944
  8
0
 10
3463.4169439166657867
 20
206.2417351004322938
 30
0.0
 40
0.1034444299291039
 50
68.767222042467111
 51
82.4058755646682641
  0
ARC
  5
D945
  8
0
 10
3463.5330280732409847
 20
210.4843676082828949
 30
0.0
 40
3.2802360993040578
 50
266.8329204043382106
 51
268.3211575370988839
  0
ARC
  5
D946
  8
0
 10
3463.4372047592091803
 20
207.1529744484483047
 30
0.0
 40
0.0525658486446467
 50
66.4572725753136098
 51
90.3032436760372264
  0
ARC
  5
D947
  8
0
 10
3463.4446340753088407
 20
207.1723956190249964
 30
0.0
 40
0.0318078223101936
 50
0.2914079216688279
 51
64.7520165007181987
  0
ARC
  5
D948
  8
0
 10
3463.4407909216001826
 20
206.3711829404639957
 30
0.0
 40
0.0357151750050003
 50
292.393900239448385
 51
356.5531063007896933
  0
LINE
  5
D949
  8
0
 10
3462.2502168364708268
 20
206.4911761873050864
 30
0.0
 11
3462.5315595964721069
 21
206.4916363633051049
 31
0.0
  0
ARC
  5
D94A
  8
0
 10
3462.5843435862611841
 20
215.2149058555692136
 30
0.0
 40
8.7339403679604874
 50
268.290796203034688
 51
269.6537280856276197
  0
ARC
  5
D94B
  8
0
 10
3462.3275266693331105
 20
206.9526202932948991
 30
0.0
 40
0.4678754890029837
 50
260.4890606870417855
 51
269.9527918854681729
  0
ARC
  5
D94C
  8
0
 10
3462.2549782424880505
 20
206.4866918816817076
 30
0.0
 40
0.006540640961408
 50
95.8905024315011332
 51
136.7166803967083126
  0
ARC
  5
D94D
  8
0
 10
3462.358115527685186
 20
205.5688905267180075
 30
0.0
 40
0.9301185372277886
 50
90.6006423463646939
 51
96.4080097291800655
  0
ARC
  5
D94E
  8
0
 10
3462.5235604197641806
 20
200.0247934869204869
 30
0.0
 40
6.4765344875836552
 50
89.9292338854439492
 51
91.6660713684701847
  0
LINE
  5
D94F
  8
0
 10
3462.5276225886709653
 20
206.4844929316051889
 30
0.0
 11
3462.5276225886709653
 21
206.482500339205103
 31
0.0
  0
ARC
  5
D950
  8
0
 10
3462.5309432294670842
 20
213.6303275954579988
 30
0.0
 40
7.1478280275820048
 50
269.5311528092541948
 51
270.0049406935689831
  0
LINE
  5
D951
  8
0
 10
3462.4724537260649413
 20
206.4827388768844969
 30
0.0
 11
3462.4872376831708607
 21
206.4846644384051046
 31
0.0
  0
LINE
  5
D952
  8
0
 10
3462.4872376831708607
 20
206.4846644384051046
 30
0.0
 11
3462.4872376831708607
 21
206.4846644384051046
 31
0.0
  0
LINE
  5
D953
  8
0
 10
3462.4872376831708607
 20
206.4846644384051046
 30
0.0
 11
3462.5315595964721069
 21
206.4844762119024892
 31
0.0
  0
ARC
  5
D954
  8
0
 10
3462.2810613935312176
 20
206.5027397466764967
 30
0.0
 40
0.0133133495568216
 50
236.5122432488410027
 51
267.8012970424881019
  0
LINE
  5
D955
  8
0
 10
3462.2805506243721538
 20
206.489436198605091
 30
0.0
 11
3462.3357251035708941
 21
206.4899521512051024
 31
0.0
  0
ARC
  5
D956
  8
0
 10
3462.3388178687428081
 20
206.5059520419266903
 30
0.0
 40
0.0162960639269226
 50
241.4589020732840083
 51
259.0597029566579863
  0
LINE
  5
D957
  8
0
 10
3462.2863920401578071
 20
206.4889218372487107
 30
0.0
 11
3462.339800994071993
 21
206.4894212800051037
 31
0.0
  0
LINE
  5
D958
  8
0
 10
3462.339800994071993
 20
206.4894212800051037
 30
0.0
 11
3462.3557375321711334
 21
206.4881149392051043
 31
0.0
  0
LINE
  5
D959
  8
0
 10
3462.3557375321711334
 20
206.4881149392051043
 30
0.0
 11
3462.3070630422571412
 21
206.4871341855134972
 31
0.0
  0
LINE
  5
D95A
  8
0
 10
3462.3070630422571412
 20
206.4871341855134972
 30
0.0
 11
3462.2863920401578071
 21
206.4889218372487107
 31
0.0
  0
LINE
  5
D95B
  8
0
 10
3462.3110711521990197
 20
206.4868417307851871
 30
0.0
 11
3462.3596745400718646
 21
206.4878769561051115
 31
0.0
  0
LINE
  5
D95C
  8
0
 10
3462.3549077380921517
 20
206.4880982194900128
 30
0.0
 11
3462.3841229072718306
 21
206.4867421222051007
 31
0.0
  0
LINE
  5
D95D
  8
0
 10
3462.4323997559540658
 20
206.4884269599392042
 30
0.0
 11
3462.3437323852708687
 21
206.4853325133051101
 31
0.0
  0
LINE
  5
D95E
  8
0
 10
3462.3437323852708687
 20
206.4853325133051101
 30
0.0
 11
3462.3110711521990197
 21
206.4868417307851871
 31
0.0
  0
LINE
  5
D95F
  8
0
 10
3462.3437785412352241
 20
206.4845568745840865
 30
0.0
 11
3462.3952584471721821
 21
206.4863534974051049
 31
0.0
  0
LINE
  5
D960
  8
0
 10
3462.3823222353871643
 20
206.4866792796620985
 30
0.0
 11
3462.4345947454708039
 21
206.4853628621050916
 31
0.0
  0
LINE
  5
D961
  8
0
 10
3462.4345947454708039
 20
206.4853628621050916
 30
0.0
 11
3462.3986132877039381
 21
206.4837470178028127
 31
0.0
  0
LINE
  5
D962
  8
0
 10
3462.399228067471995
 20
206.4837746261445943
 30
0.0
 11
3462.2834386233748774
 21
206.4868266507735086
 31
0.0
  0
LINE
  5
D963
  8
0
 10
3462.3922005105318931
 20
206.4830174179820119
 30
0.0
 11
3462.4350158647971512
 21
206.4849339330318116
 31
0.0
  0
LINE
  5
D964
  8
0
 10
3462.4350158647971512
 20
206.4849339330318116
 30
0.0
 11
3462.472026252870819
 21
206.4848066850051111
 31
0.0
  0
LINE
  5
D965
  8
0
 10
3462.472026252870819
 20
206.4848066850051111
 30
0.0
 11
3462.4572422957721756
 21
206.4828811234050931
 31
0.0
  0
LINE
  5
D966
  8
0
 10
3462.4572422957721756
 20
206.4828811234050931
 30
0.0
 11
3462.3107978648108656
 21
206.4850439676440885
 31
0.0
  0
ARC
  5
D967
  8
0
 10
3462.3589951899348307
 20
206.5681796167974937
 30
0.0
 40
0.0799831835016217
 50
253.8275134385638978
 51
271.3308637937552135
  0
LINE
  5
D968
  8
0
 10
3462.3603636360380733
 20
206.4882081406431098
 30
0.0
 11
3462.4134482085860327
 21
206.4892789475968868
 31
0.0
  0
ARC
  5
D969
  8
0
 10
3462.4105365467930824
 20
206.5553696600746036
 30
0.0
 40
0.0661548187980672
 50
255.363867602268698
 51
275.6788244858295229
  0
LINE
  5
D96A
  8
0
 10
3462.3997286071708004
 20
206.491361564105091
 30
0.0
 11
3462.3367174785707903
 21
206.491361564105091
 31
0.0
  0
LINE
  5
D96B
  8
0
 10
3462.504283205871161
 20
206.491361564105091
 30
0.0
 11
3462.5145118523710153
 21
206.4907432659051096
 31
0.0
  0
LINE
  5
D96C
  8
0
 10
3462.5145118523710153
 20
206.4907432659051096
 30
0.0
 11
3462.4967155606718734
 21
206.4896675210050887
 31
0.0
  0
LINE
  5
D96D
  8
0
 10
3462.4967155606718734
 20
206.4896675210050887
 30
0.0
 11
3462.4686906223710139
 21
206.491361564105091
 31
0.0
  0
LINE
  5
D96E
  8
0
 10
3462.4686906223710139
 20
206.491361564105091
 30
0.0
 11
3462.504283205871161
 21
206.491361564105091
 31
0.0
  0
LINE
  5
D96F
  8
0
 10
3462.3938205753711372
 20
206.491361564105091
 30
0.0
 11
3462.4627745366710769
 21
206.491361564105091
 31
0.0
  0
ARC
  5
D970
  8
0
 10
3462.4944192189291243
 20
206.7576510425886909
 30
0.0
 40
0.2681631448693593
 50
263.2230011519073969
 51
269.8586206831774916
  0
LINE
  5
D971
  8
0
 10
3462.4937575177691542
 20
206.4894887141049935
 30
0.0
 11
3462.4622345529710401
 21
206.4875832233051085
 31
0.0
  0
ARC
  5
D972
  8
0
 10
3462.4617567064769901
 20
206.9985922653382886
 30
0.0
 40
0.5110092654512127
 50
262.7786481742560909
 51
270.0535774852561985
  0
LINE
  5
D973
  8
0
 10
3462.4375480863709527
 20
206.4855413848050887
 30
0.0
 11
3462.4660996347720356
 21
206.4872672603050887
 31
0.0
  0
LINE
  5
D974
  8
0
 10
3462.4660996347720356
 20
206.4872672603050887
 30
0.0
 11
3462.5315595964721069
 21
206.4866551250960072
 31
0.0
  0
LINE
  5
D975
  8
0
 10
3462.5276225886709653
 20
206.4866919412050947
 30
0.0
 11
3462.5276225886709653
 21
206.4846990718050961
 31
0.0
  0
LINE
  5
D976
  8
0
 10
3462.4375480863709527
 20
206.4855413848050887
 30
0.0
 11
3462.5315595964721069
 21
206.4846622556943885
 31
0.0
  0
LINE
  5
D977
  8
0
 10
3462.5315595964721069
 20
206.4868960773465005
 30
0.0
 11
3462.4690536506709577
 21
206.4874458237050874
 31
0.0
  0
LINE
  5
D978
  8
0
 10
3462.4690536506709577
 20
206.4874458237050874
 30
0.0
 11
3462.501167675616216
 21
206.4893414023705986
 31
0.0
  0
LINE
  5
D979
  8
0
 10
3462.4924872602409778
 20
206.4894119299557929
 30
0.0
 11
3462.5315595964721069
 21
206.4890944707788947
 31
0.0
  0
LINE
  5
D97A
  8
0
 10
3462.5315595964721069
 20
206.4893005701796938
 30
0.0
 11
3462.4840084578981987
 21
206.4896900597553895
 31
0.0
  0
LINE
  5
D97B
  8
0
 10
3462.5035346583049432
 20
206.4895301213871051
 30
0.0
 11
3462.5315595964721069
 21
206.4912241644705944
 31
0.0
  0
LINE
  5
D97C
  8
0
 10
3462.521330949971798
 20
206.4906058663050885
 30
0.0
 11
3462.5315595964721069
 21
206.4905367747772971
 31
0.0
  0
LINE
  5
D97D
  8
0
 10
3462.5276225886718748
 20
206.4987797950049071
 30
0.0
 11
3462.5276225886718748
 21
206.5013267005807052
 31
0.0
  0
LINE
  5
D97E
  8
0
 10
3462.4724427075739186
 20
206.501126241524787
 30
0.0
 11
3462.4872376831708607
 21
206.4986082882049914
 31
0.0
  0
LINE
  5
D97F
  8
0
 10
3462.4872376831708607
 20
206.4986082882049914
 30
0.0
 11
3462.4872376831708607
 21
206.4986082882049914
 31
0.0
  0
LINE
  5
D980
  8
0
 10
3462.4872376831708607
 20
206.4986082882049914
 30
0.0
 11
3462.5315595964721069
 21
206.4987965147076068
 31
0.0
  0
ARC
  5
D981
  8
0
 10
3462.2810613935312176
 20
206.480532979933912
 30
0.0
 40
0.0133133495568216
 50
92.1987029574336674
 51
123.4877567510965974
  0
LINE
  5
D982
  8
0
 10
3462.2805506243721538
 20
206.4938365280052039
 30
0.0
 11
3462.3357251035708941
 21
206.4933205754051926
 31
0.0
  0
ARC
  5
D983
  8
0
 10
3462.3388178687428081
 20
206.4773206846836047
 30
0.0
 40
0.0162960639269226
 50
100.9402970432624045
 51
118.5410979266570024
  0
LINE
  5
D984
  8
0
 10
3462.2863920401578071
 20
206.4943508893616126
 30
0.0
 11
3462.339800994071993
 21
206.4938514466051913
 31
0.0
  0
LINE
  5
D985
  8
0
 10
3462.339800994071993
 20
206.4938514466051913
 30
0.0
 11
3462.3557375321711334
 21
206.4951577874051054
 31
0.0
  0
LINE
  5
D986
  8
0
 10
3462.3557375321711334
 20
206.4951577874051054
 30
0.0
 11
3462.3070630422571412
 21
206.4961385410969115
 31
0.0
  0
LINE
  5
D987
  8
0
 10
3462.3070630422571412
 20
206.4961385410969115
 30
0.0
 11
3462.2863920401578071
 21
206.4943508893616126
 31
0.0
  0
LINE
  5
D988
  8
0
 10
3462.3110711521990197
 20
206.4964309958251079
 30
0.0
 11
3462.3596745400718646
 21
206.4953957705052119
 31
0.0
  0
LINE
  5
D989
  8
0
 10
3462.3549077380921517
 20
206.4951745071203106
 30
0.0
 11
3462.3841229072718306
 21
206.496530604405109
 31
0.0
  0
LINE
  5
D98A
  8
0
 10
3462.4323997559540658
 20
206.4948457666710055
 30
0.0
 11
3462.3437323852708687
 21
206.4979402133052133
 31
0.0
  0
LINE
  5
D98B
  8
0
 10
3462.3437323852708687
 20
206.4979402133052133
 30
0.0
 11
3462.3110711521990197
 21
206.4964309958251079
 31
0.0
  0
LINE
  5
D98C
  8
0
 10
3462.3437785412352241
 20
206.4987158520262085
 30
0.0
 11
3462.3952584471721821
 21
206.4969192292051048
 31
0.0
  0
LINE
  5
D98D
  8
0
 10
3462.3823222353871643
 20
206.4965934469481113
 30
0.0
 11
3462.4345947454708039
 21
206.4979098645050044
 31
0.0
  0
LINE
  5
D98E
  8
0
 10
3462.4345947454708039
 20
206.4979098645050044
 30
0.0
 11
3462.3986132877039381
 21
206.499525708807397
 31
0.0
  0
LINE
  5
D98F
  8
0
 10
3462.399228067471995
 20
206.4994981004657006
 30
0.0
 11
3462.2923464851901372
 21
206.4966808728329966
 31
0.0
  0
LINE
  5
D990
  8
0
 10
3462.3962107692659629
 20
206.5000758001002055
 30
0.0
 11
3462.4350158647971512
 21
206.4983387935783981
 31
0.0
  0
LINE
  5
D991
  8
0
 10
3462.4350158647971512
 20
206.4983387935783981
 30
0.0
 11
3462.472026252870819
 21
206.4984660416050986
 31
0.0
  0
LINE
  5
D992
  8
0
 10
3462.472026252870819
 20
206.4984660416050986
 30
0.0
 11
3462.4572422957721756
 21
206.5003916032050881
 31
0.0
  0
LINE
  5
D993
  8
0
 10
3462.4572422957721756
 20
206.5003916032050881
 30
0.0
 11
3462.3259409776810571
 21
206.498452408265905
 31
0.0
  0
ARC
  5
D994
  8
0
 10
3462.3589951899348307
 20
206.4150931098128012
 30
0.0
 40
0.0799831835016217
 50
88.6691362061927038
 51
106.1724865613820015
  0
LINE
  5
D995
  8
0
 10
3462.3603636360389828
 20
206.4950645859672136
 30
0.0
 11
3462.4134482085860327
 21
206.4939937790132944
 31
0.0
  0
ARC
  5
D996
  8
0
 10
3462.4105365467930824
 20
206.4279030665356061
 30
0.0
 40
0.0661548187980672
 50
84.3211755140921042
 51
104.6361323976775992
  0
LINE
  5
D997
  8
0
 10
3462.3997286071708004
 20
206.4919111625050903
 30
0.0
 11
3462.3367174785707903
 21
206.4919111625052039
 31
0.0
  0
LINE
  5
D998
  8
0
 10
3462.504283205871161
 20
206.491911162505005
 30
0.0
 11
3462.5145118523710153
 21
206.4925294607049864
 31
0.0
  0
LINE
  5
D999
  8
0
 10
3462.5145118523710153
 20
206.4925294607049864
 30
0.0
 11
3462.4967155606718734
 21
206.4936052056050073
 31
0.0
  0
LINE
  5
D99A
  8
0
 10
3462.4967155606718734
 20
206.4936052056050073
 30
0.0
 11
3462.4686906223710139
 21
206.491911162505005
 31
0.0
  0
LINE
  5
D99B
  8
0
 10
3462.4686906223710139
 20
206.491911162505005
 30
0.0
 11
3462.504283205871161
 21
206.491911162505005
 31
0.0
  0
LINE
  5
D99C
  8
0
 10
3462.3938205753711372
 20
206.4919111625050903
 30
0.0
 11
3462.4627745366710769
 21
206.491911162505005
 31
0.0
  0
ARC
  5
D99D
  8
0
 10
3462.4944192189282148
 20
206.2256216840214051
 30
0.0
 40
0.2681631448693593
 50
90.141379316770383
 51
96.7769988480140029
  0
LINE
  5
D99E
  8
0
 10
3462.4937575177691542
 20
206.4937840125051025
 30
0.0
 11
3462.4622345529710401
 21
206.4956895033049875
 31
0.0
  0
ARC
  5
D99F
  8
0
 10
3462.4617567064760806
 20
205.9846804612718074
 30
0.0
 40
0.5110092654512127
 50
89.946422514691605
 51
97.2213518256651383
  0
LINE
  5
D9A0
  8
0
 10
3462.4375480863709527
 20
206.4977313418050073
 30
0.0
 11
3462.4660996347720356
 21
206.4960054663050073
 31
0.0
  0
LINE
  5
D9A1
  8
0
 10
3462.4660996347720356
 20
206.4960054663050073
 30
0.0
 11
3462.5315595964721069
 21
206.4966176015140888
 31
0.0
  0
LINE
  5
D9A2
  8
0
 10
3462.5276225886718748
 20
206.4965807854050013
 30
0.0
 11
3462.5276225886718748
 21
206.4985736548049999
 31
0.0
  0
LINE
  5
D9A3
  8
0
 10
3462.4375480863709527
 20
206.4977313418050073
 30
0.0
 11
3462.5315595964721069
 21
206.4986104709157075
 31
0.0
  0
LINE
  5
D9A4
  8
0
 10
3462.5315595964721069
 20
206.4963766492635955
 30
0.0
 11
3462.4690536506709577
 21
206.4958269029050086
 31
0.0
  0
LINE
  5
D9A5
  8
0
 10
3462.4690536506709577
 20
206.4958269029050086
 30
0.0
 11
3462.501167675616216
 21
206.4939313242394974
 31
0.0
  0
LINE
  5
D9A6
  8
0
 10
3462.4924872602409778
 20
206.4938607966543884
 30
0.0
 11
3462.5315595964721069
 21
206.4941782558312013
 31
0.0
  0
LINE
  5
D9A7
  8
0
 10
3462.5315595964721069
 20
206.4939721564302886
 30
0.0
 11
3462.4840084578981987
 21
206.4935826668547918
 31
0.0
  0
LINE
  5
D9A8
  8
0
 10
3462.5035346583049432
 20
206.4937426052229057
 30
0.0
 11
3462.5315595964721069
 21
206.4920485621395017
 31
0.0
  0
LINE
  5
D9A9
  8
0
 10
3462.521330949971798
 20
206.4926668603050075
 30
0.0
 11
3462.5315595964721069
 21
206.4927359518327989
 31
0.0
  0
LINE
  5
D9AA
  8
0
 10
3462.8129023564711133
 20
206.4911761873050864
 30
0.0
 11
3462.5315595964721069
 21
206.4916363633051049
 31
0.0
  0
ARC
  5
D9AB
  8
0
 10
3462.4787756066821203
 20
215.2149058555903025
 30
0.0
 40
8.7339403679815604
 50
270.3462719143723803
 51
271.7092037969651983
  0
ARC
  5
D9AC
  8
0
 10
3462.7355925236101939
 20
206.9526202932948991
 30
0.0
 40
0.4678754890029837
 50
270.0472081145318271
 51
279.5109393129582145
  0
ARC
  5
D9AD
  8
0
 10
3462.8081409504538897
 20
206.4866918816817076
 30
0.0
 40
0.006540640961408
 50
43.2833196032916874
 51
84.1094975684988668
  0
ARC
  5
D9AE
  8
0
 10
3462.7050036652581184
 20
205.5688905267180075
 30
0.0
 40
0.9301185372277886
 50
83.5919902708199487
 51
89.3993576536353345
  0
ARC
  5
D9AF
  8
0
 10
3462.5395587731782143
 20
200.0247934869204869
 30
0.0
 40
6.4765344875836552
 50
88.3339286315298153
 51
90.0707661145560508
  0
LINE
  5
D9B0
  8
0
 10
3462.5354966042709748
 20
206.4844929316051889
 30
0.0
 11
3462.5354966042709748
 21
206.482500339205103
 31
0.0
  0
ARC
  5
D9B1
  8
0
 10
3462.5321759634771297
 20
213.6303275954579988
 30
0.0
 40
7.1478280275820048
 50
269.9950593064309032
 51
270.4688471907456915
  0
LINE
  5
D9B2
  8
0
 10
3462.5906654668779083
 20
206.4827388768844969
 30
0.0
 11
3462.5758815097710794
 21
206.4846644384051046
 31
0.0
  0
LINE
  5
D9B3
  8
0
 10
3462.5758815097710794
 20
206.4846644384051046
 30
0.0
 11
3462.5758815097710794
 21
206.4846644384051046
 31
0.0
  0
LINE
  5
D9B4
  8
0
 10
3462.5758815097710794
 20
206.4846644384051046
 30
0.0
 11
3462.5315595964721069
 21
206.4844762119024892
 31
0.0
  0
ARC
  5
D9B5
  8
0
 10
3462.7820577994120868
 20
206.5027397466764967
 30
0.0
 40
0.0133133495568216
 50
272.1987029575118981
 51
303.4877567511589973
  0
LINE
  5
D9B6
  8
0
 10
3462.78256856857206
 20
206.489436198605091
 30
0.0
 11
3462.727394089371046
 21
206.4899521512051024
 31
0.0
  0
ARC
  5
D9B7
  8
0
 10
3462.7243013241991321
 20
206.5059520419266903
 30
0.0
 40
0.0162960639269226
 50
280.9402970433420137
 51
298.5410979267160201
  0
LINE
  5
D9B8
  8
0
 10
3462.7767271527841331
 20
206.4889218372487107
 30
0.0
 11
3462.7233181988722208
 21
206.4894212800051037
 31
0.0
  0
LINE
  5
D9B9
  8
0
 10
3462.7233181988722208
 20
206.4894212800051037
 30
0.0
 11
3462.7073816607708068
 21
206.4881149392051043
 31
0.0
  0
LINE
  5
D9BA
  8
0
 10
3462.7073816607708068
 20
206.4881149392051043
 30
0.0
 11
3462.7560561506861632
 21
206.4871341855134972
 31
0.0
  0
LINE
  5
D9BB
  8
0
 10
3462.7560561506861632
 20
206.4871341855134972
 30
0.0
 11
3462.7767271527841331
 21
206.4889218372487107
 31
0.0
  0
LINE
  5
D9BC
  8
0
 10
3462.7520480407438299
 20
206.4868417307851871
 30
0.0
 11
3462.703444652870985
 21
206.4878769561051115
 31
0.0
  0
LINE
  5
D9BD
  8
0
 10
3462.7082114548511527
 20
206.4880982194900128
 30
0.0
 11
3462.678996285671019
 21
206.4867421222051007
 31
0.0
  0
LINE
  5
D9BE
  8
0
 10
3462.6307194369887839
 20
206.4884269599392042
 30
0.0
 11
3462.7193868076710714
 21
206.4853325133051101
 31
0.0
  0
LINE
  5
D9BF
  8
0
 10
3462.7193868076710714
 20
206.4853325133051101
 30
0.0
 11
3462.7520480407438299
 21
206.4868417307851871
 31
0.0
  0
LINE
  5
D9C0
  8
0
 10
3462.7193406517080803
 20
206.4845568745840865
 30
0.0
 11
3462.6678607457711223
 21
206.4863534974051049
 31
0.0
  0
LINE
  5
D9C1
  8
0
 10
3462.6807969575561401
 20
206.4866792796620985
 30
0.0
 11
3462.6285244474720457
 21
206.4853628621050916
 31
0.0
  0
LINE
  5
D9C2
  8
0
 10
3462.6285244474720457
 20
206.4853628621050916
 30
0.0
 11
3462.6645059052389115
 21
206.4837470178028127
 31
0.0
  0
LINE
  5
D9C3
  8
0
 10
3462.6638911254722188
 20
206.4837746261445943
 30
0.0
 11
3462.7796805695679723
 21
206.4868266507735086
 31
0.0
  0
LINE
  5
D9C4
  8
0
 10
3462.670918682410047
 20
206.4830174179820119
 30
0.0
 11
3462.6281033281461532
 21
206.4849339330318116
 31
0.0
  0
LINE
  5
D9C5
  8
0
 10
3462.6281033281461532
 20
206.4849339330318116
 30
0.0
 11
3462.5910929400711211
 21
206.4848066850051111
 31
0.0
  0
LINE
  5
D9C6
  8
0
 10
3462.5910929400711211
 20
206.4848066850051111
 30
0.0
 11
3462.6058768971711288
 21
206.4828811234050931
 31
0.0
  0
LINE
  5
D9C7
  8
0
 10
3462.6058768971711288
 20
206.4828811234050931
 30
0.0
 11
3462.752321328131984
 21
206.4850439676440885
 31
0.0
  0
ARC
  5
D9C8
  8
0
 10
3462.7041240030071094
 20
206.5681796167974937
 30
0.0
 40
0.0799831835016217
 50
268.6691362062447865
 51
286.1724865614360738
  0
LINE
  5
D9C9
  8
0
 10
3462.7027555569038668
 20
206.4882081406431098
 30
0.0
 11
3462.6496709843568169
 21
206.4892789475968868
 31
0.0
  0
ARC
  5
D9CA
  8
0
 10
3462.652582646150222
 20
206.5553696600746036
 30
0.0
 40
0.0661548187980672
 50
264.3211755141705908
 51
284.6361323977312736
  0
LINE
  5
D9CB
  8
0
 10
3462.6633905857711397
 20
206.491361564105091
 30
0.0
 11
3462.7264017143711499
 21
206.491361564105091
 31
0.0
  0
LINE
  5
D9CC
  8
0
 10
3462.5588359870707791
 20
206.491361564105091
 30
0.0
 11
3462.5486073405718344
 21
206.4907432659051096
 31
0.0
  0
LINE
  5
D9CD
  8
0
 10
3462.5486073405718344
 20
206.4907432659051096
 30
0.0
 11
3462.5664036322709762
 21
206.4896675210050887
 31
0.0
  0
LINE
  5
D9CE
  8
0
 10
3462.5664036322709762
 20
206.4896675210050887
 30
0.0
 11
3462.5944285705718357
 21
206.491361564105091
 31
0.0
  0
LINE
  5
D9CF
  8
0
 10
3462.5944285705718357
 20
206.491361564105091
 30
0.0
 11
3462.5588359870707791
 21
206.491361564105091
 31
0.0
  0
LINE
  5
D9D0
  8
0
 10
3462.6692986175721671
 20
206.491361564105091
 30
0.0
 11
3462.6003446562717727
 21
206.491361564105091
 31
0.0
  0
ARC
  5
D9D1
  8
0
 10
3462.56869997401418
 20
206.7576510425886909
 30
0.0
 40
0.2681631448693593
 50
270.1413793168225084
 51
276.7769988480926031
  0
LINE
  5
D9D2
  8
0
 10
3462.5693616751741502
 20
206.4894887141049935
 30
0.0
 11
3462.6008846399718095
 21
206.4875832233051085
 31
0.0
  0
ARC
  5
D9D3
  8
0
 10
3462.6013624864658595
 20
206.9985922653382886
 30
0.0
 40
0.5110092654512127
 50
269.9464225147436878
 51
277.2213518257439091
  0
LINE
  5
D9D4
  8
0
 10
3462.6255711065709875
 20
206.4855413848050887
 30
0.0
 11
3462.5970195581721782
 21
206.4872672603050887
 31
0.0
  0
LINE
  5
D9D5
  8
0
 10
3462.5970195581721782
 20
206.4872672603050887
 30
0.0
 11
3462.5315595964721069
 21
206.4866551250960072
 31
0.0
  0
LINE
  5
D9D6
  8
0
 10
3462.5354966042709748
 20
206.4866919412050947
 30
0.0
 11
3462.5354966042709748
 21
206.4846990718050961
 31
0.0
  0
LINE
  5
D9D7
  8
0
 10
3462.6255711065709875
 20
206.4855413848050887
 30
0.0
 11
3462.5315595964721069
 21
206.4846622556943885
 31
0.0
  0
LINE
  5
D9D8
  8
0
 10
3462.5315595964721069
 20
206.4868960773465005
 30
0.0
 11
3462.5940655422709824
 21
206.4874458237050874
 31
0.0
  0
LINE
  5
D9D9
  8
0
 10
3462.5940655422709824
 20
206.4874458237050874
 30
0.0
 11
3462.5619515173270884
 21
206.4893414023705986
 31
0.0
  0
LINE
  5
D9DA
  8
0
 10
3462.5706319327018718
 20
206.4894119299557929
 30
0.0
 11
3462.5315595964721069
 21
206.4890944707788947
 31
0.0
  0
LINE
  5
D9DB
  8
0
 10
3462.5315595964721069
 20
206.4893005701796938
 30
0.0
 11
3462.5791107350441962
 21
206.4896900597553895
 31
0.0
  0
LINE
  5
D9DC
  8
0
 10
3462.5595845346379065
 20
206.4895301213871051
 30
0.0
 11
3462.5315595964721069
 21
206.4912241644705944
 31
0.0
  0
LINE
  5
D9DD
  8
0
 10
3462.5417882429710517
 20
206.4906058663050885
 30
0.0
 11
3462.5315595964721069
 21
206.4905367747772971
 31
0.0
  0
LINE
  5
D9DE
  8
0
 10
3462.5354966042709748
 20
206.4987797950049071
 30
0.0
 11
3462.5354966042709748
 21
206.5013267005807052
 31
0.0
  0
LINE
  5
D9DF
  8
0
 10
3462.5949442693968194
 20
206.5010911496030985
 30
0.0
 11
3462.5758815097710794
 21
206.4986082882049914
 31
0.0
  0
LINE
  5
D9E0
  8
0
 10
3462.5758815097710794
 20
206.4986082882049914
 30
0.0
 11
3462.5758815097710794
 21
206.4986082882049914
 31
0.0
  0
LINE
  5
D9E1
  8
0
 10
3462.5758815097710794
 20
206.4986082882049914
 30
0.0
 11
3462.5315595964721069
 21
206.4987965147076068
 31
0.0
  0
ARC
  5
D9E2
  8
0
 10
3462.7820577994120868
 20
206.480532979933912
 30
0.0
 40
0.0133133495568216
 50
56.5122432489033173
 51
87.8012970425663468
  0
LINE
  5
D9E3
  8
0
 10
3462.78256856857206
 20
206.4938365280052039
 30
0.0
 11
3462.727394089371046
 21
206.4933205754051926
 31
0.0
  0
ARC
  5
D9E4
  8
0
 10
3462.7243013241991321
 20
206.4773206846836047
 30
0.0
 40
0.0162960639269226
 50
61.4589020733430118
 51
79.0597029567375529
  0
LINE
  5
D9E5
  8
0
 10
3462.7767271527841331
 20
206.4943508893616126
 30
0.0
 11
3462.7233181988722208
 21
206.4938514466051913
 31
0.0
  0
LINE
  5
D9E6
  8
0
 10
3462.7233181988722208
 20
206.4938514466051913
 30
0.0
 11
3462.7073816607708068
 21
206.4951577874051054
 31
0.0
  0
LINE
  5
D9E7
  8
0
 10
3462.7073816607708068
 20
206.4951577874051054
 30
0.0
 11
3462.7560561506861632
 21
206.4961385410969115
 31
0.0
  0
LINE
  5
D9E8
  8
0
 10
3462.7560561506861632
 20
206.4961385410969115
 30
0.0
 11
3462.7767271527841331
 21
206.4943508893616126
 31
0.0
  0
LINE
  5
D9E9
  8
0
 10
3462.7520480407438299
 20
206.4964309958251079
 30
0.0
 11
3462.703444652870985
 21
206.4953957705052119
 31
0.0
  0
LINE
  5
D9EA
  8
0
 10
3462.7082114548511527
 20
206.4951745071203106
 30
0.0
 11
3462.678996285671019
 21
206.496530604405109
 31
0.0
  0
LINE
  5
D9EB
  8
0
 10
3462.6307194369887839
 20
206.4948457666710055
 30
0.0
 11
3462.7193868076710714
 21
206.4979402133052133
 31
0.0
  0
LINE
  5
D9EC
  8
0
 10
3462.7193868076710714
 20
206.4979402133052133
 30
0.0
 11
3462.7520480407438299
 21
206.4964309958251079
 31
0.0
  0
LINE
  5
D9ED
  8
0
 10
3462.7193406517080803
 20
206.4987158520262085
 30
0.0
 11
3462.6678607457711223
 21
206.4969192292051048
 31
0.0
  0
LINE
  5
D9EE
  8
0
 10
3462.6807969575561401
 20
206.4965934469481113
 30
0.0
 11
3462.6285244474720457
 21
206.4979098645050044
 31
0.0
  0
LINE
  5
D9EF
  8
0
 10
3462.6285244474720457
 20
206.4979098645050044
 30
0.0
 11
3462.6645059052389115
 21
206.499525708807397
 31
0.0
  0
LINE
  5
D9F0
  8
0
 10
3462.6638911254722188
 20
206.4994981004657006
 30
0.0
 11
3462.7707727077531672
 21
206.4966808728329966
 31
0.0
  0
LINE
  5
D9F1
  8
0
 10
3462.6669084236759772
 20
206.5000758001002055
 30
0.0
 11
3462.6281033281461532
 21
206.4983387935783981
 31
0.0
  0
LINE
  5
D9F2
  8
0
 10
3462.6281033281461532
 20
206.4983387935783981
 30
0.0
 11
3462.5910929400711211
 21
206.4984660416050986
 31
0.0
  0
LINE
  5
D9F3
  8
0
 10
3462.5910929400711211
 20
206.4984660416050986
 30
0.0
 11
3462.6058768971711288
 21
206.5003916032050881
 31
0.0
  0
LINE
  5
D9F4
  8
0
 10
3462.6058768971711288
 20
206.5003916032050881
 30
0.0
 11
3462.7371782152617925
 21
206.498452408265905
 31
0.0
  0
ARC
  5
D9F5
  8
0
 10
3462.7041240030071094
 20
206.4150931098128012
 30
0.0
 40
0.0799831835016217
 50
73.827513438618027
 51
91.3308637938073247
  0
LINE
  5
D9F6
  8
0
 10
3462.7027555569038668
 20
206.4950645859672136
 30
0.0
 11
3462.6496709843568169
 21
206.4939937790132944
 31
0.0
  0
ARC
  5
D9F7
  8
0
 10
3462.652582646150222
 20
206.4279030665356061
 30
0.0
 40
0.0661548187980672
 50
75.3638676023224008
 51
95.6788244859078816
  0
LINE
  5
D9F8
  8
0
 10
3462.6633905857711397
 20
206.4919111625050903
 30
0.0
 11
3462.7264017143711499
 21
206.4919111625052039
 31
0.0
  0
LINE
  5
D9F9
  8
0
 10
3462.5588359870707791
 20
206.491911162505005
 30
0.0
 11
3462.5486073405718344
 21
206.4925294607049864
 31
0.0
  0
LINE
  5
D9FA
  8
0
 10
3462.5486073405718344
 20
206.4925294607049864
 30
0.0
 11
3462.5664036322709762
 21
206.4936052056050073
 31
0.0
  0
LINE
  5
D9FB
  8
0
 10
3462.5664036322709762
 20
206.4936052056050073
 30
0.0
 11
3462.5944285705718357
 21
206.491911162505005
 31
0.0
  0
LINE
  5
D9FC
  8
0
 10
3462.5944285705718357
 20
206.491911162505005
 30
0.0
 11
3462.5588359870707791
 21
206.491911162505005
 31
0.0
  0
LINE
  5
D9FD
  8
0
 10
3462.6692986175721671
 20
206.4919111625050903
 30
0.0
 11
3462.6003446562717727
 21
206.491911162505005
 31
0.0
  0
ARC
  5
D9FE
  8
0
 10
3462.56869997401418
 20
206.2256216840214051
 30
0.0
 40
0.2681631448693593
 50
83.2230011519859829
 51
89.8586206832296455
  0
LINE
  5
D9FF
  8
0
 10
3462.5693616751741502
 20
206.4937840125051025
 30
0.0
 11
3462.6008846399718095
 21
206.4956895033049875
 31
0.0
  0
ARC
  5
DA00
  8
0
 10
3462.6013624864658595
 20
205.9846804612718074
 30
0.0
 40
0.5110092654512127
 50
82.7786481743348475
 51
90.053577485308395
  0
LINE
  5
DA01
  8
0
 10
3462.6255711065709875
 20
206.4977313418050073
 30
0.0
 11
3462.5970195581721782
 21
206.4960054663050073
 31
0.0
  0
LINE
  5
DA02
  8
0
 10
3462.5970195581721782
 20
206.4960054663050073
 30
0.0
 11
3462.5315595964721069
 21
206.4966176015140888
 31
0.0
  0
LINE
  5
DA03
  8
0
 10
3462.5354966042709748
 20
206.4965807854050013
 30
0.0
 11
3462.5354966042709748
 21
206.4985736548049999
 31
0.0
  0
LINE
  5
DA04
  8
0
 10
3462.6255711065709875
 20
206.4977313418050073
 30
0.0
 11
3462.5315595964721069
 21
206.4986104709157075
 31
0.0
  0
LINE
  5
DA05
  8
0
 10
3462.5315595964721069
 20
206.4963766492635955
 30
0.0
 11
3462.5940655422709824
 21
206.4958269029050086
 31
0.0
  0
LINE
  5
DA06
  8
0
 10
3462.5940655422709824
 20
206.4958269029050086
 30
0.0
 11
3462.5619515173270884
 21
206.4939313242394974
 31
0.0
  0
LINE
  5
DA07
  8
0
 10
3462.5706319327018718
 20
206.4938607966543884
 30
0.0
 11
3462.5315595964721069
 21
206.4941782558312013
 31
0.0
  0
LINE
  5
DA08
  8
0
 10
3462.5315595964721069
 20
206.4939721564302886
 30
0.0
 11
3462.5791107350441962
 21
206.4935826668547918
 31
0.0
  0
LINE
  5
DA09
  8
0
 10
3462.5595845346379065
 20
206.4937426052229057
 30
0.0
 11
3462.5315595964721069
 21
206.4920485621395017
 31
0.0
  0
LINE
  5
DA0A
  8
0
 10
3462.5417882429710517
 20
206.4926668603050075
 30
0.0
 11
3462.5315595964721069
 21
206.4927359518327989
 31
0.0
  0
ARC
  5
DA0B
  8
0
 10
3462.3884734828761793
 20
206.6184207111998887
 30
0.0
 40
0.1878990929623351
 50
196.9577408193026997
 51
222.6249193000610092
  0
ARC
  5
DA0C
  8
0
 10
3462.2091894776199297
 20
206.5637526505560118
 30
0.0
 40
0.0004655010027338
 50
124.2973359083257066
 51
196.9577408192764096
  0
ARC
  5
DA0D
  8
0
 10
3462.2126223110049068
 20
206.5587198023376914
 30
0.0
 40
0.0065576193733243
 50
104.5787187264702993
 51
124.2973359083266018
  0
ARC
  5
DA0E
  8
0
 10
3462.3183274030570828
 20
205.7211507528326138
 30
0.0
 40
0.8507165642109251
 50
90.9077458018143574
 51
97.2497390458173641
  0
ARC
  5
DA0F
  8
0
 10
3462.5198012759510675
 20
199.476622592010699
 30
0.0
 40
7.0983932513448726
 50
89.9050908530583257
 51
91.7352782876526334
  0
ARC
  5
DA10
  8
0
 10
3462.7465808202709923
 20
205.7219445377292004
 30
0.0
 40
0.8498963923452194
 50
82.9632870008898351
 51
89.2119988828621757
  0
ARC
  5
DA11
  8
0
 10
3462.847897214562181
 20
206.551506049381203
 30
0.0
 40
0.0142119792058074
 50
65.9995462325923938
 51
78.6356939985436583
  0
ARC
  5
DA12
  8
0
 10
3462.8530070082201746
 20
206.5629937326843901
 30
0.0
 40
0.001639124288673
 50
36.0346598905196416
 51
65.8411108424283213
  0
ARC
  5
DA13
  8
0
 10
3462.8541840508992209
 20
206.5637896667865903
 30
0.0
 40
0.0002244336100368
 50
337.6070881173366161
 51
48.5887497892071707
  0
ARC
  5
DA14
  8
0
 10
3462.6735729275901576
 20
206.619009584753087
 30
0.0
 40
0.189087459276256
 50
317.4639206429253022
 51
342.9931575065768925
  0
ARC
  5
DA15
  8
0
 10
3462.4892172806908093
 20
198.4969511734815057
 30
0.0
 40
8.1464773087125621
 50
89.702196812114579
 51
92.6016949279262462
  0
ARC
  5
DA16
  8
0
 10
3462.1480817164951986
 20
206.0044388144447112
 30
0.0
 40
0.6312431704855404
 50
92.6016949279262462
 51
96.7175079998504259
  0
ARC
  5
DA17
  8
0
 10
3462.0924755713699597
 20
206.4765463237976064
 30
0.0
 40
0.1558722166367005
 50
96.7175079998504259
 51
102.484273366053003
  0
ARC
  5
DA18
  8
0
 10
3462.0606927048638681
 20
206.6200960236070898
 30
0.0
 40
0.0088461409946085
 50
102.484273366053003
 51
126.9677149540007974
  0
ARC
  5
DA19
  8
0
 10
3462.0557382797251194
 20
206.6266784816776862
 30
0.0
 40
0.0006075074481755
 50
126.9677149540274996
 51
239.8497464919906008
  0
ARC
  5
DA1A
  8
0
 10
3462.066021927060774
 20
206.6443828967574916
 30
0.0
 40
0.0210818747362853
 50
239.8497464919915103
 51
267.42903385189652
  0
ARC
  5
DA1B
  8
0
 10
3462.1272218284798328
 20
207.0486810449415884
 30
0.0
 40
0.4298746122610153
 50
261.6878098175873788
 51
266.1566249285040158
  0
LINE
  5
DA1C
  8
0
 10
3462.0984887303720825
 20
206.6336115017589918
 30
0.0
 11
3462.0984895633719134
 21
206.5952161774866909
 31
0.0
  0
ARC
  5
DA1D
  8
0
 10
3462.0998080230820051
 20
206.5948905014456045
 30
0.0
 40
0.0013580872175488
 50
109.4245411072111978
 51
166.1249711902206059
  0
ARC
  5
DA1E
  8
0
 10
3462.1158594336361602
 20
206.5493722891683035
 30
0.0
 40
0.0496235555122497
 50
98.5217727582155618
 51
109.4245411072111978
  0
ARC
  5
DA1F
  8
0
 10
3462.1680814359119722
 20
206.2008527318747895
 30
0.0
 40
0.4020338552167872
 50
91.9014285920945753
 51
98.5217727582155618
  0
ARC
  5
DA20
  8
0
 10
3461.9627638672081957
 20
212.3854190551010959
 30
0.0
 40
5.7859396345780461
 50
271.9014285920944758
 51
272.8871118785216936
  0
ARC
  5
DA21
  8
0
 10
3462.5198725011568968
 20
196.5636435417158054
 30
0.0
 40
10.0466934257146399
 50
89.9333490772484083
 51
91.5153405008679357
  0
ARC
  5
DA22
  8
0
 10
3462.4755829512650962
 20
201.9095988367801056
 30
0.0
 40
4.6987564586385391
 50
89.3174148485736055
 51
93.5643597351290737
  0
ARC
  5
DA23
  8
0
 10
3462.189101490720077
 20
206.508741383464411
 30
0.0
 40
0.0907000579465385
 50
93.5643597351290737
 51
102.712930080970807
  0
ARC
  5
DA24
  8
0
 10
3462.1745660612618849
 20
206.573172369996712
 30
0.0
 40
0.024649844206811
 50
102.712930080970807
 51
111.634707415619701
  0
ARC
  5
DA25
  8
0
 10
3462.1660573445578848
 20
206.5946249591468131
 30
0.0
 40
0.0015714594891798
 50
111.6347074155918051
 51
154.5357947118044137
  0
ARC
  5
DA26
  8
0
 10
3462.1654810443460519
 20
206.5952505212692927
 30
0.0
 40
0.0008439856363492
 50
176.5980511751994868
 51
206.8975890825603017
  0
LINE
  5
DA27
  8
0
 10
3462.164728363973154
 20
206.5948687045444956
 30
0.0
 11
3462.1772691964720252
 21
206.5635529669590085
 31
0.0
  0
ARC
  5
DA28
  8
0
 10
3462.1776767662668135
 20
206.5637383580155131
 30
0.0
 40
0.000447811737474
 50
163.9804442219021041
 51
204.4559466906015075
  0
ARC
  5
DA29
  8
0
 10
3462.1779178665810832
 20
206.5636691345478084
 30
0.0
 40
0.000698652821148
 50
122.9068065336442999
 51
163.9804442218855058
  0
ARC
  5
DA2A
  8
0
 10
3462.1817203897790023
 20
206.5577928593932882
 30
0.0
 40
0.0076979236666736
 50
101.1703370486825975
 51
122.9068065336424951
  0
ARC
  5
DA2B
  8
0
 10
3462.2154496708271836
 20
206.3869834720800895
 30
0.0
 40
0.1818056810881696
 50
97.3612940516745482
 51
101.1703370486825975
  0
ARC
  5
DA2C
  8
0
 10
3462.4909674063869716
 20
201.6003606742405054
 30
0.0
 40
4.9759102002739288
 50
89.5325906464585017
 51
93.4427784600027564
  0
ARC
  5
DA2D
  8
0
 10
3462.2368501737441875
 20
206.9447009679873872
 30
0.0
 40
0.3870902951989045
 50
262.8788304466679051
 51
266.0787878255521264
  0
ARC
  5
DA2E
  8
0
 10
3462.1986711645390642
 20
206.6391021896596101
 30
0.0
 40
0.0791158643458197
 50
255.9426166929231954
 51
262.8788304466679051
  0
ARC
  5
DA2F
  8
0
 10
3462.1807889560791409
 20
206.5676853534016004
 30
0.0
 40
0.0054942786487234
 50
231.7160902367290021
 51
255.9426166929231954
  0
ARC
  5
DA30
  8
0
 10
3462.1779377682360064
 20
206.5638549252018947
 30
0.0
 40
0.0007336572004979
 50
204.3041002923650922
 51
221.1020612952457896
  0
ARC
  5
DA31
  8
0
 10
3462.2132472758271433
 20
207.5720236678334913
 30
0.0
 40
0.9859905652644794
 50
265.3071564501465787
 51
267.3609165546207009
  0
ARC
  5
DA32
  8
0
 10
3462.1716201896929306
 20
207.064928015623309
 30
0.0
 40
0.4771892142536168
 50
262.7459105291769106
 51
265.3071564501465787
  0
ARC
  5
DA33
  8
0
 10
3462.1217740208271607
 20
206.6733283794573026
 30
0.0
 40
0.0824299007523698
 50
255.8962455821360038
 51
262.7459105291769106
  0
ARC
  5
DA34
  8
0
 10
3462.1041827842050225
 20
206.6033141484950022
 30
0.0
 40
0.0102395679985163
 50
239.589366640377591
 51
255.8962455821360038
  0
ARC
  5
DA35
  8
0
 10
3462.0995860014559184
 20
206.595482452457702
 30
0.0
 40
0.0011584956794348
 50
206.6727183452821066
 51
239.5893666403817122
  0
ARC
  5
DA36
  8
0
 10
3462.0990650443900449
 20
206.5952207490790045
 30
0.0
 40
0.0005754991758995
 50
180.455145754369795
 51
206.6727183452879046
  0
ARC
  5
DA37
  8
0
 10
3462.5433179169940558
 20
199.476622592010699
 30
0.0
 40
7.0983932513448726
 50
88.2647217123473666
 51
90.0949091469416743
  0
ARC
  5
DA38
  8
0
 10
3462.5739019122538593
 20
198.4969511734815057
 30
0.0
 40
8.1464773087125621
 50
87.3983050720737538
 51
90.2978031878854068
  0
ARC
  5
DA39
  8
0
 10
3462.9150374764490152
 20
206.0044388144447112
 30
0.0
 40
0.6312431704855404
 50
83.2824920001495741
 51
87.3983050720737538
  0
ARC
  5
DA3A
  8
0
 10
3462.9706436215737995
 20
206.4765463237976064
 30
0.0
 40
0.1558722166367005
 50
77.5157266339469402
 51
83.2824920001495741
  0
ARC
  5
DA3B
  8
0
 10
3463.002426488079891
 20
206.6200960236070898
 30
0.0
 40
0.0088461409946085
 50
53.0322850459991884
 51
77.5157266339469402
  0
ARC
  5
DA3C
  8
0
 10
3463.0073809132190945
 20
206.6266784816776862
 30
0.0
 40
0.0006075074481755
 50
300.1502535080093139
 51
53.0322850459725004
  0
ARC
  5
DA3D
  8
0
 10
3462.9970972658829851
 20
206.6443828967574916
 30
0.0
 40
0.0210818747362853
 50
272.5709661481034232
 51
300.1502535080085181
  0
ARC
  5
DA3E
  8
0
 10
3462.9358973644648358
 20
207.0486810449415884
 30
0.0
 40
0.4298746122610153
 50
273.8325043507134069
 51
278.3121901824126212
  0
LINE
  5
DA3F
  8
0
 10
3462.9646304625721314
 20
206.6336115017589918
 30
0.0
 11
3462.96462962957321
 21
206.5952161774866909
 31
0.0
  0
ARC
  5
DA40
  8
0
 10
3462.9633111698631183
 20
206.5948905014456045
 30
0.0
 40
0.0013580872175488
 50
13.8750288097793604
 51
70.5754588927888449
  0
ARC
  5
DA41
  8
0
 10
3462.9472597593089631
 20
206.5493722891683035
 30
0.0
 40
0.0496235555122497
 50
70.5754588927888449
 51
81.478227241784424
  0
ARC
  5
DA42
  8
0
 10
3462.8950377570331511
 20
206.2008527318747895
 30
0.0
 40
0.4020338552167872
 50
81.478227241784424
 51
88.0985714079054532
  0
ARC
  5
DA43
  8
0
 10
3463.1003553257369276
 20
212.3854190551010959
 30
0.0
 40
5.7859396345780461
 50
267.1128881214783064
 51
268.0985714079055242
  0
ARC
  5
DA44
  8
0
 10
3462.5432466917882266
 20
196.5636435417158054
 30
0.0
 40
10.0466934257146399
 50
88.4846594991320785
 51
90.0666509227515775
  0
ARC
  5
DA45
  8
0
 10
3462.5875362416800272
 20
201.9095988367801056
 30
0.0
 40
4.6987564586385391
 50
86.4356402648709121
 51
90.6825851514263803
  0
ARC
  5
DA46
  8
0
 10
3462.8740177022250464
 20
206.508741383464411
 30
0.0
 40
0.0907000579465385
 50
77.2870699190291646
 51
86.4356402648709121
  0
ARC
  5
DA47
  8
0
 10
3462.8885531316827837
 20
206.573172369996712
 30
0.0
 40
0.024649844206811
 50
68.3652925843803132
 51
77.2870699190291646
  0
ARC
  5
DA48
  8
0
 10
3462.8970618483858743
 20
206.5946249591468131
 30
0.0
 40
0.0015714594891798
 50
25.4642052881955507
 51
68.3652925844081381
  0
ARC
  5
DA49
  8
0
 10
3462.8976381485990714
 20
206.5952505212692927
 30
0.0
 40
0.0008439856363492
 50
333.1024109174397836
 51
3.4019488248004759
  0
LINE
  5
DA4A
  8
0
 10
3462.8983908289710598
 20
206.5948687045444956
 30
0.0
 11
3462.8858499964721886
 21
206.5635529669590085
 31
0.0
  0
ARC
  5
DA4B
  8
0
 10
3462.8854424266769456
 20
206.5637383580155131
 30
0.0
 40
0.000447811737474
 50
335.5440533093985209
 51
16.0195557780979385
  0
ARC
  5
DA4C
  8
0
 10
3462.8852013263649496
 20
206.5636691345478084
 30
0.0
 40
0.000698652821148
 50
16.0195557781145297
 51
57.093193466355693
  0
ARC
  5
DA4D
  8
0
 10
3462.8813988031652116
 20
206.5577928593932882
 30
0.0
 40
0.0076979236666736
 50
57.0931934663574623
 51
78.8296629513174025
  0
ARC
  5
DA4E
  8
0
 10
3462.8476695221179398
 20
206.3869834720800895
 30
0.0
 40
0.1818056810881696
 50
78.8296629513174025
 51
82.638705948325466
  0
ARC
  5
DA4F
  8
0
 10
3462.5721517865581518
 20
201.6003606742405054
 30
0.0
 40
4.9759102002739288
 50
86.557221539997272
 51
90.4674093535414841
  0
ARC
  5
DA50
  8
0
 10
3462.8262690192000264
 20
206.9447009679873872
 30
0.0
 40
0.3870902951989045
 50
273.9185994287907988
 51
277.1211695533320949
  0
ARC
  5
DA51
  8
0
 10
3462.8644480284051497
 20
206.6391021896596101
 30
0.0
 40
0.0791158643458197
 50
277.1211695533320949
 51
284.0573833070768046
  0
ARC
  5
DA52
  8
0
 10
3462.8823302368659824
 20
206.5676853534016004
 30
0.0
 40
0.0054942786487234
 50
284.0573833070768046
 51
308.2839097632709127
  0
ARC
  5
DA53
  8
0
 10
3462.885181424709117
 20
206.5638549252018947
 30
0.0
 40
0.0007336572004979
 50
318.8979387047542104
 51
335.6958997076349078
  0
ARC
  5
DA54
  8
0
 10
3462.84987191711798
 20
207.5720236678334913
 30
0.0
 40
0.9859905652644794
 50
272.6390834453792991
 51
274.6928435498534213
  0
ARC
  5
DA55
  8
0
 10
3462.8914990032521928
 20
207.064928015623309
 30
0.0
 40
0.4771892142536168
 50
274.6928435498534213
 51
277.2540894708232031
  0
ARC
  5
DA56
  8
0
 10
3462.9413451721179626
 20
206.6733283794573026
 30
0.0
 40
0.0824299007523698
 50
277.2540894708232031
 51
284.1037544178639109
  0
ARC
  5
DA57
  8
0
 10
3462.9589364087391914
 20
206.6033141484950022
 30
0.0
 40
0.0102395679985163
 50
284.1037544178639109
 51
300.4106333596225227
  0
ARC
  5
DA58
  8
0
 10
3462.9635331914892049
 20
206.595482452457702
 30
0.0
 40
0.0011584956794348
 50
300.4106333596183163
 51
333.3272816547179218
  0
ARC
  5
DA59
  8
0
 10
3462.9640541485550784
 20
206.5952207490790045
 30
0.0
 40
0.0005754991758995
 50
333.3272816547120101
 51
359.5448542456301766
  0
LINE
  5
DA5A
  8
0
 10
3456.6260477854721103
 20
203.9685437690592948
 30
0.0
 11
3457.5679097288511912
 21
203.9685437690590106
 31
0.0
  0
ARC
  5
DA5B
  8
0
 10
3457.531883556241155
 20
204.5910762471669955
 30
0.0
 40
0.0363796892684635
 50
7.9940229796032307
 51
85.5953442688843751
  0
ARC
  5
DA5C
  8
0
 10
3456.2979274464141781
 20
136.8372342418464029
 30
0.0
 40
67.8013948267921052
 50
88.95482254146809
 51
89.7227198049236279
  0
LINE
  5
DA5D
  8
0
 10
3456.6260477854721103
 20
204.2040771120722127
 30
0.0
 11
3457.4662470202038094
 21
204.2040771125128913
 31
0.0
  0
ARC
  5
DA5E
  8
0
 10
3457.4617790505731136
 20
204.3106813520558944
 30
0.0
 40
0.1066973106597954
 50
272.393175340557093
 51
354.092496676658584
  0
LINE
  5
DA5F
  8
0
 10
3456.6260477854721103
 20
203.8248429816590033
 30
0.0
 11
3457.5679097288511912
 21
203.8248429816590033
 31
0.0
  0
LINE
  5
DA60
  8
0
 10
3457.5512446358720808
 20
203.8248429816590033
 30
0.0
 11
3457.5512446358720808
 21
203.834761111259013
 31
0.0
  0
ARC
  5
DA61
  8
0
 10
3456.972156391081171
 20
203.4991904071274007
 30
0.0
 40
0.6692913362103764
 50
30.0914820417704583
 51
44.5307919328110202
  0
LINE
  5
DA62
  8
0
 10
3457.5512437996740118
 20
203.8347625543430865
 30
0.0
 11
3456.6260477854721103
 21
203.8348405463690938
 31
0.0
  0
LINE
  5
DA63
  8
0
 10
3457.8858903051727793
 20
200.74610282415901
 30
0.0
 11
3457.8858903051727793
 21
200.879961091859002
 31
0.0
  0
ARC
  5
DA64
  8
0
 10
3468.3082417118030207
 20
207.3502366824089904
 30
0.0
 40
0.0708734759994477
 50
89.1757150940315313
 51
270.8242849059685113
  0
ARC
  5
DA65
  8
0
 10
3468.3082417118030207
 20
207.3502366824162095
 30
0.0
 40
0.0708734760066418
 50
270.8242849059685113
 51
89.175714285510125
  0
ARC
  5
DA66
  8
0
 10
3468.3111881595818886
 20
207.3501356784479981
 30
0.0
 40
0.0630932108566892
 50
90.0917222992039086
 51
269.5366447634611973
  0
ARC
  5
DA67
  8
0
 10
3468.3111881595978048
 20
207.3501356804906948
 30
0.0
 40
0.0630932128993609
 50
269.5366447634611973
 51
90.0928715543841889
  0
ARC
  5
DA68
  8
0
 10
3468.3123392778102243
 20
207.3514520284093976
 30
0.0
 40
0.0553744154075908
 50
91.3310501870720657
 51
271.8578623630605762
  0
ARC
  5
DA69
  8
0
 10
3468.3123392778102243
 20
207.351452028408886
 30
0.0
 40
0.0553744154070787
 50
271.8578623630605762
 51
91.3310501498031755
  0
ARC
  5
DA6A
  8
0
 10
3468.30711646917689
 20
207.3443294833795107
 30
0.0
 40
0.0411656055476409
 50
87.819451361081633
 51
267.8194513610815761
  0
ARC
  5
DA6B
  8
0
 10
3468.30711646917689
 20
207.3443294833795107
 30
0.0
 40
0.04116560554764
 50
267.8194513610815761
 51
87.819451361081633
  0
ARC
  5
DA6C
  8
0
 10
3468.3071356343139087
 20
207.344325780764791
 30
0.0
 40
0.0215710176796416
 50
88.037731529720844
 51
271.8162899633171037
  0
ARC
  5
DA6D
  8
0
 10
3468.3071356343139087
 20
207.344325780764791
 30
0.0
 40
0.0215710176796397
 50
271.8162899633171037
 51
88.0377315279219772
  0
ARC
  5
DA6E
  8
0
 10
3468.1815960370190624
 20
207.4776990569731083
 30
0.0
 40
0.0708734759994477
 50
89.1757150940315313
 51
270.8242849059685113
  0
ARC
  5
DA6F
  8
0
 10
3468.1815960370190624
 20
207.477699056980299
 30
0.0
 40
0.0708734760066418
 50
270.8242849059685113
 51
89.175714285510125
  0
ARC
  5
DA70
  8
0
 10
3468.1845424847979302
 20
207.4775980530120876
 30
0.0
 40
0.0630932108566892
 50
90.0917222992039086
 51
269.5366447634611973
  0
ARC
  5
DA71
  8
0
 10
3468.1845424848138464
 20
207.477598055054699
 30
0.0
 40
0.0630932128993609
 50
269.5366447634611973
 51
90.0928715543841889
  0
ARC
  5
DA72
  8
0
 10
3468.1856936030258112
 20
207.4789144029734871
 30
0.0
 40
0.0553744154075908
 50
91.3310501870720657
 51
271.8578623630605762
  0
ARC
  5
DA73
  8
0
 10
3468.1856936030258112
 20
207.4789144029730039
 30
0.0
 40
0.0553744154070787
 50
271.8578623630605762
 51
91.3310501498031755
  0
ARC
  5
DA74
  8
0
 10
3468.1804707943929316
 20
207.4717918579436002
 30
0.0
 40
0.0411656055476409
 50
87.819451361081633
 51
267.8194513610815761
  0
ARC
  5
DA75
  8
0
 10
3468.1804707943929316
 20
207.4717918579436002
 30
0.0
 40
0.04116560554764
 50
267.8194513610815761
 51
87.819451361081633
  0
ARC
  5
DA76
  8
0
 10
3468.1804899595299503
 20
207.4717881553287953
 30
0.0
 40
0.0215710176796416
 50
88.037731529720844
 51
271.8162899633171037
  0
ARC
  5
DA77
  8
0
 10
3468.1804899595299503
 20
207.4717881553287953
 30
0.0
 40
0.0215710176796397
 50
271.8162899633171037
 51
88.0377315279219772
  0
ARC
  5
DA78
  8
0
 10
3468.4368029819720505
 20
207.4776990569731083
 30
0.0
 40
0.0708734759994477
 50
89.1757150940315313
 51
270.8242849059685113
  0
ARC
  5
DA79
  8
0
 10
3468.4368029819720505
 20
207.477699056980299
 30
0.0
 40
0.0708734760066418
 50
270.8242849059685113
 51
89.175714285510125
  0
ARC
  5
DA7A
  8
0
 10
3468.4397494297509184
 20
207.4775980530120876
 30
0.0
 40
0.0630932108566892
 50
90.0917222992039086
 51
269.5366447634611973
  0
ARC
  5
DA7B
  8
0
 10
3468.4397494297668345
 20
207.477598055054699
 30
0.0
 40
0.0630932128993609
 50
269.5366447634611973
 51
90.0928715543841889
  0
ARC
  5
DA7C
  8
0
 10
3468.4409005479787993
 20
207.4789144029734871
 30
0.0
 40
0.0553744154075908
 50
91.3310501870720657
 51
271.8578623630605762
  0
ARC
  5
DA7D
  8
0
 10
3468.4409005479787993
 20
207.4789144029730039
 30
0.0
 40
0.0553744154070787
 50
271.8578623630605762
 51
91.3310501498031755
  0
ARC
  5
DA7E
  8
0
 10
3468.4356777393450102
 20
207.4717918579436002
 30
0.0
 40
0.0411656055476409
 50
87.819451361081633
 51
267.8194513610815761
  0
ARC
  5
DA7F
  8
0
 10
3468.4356777393450102
 20
207.4717918579436002
 30
0.0
 40
0.04116560554764
 50
267.8194513610815761
 51
87.819451361081633
  0
ARC
  5
DA80
  8
0
 10
3468.4356969044829384
 20
207.4717881553287953
 30
0.0
 40
0.0215710176796416
 50
88.037731529720844
 51
271.8162899633171037
  0
ARC
  5
DA81
  8
0
 10
3468.4356969044829384
 20
207.4717881553287953
 30
0.0
 40
0.0215710176796397
 50
271.8162899633171037
 51
88.0377315279219772
  0
ARC
  5
DA82
  8
0
 10
3468.5651705444170148
 20
207.3502057603508035
 30
0.0
 40
0.0708734759994477
 50
89.1757150940315313
 51
270.8242849059685113
  0
ARC
  5
DA83
  8
0
 10
3468.5651705444170148
 20
207.3502057603579942
 30
0.0
 40
0.0708734760066418
 50
270.8242849059685113
 51
89.175714285510125
  0
ARC
  5
DA84
  8
0
 10
3468.5681169921949731
 20
207.3501047563898112
 30
0.0
 40
0.0630932108566892
 50
90.0917222992039086
 51
269.5366447634611973
  0
ARC
  5
DA85
  8
0
 10
3468.5681169922108893
 20
207.3501047584323942
 30
0.0
 40
0.0630932128993609
 50
269.5366447634611973
 51
90.0928715543841889
  0
ARC
  5
DA86
  8
0
 10
3468.5692681104242183
 20
207.351421106351097
 30
0.0
 40
0.0553744154075908
 50
91.3310501870720657
 51
271.8578623630605762
  0
ARC
  5
DA87
  8
0
 10
3468.5692681104242183
 20
207.3514211063506139
 30
0.0
 40
0.0553744154070787
 50
271.8578623630605762
 51
91.3310501498031755
  0
ARC
  5
DA88
  8
0
 10
3468.5640453017899745
 20
207.3442985613212954
 30
0.0
 40
0.0411656055476409
 50
87.819451361081633
 51
267.8194513610815761
  0
ARC
  5
DA89
  8
0
 10
3468.5640453017899745
 20
207.3442985613212954
 30
0.0
 40
0.04116560554764
 50
267.8194513610815761
 51
87.819451361081633
  0
ARC
  5
DA8A
  8
0
 10
3468.5640644669269932
 20
207.3442948587064905
 30
0.0
 40
0.0215710176796416
 50
88.037731529720844
 51
271.8162899633171037
  0
ARC
  5
DA8B
  8
0
 10
3468.5640644669269932
 20
207.3442948587064905
 30
0.0
 40
0.0215710176796397
 50
271.8162899633171037
 51
88.0377315279219772
  0
ARC
  5
DA8C
  8
0
 10
3468.6901459889609214
 20
207.4821318361032922
 30
0.0
 40
0.0708734759994477
 50
89.1757150940315313
 51
270.8242849059685113
  0
ARC
  5
DA8D
  8
0
 10
3468.6901459889609214
 20
207.4821318361105114
 30
0.0
 40
0.0708734760066418
 50
270.8242849059685113
 51
89.175714285510125
  0
ARC
  5
DA8E
  8
0
 10
3468.6930924367397893
 20
207.4820308321422999
 30
0.0
 40
0.0630932108566892
 50
90.0917222992039086
 51
269.5366447634611973
  0
ARC
  5
DA8F
  8
0
 10
3468.6930924367570697
 20
207.4820308341849113
 30
0.0
 40
0.0630932128993609
 50
269.5366447634611973
 51
90.0928715543841889
  0
ARC
  5
DA90
  8
0
 10
3468.6942435549690344
 20
207.4833471821036994
 30
0.0
 40
0.0553744154075908
 50
91.3310501870720657
 51
271.8578623630605762
  0
ARC
  5
DA91
  8
0
 10
3468.6942435549690344
 20
207.4833471821031026
 30
0.0
 40
0.0553744154070787
 50
271.8578623630605762
 51
91.3310501498031755
  0
ARC
  5
DA92
  8
0
 10
3468.6890207463347906
 20
207.4762246370738126
 30
0.0
 40
0.0411656055476409
 50
87.819451361081633
 51
267.8194513610815761
  0
ARC
  5
DA93
  8
0
 10
3468.6890207463347906
 20
207.4762246370738126
 30
0.0
 40
0.04116560554764
 50
267.8194513610815761
 51
87.819451361081633
  0
ARC
  5
DA94
  8
0
 10
3468.6890399114731736
 20
207.4762209344590076
 30
0.0
 40
0.0215710176796416
 50
88.037731529720844
 51
271.8162899633171037
  0
ARC
  5
DA95
  8
0
 10
3468.6890399114731736
 20
207.4762209344590076
 30
0.0
 40
0.0215710176796397
 50
271.8162899633171037
 51
88.0377315279219772
  0
ARC
  5
DA96
  8
0
 10
3468.5641617369610685
 20
207.608116088003186
 30
0.0
 40
0.0708734759994477
 50
89.1757150940315313
 51
270.8242849059685113
  0
ARC
  5
DA97
  8
0
 10
3468.5641617369610685
 20
207.6081160880104051
 30
0.0
 40
0.0708734760066418
 50
270.8242849059685113
 51
89.175714285510125
  0
ARC
  5
DA98
  8
0
 10
3468.5671081847399364
 20
207.6080150840423073
 30
0.0
 40
0.0630932108566892
 50
90.0917222992039086
 51
269.5366447634611973
  0
ARC
  5
DA99
  8
0
 10
3468.5671081847572168
 20
207.6080150860848903
 30
0.0
 40
0.0630932128993609
 50
269.5366447634611973
 51
90.0928715543841889
  0
ARC
  5
DA9A
  8
0
 10
3468.5682593029678173
 20
207.6093314340035931
 30
0.0
 40
0.0553744154075908
 50
91.3310501870720657
 51
271.8578623630605762
  0
ARC
  5
DA9B
  8
0
 10
3468.5682593029678173
 20
207.60933143400311
 30
0.0
 40
0.0553744154070787
 50
271.8578623630605762
 51
91.3310501498031755
  0
ARC
  5
DA9C
  8
0
 10
3468.5630364943349377
 20
207.6022088889737915
 30
0.0
 40
0.0411656055476409
 50
87.819451361081633
 51
267.8194513610815761
  0
ARC
  5
DA9D
  8
0
 10
3468.5630364943349377
 20
207.6022088889737915
 30
0.0
 40
0.04116560554764
 50
267.8194513610815761
 51
87.819451361081633
  0
ARC
  5
DA9E
  8
0
 10
3468.563055659472866
 20
207.6022051863589866
 30
0.0
 40
0.0215710176796416
 50
88.037731529720844
 51
271.8162899633171037
  0
ARC
  5
DA9F
  8
0
 10
3468.563055659472866
 20
207.6022051863589866
 30
0.0
 40
0.0215710176796397
 50
271.8162899633171037
 51
88.0377315279219772
  0
ARC
  5
DAA0
  8
0
 10
3468.4381774850621696
 20
207.7341003400032946
 30
0.0
 40
0.0708734759994477
 50
89.1757150940315313
 51
270.8242849059685113
  0
ARC
  5
DAA1
  8
0
 10
3468.4381774850621696
 20
207.7341003400105137
 30
0.0
 40
0.0708734760066418
 50
270.8242849059685113
 51
89.175714285510125
  0
ARC
  5
DAA2
  8
0
 10
3468.441123932840128
 20
207.7339993360423023
 30
0.0
 40
0.0630932108566892
 50
90.0917222992039086
 51
269.5366447634611973
  0
ARC
  5
DAA3
  8
0
 10
3468.4411239328569536
 20
207.7339993380849137
 30
0.0
 40
0.0630932128993609
 50
269.5366447634611973
 51
90.0928715543841889
  0
ARC
  5
DAA4
  8
0
 10
3468.4422750510689184
 20
207.7353156860037018
 30
0.0
 40
0.0553744154075908
 50
91.3310501870720657
 51
271.8578623630605762
  0
ARC
  5
DAA5
  8
0
 10
3468.4422750510689184
 20
207.7353156860031902
 30
0.0
 40
0.0553744154070787
 50
271.8578623630605762
 51
91.3310501498031755
  0
ARC
  5
DAA6
  8
0
 10
3468.4370522424351293
 20
207.7281931409737865
 30
0.0
 40
0.0411656055476409
 50
87.819451361081633
 51
267.8194513610815761
  0
ARC
  5
DAA7
  8
0
 10
3468.4370522424351293
 20
207.7281931409737865
 30
0.0
 40
0.04116560554764
 50
267.8194513610815761
 51
87.819451361081633
  0
ARC
  5
DAA8
  8
0
 10
3468.437071407572148
 20
207.72818943835901
 30
0.0
 40
0.0215710176796416
 50
88.037731529720844
 51
271.8162899633171037
  0
ARC
  5
DAA9
  8
0
 10
3468.437071407572148
 20
207.72818943835901
 30
0.0
 40
0.0215710176796397
 50
271.8162899633171037
 51
88.0377315279219772
  0
ARC
  5
DAAA
  8
0
 10
3468.3061475004969907
 20
207.6054362220112921
 30
0.0
 40
0.0708734759994477
 50
89.1757150940315313
 51
270.8242849059685113
  0
ARC
  5
DAAB
  8
0
 10
3468.3061475004969907
 20
207.6054362220185112
 30
0.0
 40
0.0708734760066418
 50
270.8242849059685113
 51
89.175714285510125
  0
ARC
  5
DAAC
  8
0
 10
3468.3090939482758586
 20
207.6053352180504135
 30
0.0
 40
0.0630932108566892
 50
90.0917222992039086
 51
269.5366447634611973
  0
ARC
  5
DAAD
  8
0
 10
3468.3090939482917747
 20
207.6053352200929965
 30
0.0
 40
0.0630932128993609
 50
269.5366447634611973
 51
90.0928715543841889
  0
ARC
  5
DAAE
  8
0
 10
3468.3102450665041943
 20
207.6066515680116993
 30
0.0
 40
0.0553744154075908
 50
91.3310501870720657
 51
271.8578623630605762
  0
ARC
  5
DAAF
  8
0
 10
3468.3102450665041943
 20
207.6066515680111877
 30
0.0
 40
0.0553744154070787
 50
271.8578623630605762
 51
91.3310501498031755
  0
ARC
  5
DAB0
  8
0
 10
3468.3050222578708599
 20
207.5995290229818977
 30
0.0
 40
0.0411656055476409
 50
87.819451361081633
 51
267.8194513610815761
  0
ARC
  5
DAB1
  8
0
 10
3468.3050222578708599
 20
207.5995290229818977
 30
0.0
 40
0.04116560554764
 50
267.8194513610815761
 51
87.819451361081633
  0
ARC
  5
DAB2
  8
0
 10
3468.3050414230078786
 20
207.5995253203670927
 30
0.0
 40
0.0215710176796416
 50
88.037731529720844
 51
271.8162899633171037
  0
ARC
  5
DAB3
  8
0
 10
3468.3050414230078786
 20
207.5995253203670927
 30
0.0
 40
0.0215710176796397
 50
271.8162899633171037
 51
88.0377315279219772
  0
ARC
  5
DAB4
  8
0
 10
3468.1785440920039036
 20
207.7298757884244935
 30
0.0
 40
0.0708734759994477
 50
89.1757150940315313
 51
270.8242849059685113
  0
ARC
  5
DAB5
  8
0
 10
3468.1785440920039036
 20
207.7298757884317126
 30
0.0
 40
0.0708734760066418
 50
270.8242849059685113
 51
89.175714285510125
  0
ARC
  5
DAB6
  8
0
 10
3468.1814905397832263
 20
207.7297747844635865
 30
0.0
 40
0.0630932108566892
 50
90.0917222992039086
 51
269.5366447634611973
  0
ARC
  5
DAB7
  8
0
 10
3468.1814905397991424
 20
207.7297747865061979
 30
0.0
 40
0.0630932128993609
 50
269.5366447634611973
 51
90.0928715543841889
  0
ARC
  5
DAB8
  8
0
 10
3468.1826416580120167
 20
207.731091134424986
 30
0.0
 40
0.0553744154075908
 50
91.3310501870720657
 51
271.8578623630605762
  0
ARC
  5
DAB9
  8
0
 10
3468.1826416580120167
 20
207.7310911344243891
 30
0.0
 40
0.0553744154070787
 50
271.8578623630605762
 51
91.3310501498031755
  0
ARC
  5
DABA
  8
0
 10
3468.1774188493777729
 20
207.7239685893950991
 30
0.0
 40
0.0411656055476409
 50
87.819451361081633
 51
267.8194513610815761
  0
ARC
  5
DABB
  8
0
 10
3468.1774188493777729
 20
207.7239685893950991
 30
0.0
 40
0.04116560554764
 50
267.8194513610815761
 51
87.819451361081633
  0
ARC
  5
DABC
  8
0
 10
3468.1774380145147916
 20
207.7239648867802941
 30
0.0
 40
0.0215710176796416
 50
88.037731529720844
 51
271.8162899633171037
  0
ARC
  5
DABD
  8
0
 10
3468.1774380145147916
 20
207.7239648867802941
 30
0.0
 40
0.0215710176796397
 50
271.8162899633171037
 51
88.0377315279219772
  0
ARC
  5
DABE
  8
0
 10
3468.3099788275158062
 20
207.857583264083587
 30
0.0
 40
0.0708734759994477
 50
89.1757150940315313
 51
270.8242849059685113
  0
ARC
  5
DABF
  8
0
 10
3468.3099788275158062
 20
207.8575832640908061
 30
0.0
 40
0.0708734760066418
 50
270.8242849059685113
 51
89.175714285510125
  0
ARC
  5
DAC0
  8
0
 10
3468.3129252752951288
 20
207.8574822601225947
 30
0.0
 40
0.0630932108566892
 50
90.0917222992039086
 51
269.5366447634611973
  0
ARC
  5
DAC1
  8
0
 10
3468.312925275311045
 20
207.8574822621652913
 30
0.0
 40
0.0630932128993609
 50
269.5366447634611973
 51
90.0928715543841889
  0
ARC
  5
DAC2
  8
0
 10
3468.3140763935239193
 20
207.8587986100839942
 30
0.0
 40
0.0553744154075908
 50
91.3310501870720657
 51
271.8578623630605762
  0
ARC
  5
DAC3
  8
0
 10
3468.3140763935239193
 20
207.858798610083511
 30
0.0
 40
0.0553744154070787
 50
271.8578623630605762
 51
91.3310501498031755
  0
ARC
  5
DAC4
  8
0
 10
3468.3088535848901302
 20
207.8516760650541073
 30
0.0
 40
0.0411656055476409
 50
87.819451361081633
 51
267.8194513610815761
  0
ARC
  5
DAC5
  8
0
 10
3468.3088535848901302
 20
207.8516760650541073
 30
0.0
 40
0.04116560554764
 50
267.8194513610815761
 51
87.819451361081633
  0
ARC
  5
DAC6
  8
0
 10
3468.3088727500271489
 20
207.8516723624393876
 30
0.0
 40
0.0215710176796416
 50
88.037731529720844
 51
271.8162899633171037
  0
ARC
  5
DAC7
  8
0
 10
3468.3088727500271489
 20
207.8516723624393876
 30
0.0
 40
0.0215710176796397
 50
271.8162899633171037
 51
88.0377315279219772
  0
ARC
  5
DAC8
  8
0
 10
3468.5667138884209635
 20
207.857583264083587
 30
0.0
 40
0.0708734759994477
 50
89.1757150940315313
 51
270.8242849059685113
  0
ARC
  5
DAC9
  8
0
 10
3468.5667138884209635
 20
207.8575832640908061
 30
0.0
 40
0.0708734760066418
 50
270.8242849059685113
 51
89.175714285510125
  0
ARC
  5
DACA
  8
0
 10
3468.5696603361998314
 20
207.8574822601225947
 30
0.0
 40
0.0630932108566892
 50
90.0917222992039086
 51
269.5366447634611973
  0
ARC
  5
DACB
  8
0
 10
3468.5696603362162023
 20
207.8574822621652913
 30
0.0
 40
0.0630932128993609
 50
269.5366447634611973
 51
90.0928715543841889
  0
ARC
  5
DACC
  8
0
 10
3468.5708114544290765
 20
207.8587986100839942
 30
0.0
 40
0.0553744154075908
 50
91.3310501870720657
 51
271.8578623630605762
  0
ARC
  5
DACD
  8
0
 10
3468.5708114544290765
 20
207.858798610083511
 30
0.0
 40
0.0553744154070787
 50
271.8578623630605762
 51
91.3310501498031755
  0
ARC
  5
DACE
  8
0
 10
3468.5655886457948327
 20
207.8516760650541073
 30
0.0
 40
0.0411656055476409
 50
87.819451361081633
 51
267.8194513610815761
  0
ARC
  5
DACF
  8
0
 10
3468.5655886457948327
 20
207.8516760650541073
 30
0.0
 40
0.04116560554764
 50
267.8194513610815761
 51
87.819451361081633
  0
ARC
  5
DAD0
  8
0
 10
3468.5656078109332157
 20
207.8516723624393876
 30
0.0
 40
0.0215710176796416
 50
88.037731529720844
 51
271.8162899633171037
  0
ARC
  5
DAD1
  8
0
 10
3468.5656078109332157
 20
207.8516723624393876
 30
0.0
 40
0.0215710176796397
 50
271.8162899633171037
 51
88.0377315279219772
  0
ARC
  5
DAD2
  8
0
 10
3468.6950814508659278
 20
207.7308533879349
 30
0.0
 40
0.0708734759994477
 50
89.1757150940315313
 51
270.8242849059685113
  0
ARC
  5
DAD3
  8
0
 10
3468.6950814508650183
 20
207.7308533879420906
 30
0.0
 40
0.0708734760066418
 50
270.8242849059685113
 51
89.175714285510125
  0
ARC
  5
DAD4
  8
0
 10
3468.6980278986438861
 20
207.7307523839739076
 30
0.0
 40
0.0630932108566892
 50
90.0917222992039086
 51
269.5366447634611973
  0
ARC
  5
DAD5
  8
0
 10
3468.6980278986598023
 20
207.7307523860166043
 30
0.0
 40
0.0630932128993609
 50
269.5366447634611973
 51
90.0928715543841889
  0
ARC
  5
DAD6
  8
0
 10
3468.6991790168731313
 20
207.7320687339353071
 30
0.0
 40
0.0553744154075908
 50
91.3310501870720657
 51
271.8578623630605762
  0
ARC
  5
DAD7
  8
0
 10
3468.6991790168731313
 20
207.7320687339347955
 30
0.0
 40
0.0553744154070787
 50
271.8578623630605762
 51
91.3310501498031755
  0
ARC
  5
DAD8
  8
0
 10
3468.6939562082388875
 20
207.7249461889053919
 30
0.0
 40
0.0411656055476409
 50
87.819451361081633
 51
267.8194513610815761
  0
ARC
  5
DAD9
  8
0
 10
3468.6939562082388875
 20
207.7249461889053919
 30
0.0
 40
0.04116560554764
 50
267.8194513610815761
 51
87.819451361081633
  0
ARC
  5
DADA
  8
0
 10
3468.6939753733768157
 20
207.7249424862905869
 30
0.0
 40
0.0215710176796416
 50
88.037731529720844
 51
271.8162899633171037
  0
ARC
  5
DADB
  8
0
 10
3468.6939753733768157
 20
207.7249424862905869
 30
0.0
 40
0.0215710176796397
 50
271.8162899633171037
 51
88.0377315279219772
  0
ARC
  5
DADC
  8
0
 10
3468.6943338046357894
 20
207.9853161774288139
 30
0.0
 40
0.0708734759994477
 50
89.1757150940315313
 51
270.8242849059685113
  0
ARC
  5
DADD
  8
0
 10
3468.6943338046357894
 20
207.9853161774360046
 30
0.0
 40
0.0708734760066418
 50
270.8242849059685113
 51
89.175714285510125
  0
ARC
  5
DADE
  8
0
 10
3468.697280252415112
 20
207.9852151734679069
 30
0.0
 40
0.0630932108566892
 50
90.0917222992039086
 51
269.5366447634611973
  0
ARC
  5
DADF
  8
0
 10
3468.6972802524310282
 20
207.9852151755104899
 30
0.0
 40
0.0630932128993609
 50
269.5366447634611973
 51
90.0928715543841889
  0
ARC
  5
DAE0
  8
0
 10
3468.698431370642993
 20
207.9865315234291927
 30
0.0
 40
0.0553744154075908
 50
91.3310501870720657
 51
271.8578623630605762
  0
ARC
  5
DAE1
  8
0
 10
3468.698431370642993
 20
207.9865315234287095
 30
0.0
 40
0.0553744154070787
 50
271.8578623630605762
 51
91.3310501498031755
  0
ARC
  5
DAE2
  8
0
 10
3468.6932085620101134
 20
207.9794089783993911
 30
0.0
 40
0.0411656055476409
 50
87.819451361081633
 51
267.8194513610815761
  0
ARC
  5
DAE3
  8
0
 10
3468.6932085620101134
 20
207.9794089783993911
 30
0.0
 40
0.04116560554764
 50
267.8194513610815761
 51
87.819451361081633
  0
ARC
  5
DAE4
  8
0
 10
3468.6932277271471321
 20
207.9794052757845861
 30
0.0
 40
0.0215710176796416
 50
88.037731529720844
 51
271.8162899633171037
  0
ARC
  5
DAE5
  8
0
 10
3468.6932277271471321
 20
207.9794052757845861
 30
0.0
 40
0.0215710176796397
 50
271.8162899633171037
 51
88.0377315279219772
  0
ARC
  5
DAE6
  8
0
 10
3468.5527834172748953
 20
208.1248834835176069
 30
0.0
 40
0.0708734759994477
 50
89.1757150940315313
 51
270.8242849059685113
  0
ARC
  5
DAE7
  8
0
 10
3468.5527834172748953
 20
208.1248834835247976
 30
0.0
 40
0.0708734760066418
 50
270.8242849059685113
 51
89.175714285510125
  0
ARC
  5
DAE8
  8
0
 10
3468.555729865054218
 20
208.1247824795566999
 30
0.0
 40
0.0630932108566892
 50
90.0917222992039086
 51
269.5366447634611973
  0
ARC
  5
DAE9
  8
0
 10
3468.5557298650710436
 20
208.1247824815993113
 30
0.0
 40
0.0630932128993609
 50
269.5366447634611973
 51
90.0928715543841889
  0
ARC
  5
DAEA
  8
0
 10
3468.5568809832820989
 20
208.1260988295180141
 30
0.0
 40
0.0553744154075908
 50
91.3310501870720657
 51
271.8578623630605762
  0
ARC
  5
DAEB
  8
0
 10
3468.5568809832820989
 20
208.1260988295175025
 30
0.0
 40
0.0553744154070787
 50
271.8578623630605762
 51
91.3310501498031755
  0
ARC
  5
DAEC
  8
0
 10
3468.5516581746492193
 20
208.1189762844882125
 30
0.0
 40
0.0411656055476409
 50
87.819451361081633
 51
267.8194513610815761
  0
ARC
  5
DAED
  8
0
 10
3468.5516581746492193
 20
208.1189762844882125
 30
0.0
 40
0.04116560554764
 50
267.8194513610815761
 51
87.819451361081633
  0
ARC
  5
DAEE
  8
0
 10
3468.5516773397871475
 20
208.1189725818734075
 30
0.0
 40
0.0215710176796416
 50
88.037731529720844
 51
271.8162899633171037
  0
ARC
  5
DAEF
  8
0
 10
3468.5516773397871475
 20
208.1189725818734075
 30
0.0
 40
0.0215710176796397
 50
271.8162899633171037
 51
88.0377315279219772
  0
ARC
  5
DAF0
  8
0
 10
3468.4375986797481346
 20
207.9831161029476903
 30
0.0
 40
0.0708734759994477
 50
89.1757150940315313
 51
270.8242849059685113
  0
ARC
  5
DAF1
  8
0
 10
3468.4375986797472251
 20
207.9831161029547957
 30
0.0
 40
0.0708734760066418
 50
270.8242849059685113
 51
89.175714285510125
  0
ARC
  5
DAF2
  8
0
 10
3468.440545127526093
 20
207.9830150989866979
 30
0.0
 40
0.0630932108566892
 50
90.0917222992039086
 51
269.5366447634611973
  0
ARC
  5
DAF3
  8
0
 10
3468.4405451275420091
 20
207.9830151010293093
 30
0.0
 40
0.0630932128993609
 50
269.5366447634611973
 51
90.0928715543841889
  0
ARC
  5
DAF4
  8
0
 10
3468.4416962457548834
 20
207.9843314489480974
 30
0.0
 40
0.0553744154075908
 50
91.3310501870720657
 51
271.8578623630605762
  0
ARC
  5
DAF5
  8
0
 10
3468.4416962457548834
 20
207.9843314489475858
 30
0.0
 40
0.0553744154070787
 50
271.8578623630605762
 51
91.3310501498031755
  0
ARC
  5
DAF6
  8
0
 10
3468.4364734371220038
 20
207.9772089039182106
 30
0.0
 40
0.0411656055476409
 50
87.819451361081633
 51
267.8194513610815761
  0
ARC
  5
DAF7
  8
0
 10
3468.4364734371220038
 20
207.9772089039182106
 30
0.0
 40
0.04116560554764
 50
267.8194513610815761
 51
87.819451361081633
  0
ARC
  5
DAF8
  8
0
 10
3468.4364926022590225
 20
207.9772052013034056
 30
0.0
 40
0.0215710176796416
 50
88.037731529720844
 51
271.8162899633171037
  0
ARC
  5
DAF9
  8
0
 10
3468.4364926022590225
 20
207.9772052013034056
 30
0.0
 40
0.0215710176796397
 50
271.8162899633171037
 51
88.0377315279219772
  0
ARC
  5
DAFA
  8
0
 10
3468.1862089810620091
 20
207.986068843903297
 30
0.0
 40
0.0708734759994477
 50
89.1757150940315313
 51
270.8242849059685113
  0
ARC
  5
DAFB
  8
0
 10
3468.1862089810620091
 20
207.9860688439104024
 30
0.0
 40
0.0708734760066418
 50
270.8242849059685113
 51
89.175714285510125
  0
ARC
  5
DAFC
  8
0
 10
3468.1891554288399675
 20
207.9859678399423046
 30
0.0
 40
0.0630932108566892
 50
90.0917222992039086
 51
269.5366447634611973
  0
ARC
  5
DAFD
  8
0
 10
3468.1891554288558837
 20
207.9859678419848876
 30
0.0
 40
0.0630932128993609
 50
269.5366447634611973
 51
90.0928715543841889
  0
ARC
  5
DAFE
  8
0
 10
3468.1903065470678484
 20
207.9872841899037041
 30
0.0
 40
0.0553744154075908
 50
91.3310501870720657
 51
271.8578623630605762
  0
ARC
  5
DAFF
  8
0
 10
3468.1903065470678484
 20
207.9872841899031926
 30
0.0
 40
0.0553744154070787
 50
271.8578623630605762
 51
91.3310501498031755
  0
ARC
  5
DB00
  8
0
 10
3468.1850837384349688
 20
207.9801616448737889
 30
0.0
 40
0.0411656055476409
 50
87.819451361081633
 51
267.8194513610815761
  0
ARC
  5
DB01
  8
0
 10
3468.1850837384349688
 20
207.9801616448737889
 30
0.0
 40
0.04116560554764
 50
267.8194513610815761
 51
87.819451361081633
  0
ARC
  5
DB02
  8
0
 10
3468.1851029035719876
 20
207.9801579422590123
 30
0.0
 40
0.0215710176796416
 50
88.037731529720844
 51
271.8162899633171037
  0
ARC
  5
DB03
  8
0
 10
3468.1851029035719876
 20
207.9801579422590123
 30
0.0
 40
0.0215710176796397
 50
271.8162899633171037
 51
88.0377315279219772
  0
ARC
  5
DB04
  8
0
 10
3468.3092331007887879
 20
208.1145462664993886
 30
0.0
 40
0.0708734759994477
 50
89.1757150940315313
 51
270.8242849059685113
  0
ARC
  5
DB05
  8
0
 10
3468.3092331007887879
 20
208.1145462665066077
 30
0.0
 40
0.0708734760066418
 50
270.8242849059685113
 51
89.175714285510125
  0
ARC
  5
DB06
  8
0
 10
3468.3121795485681105
 20
208.1144452625383963
 30
0.0
 40
0.0630932108566892
 50
90.0917222992039086
 51
269.5366447634611973
  0
ARC
  5
DB07
  8
0
 10
3468.3121795485849361
 20
208.1144452645810077
 30
0.0
 40
0.0630932128993609
 50
269.5366447634611973
 51
90.0928715543841889
  0
ARC
  5
DB08
  8
0
 10
3468.3133306667959914
 20
208.1157616124997958
 30
0.0
 40
0.0553744154075908
 50
91.3310501870720657
 51
271.8578623630605762
  0
ARC
  5
DB09
  8
0
 10
3468.3133306667959914
 20
208.1157616124991989
 30
0.0
 40
0.0553744154070787
 50
271.8578623630605762
 51
91.3310501498031755
  0
ARC
  5
DB0A
  8
0
 10
3468.3081078581631118
 20
208.1086390674699089
 30
0.0
 40
0.0411656055476409
 50
87.819451361081633
 51
267.8194513610815761
  0
ARC
  5
DB0B
  8
0
 10
3468.3081078581631118
 20
208.1086390674699089
 30
0.0
 40
0.04116560554764
 50
267.8194513610815761
 51
87.819451361081633
  0
ARC
  5
DB0C
  8
0
 10
3468.30812702330104
 20
208.1086353648551039
 30
0.0
 40
0.0215710176796416
 50
88.037731529720844
 51
271.8162899633171037
  0
ARC
  5
DB0D
  8
0
 10
3468.30812702330104
 20
208.1086353648551039
 30
0.0
 40
0.0215710176796397
 50
271.8162899633171037
 51
88.0377315279219772
  0
ARC
  5
DB0E
  8
0
 10
3468.1785732684420509
 20
208.2397492775434955
 30
0.0
 40
0.0708734759994477
 50
89.1757150940315313
 51
270.8242849059685113
  0
ARC
  5
DB0F
  8
0
 10
3468.1785732684420509
 20
208.2397492775506862
 30
0.0
 40
0.0708734760066418
 50
270.8242849059685113
 51
89.175714285510125
  0
ARC
  5
DB10
  8
0
 10
3468.1815197162209188
 20
208.2396482735825884
 30
0.0
 40
0.0630932108566892
 50
90.0917222992039086
 51
269.5366447634611973
  0
ARC
  5
DB11
  8
0
 10
3468.1815197162381992
 20
208.2396482756251999
 30
0.0
 40
0.0630932128993609
 50
269.5366447634611973
 51
90.0928715543841889
  0
ARC
  5
DB12
  8
0
 10
3468.182670834450164
 20
208.240964623543988
 30
0.0
 40
0.0553744154075908
 50
91.3310501870720657
 51
271.8578623630605762
  0
ARC
  5
DB13
  8
0
 10
3468.182670834450164
 20
208.2409646235433911
 30
0.0
 40
0.0553744154070787
 50
271.8578623630605762
 51
91.3310501498031755
  0
ARC
  5
DB14
  8
0
 10
3468.1774480258159201
 20
208.2338420785141011
 30
0.0
 40
0.0411656055476409
 50
87.819451361081633
 51
267.8194513610815761
  0
ARC
  5
DB15
  8
0
 10
3468.1774480258159201
 20
208.2338420785141011
 30
0.0
 40
0.04116560554764
 50
267.8194513610815761
 51
87.819451361081633
  0
ARC
  5
DB16
  8
0
 10
3468.1774671909529388
 20
208.2338383758992961
 30
0.0
 40
0.0215710176796416
 50
88.037731529720844
 51
271.8162899633171037
  0
ARC
  5
DB17
  8
0
 10
3468.1774671909529388
 20
208.2338383758992961
 30
0.0
 40
0.0215710176796397
 50
271.8162899633171037
 51
88.0377315279219772
  0
ARC
  5
DB18
  8
0
 10
3468.4381774850621696
 20
208.2380373479032869
 30
0.0
 40
0.0708734759994477
 50
89.1757150940315313
 51
270.8242849059685113
  0
ARC
  5
DB19
  8
0
 10
3468.4381774850621696
 20
208.238037347910506
 30
0.0
 40
0.0708734760066418
 50
270.8242849059685113
 51
89.175714285510125
  0
ARC
  5
DB1A
  8
0
 10
3468.441123932840128
 20
208.2379363439422946
 30
0.0
 40
0.0630932108566892
 50
90.0917222992039086
 51
269.5366447634611973
  0
ARC
  5
DB1B
  8
0
 10
3468.4411239328569536
 20
208.237936345984906
 30
0.0
 40
0.0630932128993609
 50
269.5366447634611973
 51
90.0928715543841889
  0
ARC
  5
DB1C
  8
0
 10
3468.4422750510689184
 20
208.2392526939036941
 30
0.0
 40
0.0553744154075908
 50
91.3310501870720657
 51
271.8578623630605762
  0
ARC
  5
DB1D
  8
0
 10
3468.4422750510689184
 20
208.2392526939030972
 30
0.0
 40
0.0553744154070787
 50
271.8578623630605762
 51
91.3310501498031755
  0
ARC
  5
DB1E
  8
0
 10
3468.4370522424351293
 20
208.2321301488738072
 30
0.0
 40
0.0411656055476409
 50
87.819451361081633
 51
267.8194513610815761
  0
ARC
  5
DB1F
  8
0
 10
3468.4370522424351293
 20
208.2321301488738072
 30
0.0
 40
0.04116560554764
 50
267.8194513610815761
 51
87.819451361081633
  0
ARC
  5
DB20
  8
0
 10
3468.437071407572148
 20
208.2321264462590023
 30
0.0
 40
0.0215710176796416
 50
88.037731529720844
 51
271.8162899633171037
  0
ARC
  5
DB21
  8
0
 10
3468.437071407572148
 20
208.2321264462590023
 30
0.0
 40
0.0215710176796397
 50
271.8162899633171037
 51
88.0377315279219772
  0
ARC
  5
DB22
  8
0
 10
3468.6901459889609214
 20
208.2380373479032869
 30
0.0
 40
0.0708734759994477
 50
89.1757150940315313
 51
270.8242849059685113
  0
ARC
  5
DB23
  8
0
 10
3468.6901459889609214
 20
208.238037347910506
 30
0.0
 40
0.0708734760066418
 50
270.8242849059685113
 51
89.175714285510125
  0
ARC
  5
DB24
  8
0
 10
3468.6930924367397893
 20
208.2379363439422946
 30
0.0
 40
0.0630932108566892
 50
90.0917222992039086
 51
269.5366447634611973
  0
ARC
  5
DB25
  8
0
 10
3468.6930924367570697
 20
208.237936345984906
 30
0.0
 40
0.0630932128993609
 50
269.5366447634611973
 51
90.0928715543841889
  0
ARC
  5
DB26
  8
0
 10
3468.6942435549690344
 20
208.2392526939036941
 30
0.0
 40
0.0553744154075908
 50
91.3310501870720657
 51
271.8578623630605762
  0
ARC
  5
DB27
  8
0
 10
3468.6942435549690344
 20
208.2392526939030972
 30
0.0
 40
0.0553744154070787
 50
271.8578623630605762
 51
91.3310501498031755
  0
ARC
  5
DB28
  8
0
 10
3468.6890207463347906
 20
208.2321301488738072
 30
0.0
 40
0.0411656055476409
 50
87.819451361081633
 51
267.8194513610815761
  0
ARC
  5
DB29
  8
0
 10
3468.6890207463347906
 20
208.2321301488738072
 30
0.0
 40
0.04116560554764
 50
267.8194513610815761
 51
87.819451361081633
  0
ARC
  5
DB2A
  8
0
 10
3468.6890399114731736
 20
208.2321264462590023
 30
0.0
 40
0.0215710176796416
 50
88.037731529720844
 51
271.8162899633171037
  0
ARC
  5
DB2B
  8
0
 10
3468.6890399114731736
 20
208.2321264462590023
 30
0.0
 40
0.0215710176796397
 50
271.8162899633171037
 51
88.0377315279219772
  0
ARC
  5
DB2C
  8
0
 10
3468.5641617369610685
 20
208.3640215998032943
 30
0.0
 40
0.0708734759994477
 50
89.1757150940315313
 51
270.8242849059685113
  0
ARC
  5
DB2D
  8
0
 10
3468.5641617369610685
 20
208.3640215998105134
 30
0.0
 40
0.0708734760066418
 50
270.8242849059685113
 51
89.175714285510125
  0
ARC
  5
DB2E
  8
0
 10
3468.5671081847399364
 20
208.363920595842302
 30
0.0
 40
0.0630932108566892
 50
90.0917222992039086
 51
269.5366447634611973
  0
ARC
  5
DB2F
  8
0
 10
3468.5671081847572168
 20
208.3639205978849134
 30
0.0
 40
0.0630932128993609
 50
269.5366447634611973
 51
90.0928715543841889
  0
ARC
  5
DB30
  8
0
 10
3468.5682593029678173
 20
208.3652369458037015
 30
0.0
 40
0.0553744154075908
 50
91.3310501870720657
 51
271.8578623630605762
  0
ARC
  5
DB31
  8
0
 10
3468.5682593029678173
 20
208.3652369458031899
 30
0.0
 40
0.0553744154070787
 50
271.8578623630605762
 51
91.3310501498031755
  0
ARC
  5
DB32
  8
0
 10
3468.5630364943349377
 20
208.3581144007737862
 30
0.0
 40
0.0411656055476409
 50
87.819451361081633
 51
267.8194513610815761
  0
ARC
  5
DB33
  8
0
 10
3468.5630364943349377
 20
208.3581144007737862
 30
0.0
 40
0.04116560554764
 50
267.8194513610815761
 51
87.819451361081633
  0
ARC
  5
DB34
  8
0
 10
3468.563055659472866
 20
208.3581106981590096
 30
0.0
 40
0.0215710176796416
 50
88.037731529720844
 51
271.8162899633171037
  0
ARC
  5
DB35
  8
0
 10
3468.563055659472866
 20
208.3581106981590096
 30
0.0
 40
0.0215710176796397
 50
271.8162899633171037
 51
88.0377315279219772
  0
ARC
  5
DB36
  8
0
 10
3468.3076855978620188
 20
208.3668384700685863
 30
0.0
 40
0.0708734759994477
 50
89.1757150940315313
 51
270.8242849059685113
  0
ARC
  5
DB37
  8
0
 10
3468.3076855978620188
 20
208.3668384700756917
 30
0.0
 40
0.0708734760066418
 50
270.8242849059685113
 51
89.175714285510125
  0
ARC
  5
DB38
  8
0
 10
3468.3106320456399772
 20
208.3667374661075939
 30
0.0
 40
0.0630932108566892
 50
90.0917222992039086
 51
269.5366447634611973
  0
ARC
  5
DB39
  8
0
 10
3468.3106320456568028
 20
208.3667374681502054
 30
0.0
 40
0.0630932128993609
 50
269.5366447634611973
 51
90.0928715543841889
  0
ARC
  5
DB3A
  8
0
 10
3468.3117831638692223
 20
208.3680538160689082
 30
0.0
 40
0.0553744154075908
 50
91.3310501870720657
 51
271.8578623630605762
  0
ARC
  5
DB3B
  8
0
 10
3468.3117831638692223
 20
208.3680538160685103
 30
0.0
 40
0.0553744154070787
 50
271.8578623630605762
 51
91.3310501498031755
  0
ARC
  5
DB3C
  8
0
 10
3468.306560355235888
 20
208.3609312710391066
 30
0.0
 40
0.0411656055476409
 50
87.819451361081633
 51
267.8194513610815761
  0
ARC
  5
DB3D
  8
0
 10
3468.306560355235888
 20
208.3609312710391066
 30
0.0
 40
0.04116560554764
 50
267.8194513610815761
 51
87.819451361081633
  0
ARC
  5
DB3E
  8
0
 10
3468.3065795203729067
 20
208.3609275684243016
 30
0.0
 40
0.0215710176796416
 50
88.037731529720844
 51
271.8162899633171037
  0
ARC
  5
DB3F
  8
0
 10
3468.3065795203729067
 20
208.3609275684243016
 30
0.0
 40
0.0215710176796397
 50
271.8162899633171037
 51
88.0377315279219772
  0
ARC
  5
DB40
  8
0
 10
3468.4381840369610472
 20
208.4900058639032068
 30
0.0
 40
0.0708734759994477
 50
89.1757150940315313
 51
270.8242849059685113
  0
ARC
  5
DB41
  8
0
 10
3468.4381840369610472
 20
208.4900058639103975
 30
0.0
 40
0.0708734760066418
 50
270.8242849059685113
 51
89.175714285510125
  0
ARC
  5
DB42
  8
0
 10
3468.4411304847399151
 20
208.4899048599422997
 30
0.0
 40
0.0630932108566892
 50
90.0917222992039086
 51
269.5366447634611973
  0
ARC
  5
DB43
  8
0
 10
3468.4411304847571955
 20
208.4899048619849111
 30
0.0
 40
0.0630932128993609
 50
269.5366447634611973
 51
90.0928715543841889
  0
ARC
  5
DB44
  8
0
 10
3468.4422816029677961
 20
208.4912212099036992
 30
0.0
 40
0.0553744154075908
 50
91.3310501870720657
 51
271.8578623630605762
  0
ARC
  5
DB45
  8
0
 10
3468.4422816029677961
 20
208.4912212099031876
 30
0.0
 40
0.0553744154070787
 50
271.8578623630605762
 51
91.3310501498031755
  0
ARC
  5
DB46
  8
0
 10
3468.4370587943349165
 20
208.4840986648738124
 30
0.0
 40
0.0411656055476409
 50
87.819451361081633
 51
267.8194513610815761
  0
ARC
  5
DB47
  8
0
 10
3468.4370587943349165
 20
208.4840986648738124
 30
0.0
 40
0.04116560554764
 50
267.8194513610815761
 51
87.819451361081633
  0
ARC
  5
DB48
  8
0
 10
3468.4370779594719352
 20
208.4840949622590074
 30
0.0
 40
0.0215710176796416
 50
88.037731529720844
 51
271.8162899633171037
  0
ARC
  5
DB49
  8
0
 10
3468.4370779594719352
 20
208.4840949622590074
 30
0.0
 40
0.0215710176796397
 50
271.8162899633171037
 51
88.0377315279219772
  0
ARC
  5
DB4A
  8
0
 10
3468.1785540094329008
 20
208.4897511713772076
 30
0.0
 40
0.0708734759994477
 50
89.1757150940315313
 51
270.8242849059685113
  0
ARC
  5
DB4B
  8
0
 10
3468.1785540094329008
 20
208.4897511713843983
 30
0.0
 40
0.0708734760066418
 50
270.8242849059685113
 51
89.175714285510125
  0
ARC
  5
DB4C
  8
0
 10
3468.1815004572122234
 20
208.4896501674163005
 30
0.0
 40
0.0630932108566892
 50
90.0917222992039086
 51
269.5366447634611973
  0
ARC
  5
DB4D
  8
0
 10
3468.1815004572290491
 20
208.4896501694589119
 30
0.0
 40
0.0630932128993609
 50
269.5366447634611973
 51
90.0928715543841889
  0
ARC
  5
DB4E
  8
0
 10
3468.1826515754410138
 20
208.4909665173777
 30
0.0
 40
0.0553744154075908
 50
91.3310501870720657
 51
271.8578623630605762
  0
ARC
  5
DB4F
  8
0
 10
3468.1826515754410138
 20
208.4909665173771884
 30
0.0
 40
0.0553744154070787
 50
271.8578623630605762
 51
91.3310501498031755
  0
ARC
  5
DB50
  8
0
 10
3468.1774287668072247
 20
208.4838439723478132
 30
0.0
 40
0.0411656055476409
 50
87.819451361081633
 51
267.8194513610815761
  0
ARC
  5
DB51
  8
0
 10
3468.1774287668072247
 20
208.4838439723478132
 30
0.0
 40
0.04116560554764
 50
267.8194513610815761
 51
87.819451361081633
  0
ARC
  5
DB52
  8
0
 10
3468.177447931945153
 20
208.4838402697330082
 30
0.0
 40
0.0215710176796416
 50
88.037731529720844
 51
271.8162899633171037
  0
ARC
  5
DB53
  8
0
 10
3468.177447931945153
 20
208.4838402697330082
 30
0.0
 40
0.0215710176796397
 50
271.8162899633171037
 51
88.0377315279219772
  0
ARC
  5
DB54
  8
0
 10
3468.6901459889609214
 20
208.4900058518032893
 30
0.0
 40
0.0708734759994477
 50
89.1757150940315313
 51
270.8242849059685113
  0
ARC
  5
DB55
  8
0
 10
3468.6901459889609214
 20
208.4900058518103947
 30
0.0
 40
0.0708734760066418
 50
270.8242849059685113
 51
89.175714285510125
  0
ARC
  5
DB56
  8
0
 10
3468.6930924367397893
 20
208.4899048478422969
 30
0.0
 40
0.0630932108566892
 50
90.0917222992039086
 51
269.5366447634611973
  0
ARC
  5
DB57
  8
0
 10
3468.6930924367570697
 20
208.4899048498849083
 30
0.0
 40
0.0630932128993609
 50
269.5366447634611973
 51
90.0928715543841889
  0
ARC
  5
DB58
  8
0
 10
3468.6942435549690344
 20
208.4912211978036112
 30
0.0
 40
0.0553744154075908
 50
91.3310501870720657
 51
271.8578623630605762
  0
ARC
  5
DB59
  8
0
 10
3468.6942435549690344
 20
208.4912211978032133
 30
0.0
 40
0.0553744154070787
 50
271.8578623630605762
 51
91.3310501498031755
  0
ARC
  5
DB5A
  8
0
 10
3468.6890207463347906
 20
208.4840986527738096
 30
0.0
 40
0.0411656055476409
 50
87.819451361081633
 51
267.8194513610815761
  0
ARC
  5
DB5B
  8
0
 10
3468.6890207463347906
 20
208.4840986527738096
 30
0.0
 40
0.04116560554764
 50
267.8194513610815761
 51
87.819451361081633
  0
ARC
  5
DB5C
  8
0
 10
3468.6890399114731736
 20
208.4840949501590046
 30
0.0
 40
0.0215710176796416
 50
88.037731529720844
 51
271.8162899633171037
  0
ARC
  5
DB5D
  8
0
 10
3468.6890399114731736
 20
208.4840949501590046
 30
0.0
 40
0.0215710176796397
 50
271.8162899633171037
 51
88.0377315279219772
  0
ARC
  5
DB5E
  8
0
 10
3468.5667273889221178
 20
208.6144314174366059
 30
0.0
 40
0.0708734759994477
 50
89.1757150940315313
 51
270.8242849059685113
  0
ARC
  5
DB5F
  8
0
 10
3468.5667273889221178
 20
208.6144314174437966
 30
0.0
 40
0.0708734760066418
 50
270.8242849059685113
 51
89.175714285510125
  0
ARC
  5
DB60
  8
0
 10
3468.5696738367018952
 20
208.6143304134756988
 30
0.0
 40
0.0630932108566892
 50
90.0917222992039086
 51
269.5366447634611973
  0
ARC
  5
DB61
  8
0
 10
3468.5696738367178114
 20
208.6143304155183102
 30
0.0
 40
0.0630932128993609
 50
269.5366447634611973
 51
90.0928715543841889
  0
ARC
  5
DB62
  8
0
 10
3468.5708249549288666
 20
208.6156467634370983
 30
0.0
 40
0.0553744154075908
 50
91.3310501870720657
 51
271.8578623630605762
  0
ARC
  5
DB63
  8
0
 10
3468.5708249549288666
 20
208.6156467634365868
 30
0.0
 40
0.0553744154070787
 50
271.8578623630605762
 51
91.3310501498031755
  0
ARC
  5
DB64
  8
0
 10
3468.565602146295987
 20
208.6085242184072115
 30
0.0
 40
0.0411656055476409
 50
87.819451361081633
 51
267.8194513610815761
  0
ARC
  5
DB65
  8
0
 10
3468.565602146295987
 20
208.6085242184072115
 30
0.0
 40
0.04116560554764
 50
267.8194513610815761
 51
87.819451361081633
  0
ARC
  5
DB66
  8
0
 10
3468.5656213114330058
 20
208.6085205157924065
 30
0.0
 40
0.0215710176796416
 50
88.037731529720844
 51
271.8162899633171037
  0
ARC
  5
DB67
  8
0
 10
3468.5656213114330058
 20
208.6085205157924065
 30
0.0
 40
0.0215710176796397
 50
271.8162899633171037
 51
88.0377315279219772
  0
ARC
  5
DB68
  8
0
 10
3468.3061718141962047
 20
208.6167217271722052
 30
0.0
 40
0.0708734759994477
 50
89.1757150940315313
 51
270.8242849059685113
  0
ARC
  5
DB69
  8
0
 10
3468.3061718141962047
 20
208.6167217271793106
 30
0.0
 40
0.0708734760066418
 50
270.8242849059685113
 51
89.175714285510125
  0
ARC
  5
DB6A
  8
0
 10
3468.309118261974163
 20
208.6166207232112129
 30
0.0
 40
0.0630932108566892
 50
90.0917222992039086
 51
269.5366447634611973
  0
ARC
  5
DB6B
  8
0
 10
3468.3091182619900792
 20
208.6166207252537959
 30
0.0
 40
0.0630932128993609
 50
269.5366447634611973
 51
90.0928715543841889
  0
ARC
  5
DB6C
  8
0
 10
3468.3102693802029535
 20
208.6179370731726124
 30
0.0
 40
0.0553744154075908
 50
91.3310501870720657
 51
271.8578623630605762
  0
ARC
  5
DB6D
  8
0
 10
3468.3102693802029535
 20
208.6179370731719871
 30
0.0
 40
0.0553744154070787
 50
271.8578623630605762
 51
91.3310501498031755
  0
ARC
  5
DB6E
  8
0
 10
3468.3050465715700739
 20
208.6108145281426971
 30
0.0
 40
0.0411656055476409
 50
87.819451361081633
 51
267.8194513610815761
  0
ARC
  5
DB6F
  8
0
 10
3468.3050465715700739
 20
208.6108145281426971
 30
0.0
 40
0.04116560554764
 50
267.8194513610815761
 51
87.819451361081633
  0
ARC
  5
DB70
  8
0
 10
3468.3050657367070926
 20
208.6108108255278921
 30
0.0
 40
0.0215710176796416
 50
88.037731529720844
 51
271.8162899633171037
  0
ARC
  5
DB71
  8
0
 10
3468.3050657367070926
 20
208.6108108255278921
 30
0.0
 40
0.0215710176796397
 50
271.8162899633171037
 51
88.0377315279219772
  0
ARC
  5
DB72
  8
0
 10
3468.4381774850621696
 20
208.7419743557032064
 30
0.0
 40
0.0708734759994477
 50
89.1757150940315313
 51
270.8242849059685113
  0
ARC
  5
DB73
  8
0
 10
3468.4381774850621696
 20
208.741974355710397
 30
0.0
 40
0.0708734760066418
 50
270.8242849059685113
 51
89.175714285510125
  0
ARC
  5
DB74
  8
0
 10
3468.441123932840128
 20
208.7418733517422993
 30
0.0
 40
0.0630932108566892
 50
90.0917222992039086
 51
269.5366447634611973
  0
ARC
  5
DB75
  8
0
 10
3468.4411239328569536
 20
208.7418733537849107
 30
0.0
 40
0.0630932128993609
 50
269.5366447634611973
 51
90.0928715543841889
  0
ARC
  5
DB76
  8
0
 10
3468.4422750510689184
 20
208.7431897017036988
 30
0.0
 40
0.0553744154075908
 50
91.3310501870720657
 51
271.8578623630605762
  0
ARC
  5
DB77
  8
0
 10
3468.4422750510689184
 20
208.7431897017031872
 30
0.0
 40
0.0553744154070787
 50
271.8578623630605762
 51
91.3310501498031755
  0
ARC
  5
DB78
  8
0
 10
3468.4370522424351293
 20
208.736067156673812
 30
0.0
 40
0.0411656055476409
 50
87.819451361081633
 51
267.8194513610815761
  0
ARC
  5
DB79
  8
0
 10
3468.4370522424351293
 20
208.736067156673812
 30
0.0
 40
0.04116560554764
 50
267.8194513610815761
 51
87.819451361081633
  0
ARC
  5
DB7A
  8
0
 10
3468.437071407572148
 20
208.736063454059007
 30
0.0
 40
0.0215710176796416
 50
88.037731529720844
 51
271.8162899633171037
  0
ARC
  5
DB7B
  8
0
 10
3468.437071407572148
 20
208.736063454059007
 30
0.0
 40
0.0215710176796397
 50
271.8162899633171037
 51
88.0377315279219772
  0
ARC
  5
DB7C
  8
0
 10
3468.6996791072720043
 20
208.7399226981002016
 30
0.0
 40
0.0708734759994477
 50
89.1757150940315313
 51
270.8242849059685113
  0
ARC
  5
DB7D
  8
0
 10
3468.6996791072720043
 20
208.7399226981073923
 30
0.0
 40
0.0708734760066418
 50
270.8242849059685113
 51
89.175714285510125
  0
ARC
  5
DB7E
  8
0
 10
3468.7026255550508722
 20
208.7398216941392946
 30
0.0
 40
0.0630932108566892
 50
90.0917222992039086
 51
269.5366447634611973
  0
ARC
  5
DB7F
  8
0
 10
3468.7026255550667884
 20
208.739821696181906
 30
0.0
 40
0.0630932128993609
 50
269.5366447634611973
 51
90.0928715543841889
  0
ARC
  5
DB80
  8
0
 10
3468.7037766732792079
 20
208.7411380441006088
 30
0.0
 40
0.0553744154075908
 50
91.3310501870720657
 51
271.8578623630605762
  0
ARC
  5
DB81
  8
0
 10
3468.7037766732792079
 20
208.7411380441000972
 30
0.0
 40
0.0553744154070787
 50
271.8578623630605762
 51
91.3310501498031755
  0
ARC
  5
DB82
  8
0
 10
3468.6985538646449641
 20
208.7340154990706935
 30
0.0
 40
0.0411656055476409
 50
87.819451361081633
 51
267.8194513610815761
  0
ARC
  5
DB83
  8
0
 10
3468.6985538646449641
 20
208.7340154990706935
 30
0.0
 40
0.04116560554764
 50
267.8194513610815761
 51
87.819451361081633
  0
ARC
  5
DB84
  8
0
 10
3468.6985730297828923
 20
208.7340117964560022
 30
0.0
 40
0.0215710176796416
 50
88.037731529720844
 51
271.8162899633171037
  0
ARC
  5
DB85
  8
0
 10
3468.6985730297828923
 20
208.7340117964560022
 30
0.0
 40
0.0215710176796397
 50
271.8162899633171037
 51
88.0377315279219772
  0
ARC
  5
DB86
  8
0
 10
3468.1862089810620091
 20
208.7419743557032064
 30
0.0
 40
0.0708734759994477
 50
89.1757150940315313
 51
270.8242849059685113
  0
ARC
  5
DB87
  8
0
 10
3468.1862089810620091
 20
208.741974355710397
 30
0.0
 40
0.0708734760066418
 50
270.8242849059685113
 51
89.175714285510125
  0
ARC
  5
DB88
  8
0
 10
3468.1891554288399675
 20
208.7418733517422993
 30
0.0
 40
0.0630932108566892
 50
90.0917222992039086
 51
269.5366447634611973
  0
ARC
  5
DB89
  8
0
 10
3468.1891554288558837
 20
208.7418733537849107
 30
0.0
 40
0.0630932128993609
 50
269.5366447634611973
 51
90.0928715543841889
  0
ARC
  5
DB8A
  8
0
 10
3468.1903065470678484
 20
208.7431897017036988
 30
0.0
 40
0.0553744154075908
 50
91.3310501870720657
 51
271.8578623630605762
  0
ARC
  5
DB8B
  8
0
 10
3468.1903065470678484
 20
208.7431897017031872
 30
0.0
 40
0.0553744154070787
 50
271.8578623630605762
 51
91.3310501498031755
  0
ARC
  5
DB8C
  8
0
 10
3468.1850837384349688
 20
208.736067156673812
 30
0.0
 40
0.0411656055476409
 50
87.819451361081633
 51
267.8194513610815761
  0
ARC
  5
DB8D
  8
0
 10
3468.1850837384349688
 20
208.736067156673812
 30
0.0
 40
0.04116560554764
 50
267.8194513610815761
 51
87.819451361081633
  0
ARC
  5
DB8E
  8
0
 10
3468.1851029035719876
 20
208.736063454059007
 30
0.0
 40
0.0215710176796416
 50
88.037731529720844
 51
271.8162899633171037
  0
ARC
  5
DB8F
  8
0
 10
3468.1851029035719876
 20
208.736063454059007
 30
0.0
 40
0.0215710176796397
 50
271.8162899633171037
 51
88.0377315279219772
  0
ARC
  5
DB90
  8
0
 10
3468.3121932330609525
 20
209.1199271116032889
 30
0.0
 40
0.0708734759994477
 50
89.1757150940315313
 51
270.8242849059685113
  0
ARC
  5
DB91
  8
0
 10
3468.3121932330609525
 20
209.1199271116105081
 30
0.0
 40
0.0708734760066418
 50
270.8242849059685113
 51
89.175714285510125
  0
ARC
  5
DB92
  8
0
 10
3468.3151396808398204
 20
209.1198261076422966
 30
0.0
 40
0.0630932108566892
 50
90.0917222992039086
 51
269.5366447634611973
  0
ARC
  5
DB93
  8
0
 10
3468.3151396808561913
 20
209.119826109684908
 30
0.0
 40
0.0630932128993609
 50
269.5366447634611973
 51
90.0928715543841889
  0
ARC
  5
DB94
  8
0
 10
3468.3162907990690655
 20
209.1211424576036961
 30
0.0
 40
0.0553744154075908
 50
91.3310501870720657
 51
271.8578623630605762
  0
ARC
  5
DB95
  8
0
 10
3468.3162907990690655
 20
209.121142457603213
 30
0.0
 40
0.0553744154070787
 50
271.8578623630605762
 51
91.3310501498031755
  0
ARC
  5
DB96
  8
0
 10
3468.3110679904348217
 20
209.1140199125738093
 30
0.0
 40
0.0411656055476409
 50
87.819451361081633
 51
267.8194513610815761
  0
ARC
  5
DB97
  8
0
 10
3468.3110679904348217
 20
209.1140199125738093
 30
0.0
 40
0.04116560554764
 50
267.8194513610815761
 51
87.819451361081633
  0
ARC
  5
DB98
  8
0
 10
3468.3110871555732047
 20
209.1140162099590043
 30
0.0
 40
0.0215710176796416
 50
88.037731529720844
 51
271.8162899633171037
  0
ARC
  5
DB99
  8
0
 10
3468.3110871555732047
 20
209.1140162099590043
 30
0.0
 40
0.0215710176796397
 50
271.8162899633171037
 51
88.0377315279219772
  0
ARC
  5
DB9A
  8
0
 10
3468.1822272974118277
 20
208.9949938179013031
 30
0.0
 40
0.0708734759994477
 50
89.1757150940315313
 51
270.8242849059685113
  0
ARC
  5
DB9B
  8
0
 10
3468.1822272974118277
 20
208.9949938179084086
 30
0.0
 40
0.0708734760066418
 50
270.8242849059685113
 51
89.175714285510125
  0
ARC
  5
DB9C
  8
0
 10
3468.1851737451911504
 20
208.9948928139403108
 30
0.0
 40
0.0630932108566892
 50
90.0917222992039086
 51
269.5366447634611973
  0
ARC
  5
DB9D
  8
0
 10
3468.185173745207976
 20
208.9948928159828938
 30
0.0
 40
0.0630932128993609
 50
269.5366447634611973
 51
90.0928715543841889
  0
ARC
  5
DB9E
  8
0
 10
3468.1863248634190313
 20
208.9962091639017103
 30
0.0
 40
0.0553744154075908
 50
91.3310501870720657
 51
271.8578623630605762
  0
ARC
  5
DB9F
  8
0
 10
3468.1863248634190313
 20
208.9962091639011987
 30
0.0
 40
0.0553744154070787
 50
271.8578623630605762
 51
91.3310501498031755
  0
ARC
  5
DBA0
  8
0
 10
3468.1811020547847875
 20
208.9890866188717951
 30
0.0
 40
0.0411656055476409
 50
87.819451361081633
 51
267.8194513610815761
  0
ARC
  5
DBA1
  8
0
 10
3468.1811020547847875
 20
208.9890866188717951
 30
0.0
 40
0.04116560554764
 50
267.8194513610815761
 51
87.819451361081633
  0
ARC
  5
DBA2
  8
0
 10
3468.1811212199240799
 20
208.9890829162571038
 30
0.0
 40
0.0215710176796416
 50
88.037731529720844
 51
271.8162899633171037
  0
ARC
  5
DBA3
  8
0
 10
3468.1811212199240799
 20
208.9890829162569901
 30
0.0
 40
0.0215710176796397
 50
271.8162899633171037
 51
88.0377315279219772
  0
ARC
  5
DBA4
  8
0
 10
3468.3121932330609525
 20
208.8679586077032866
 30
0.0
 40
0.0708734759994477
 50
89.1757150940315313
 51
270.8242849059685113
  0
ARC
  5
DBA5
  8
0
 10
3468.3121932330609525
 20
208.8679586077105057
 30
0.0
 40
0.0708734760066418
 50
270.8242849059685113
 51
89.175714285510125
  0
ARC
  5
DBA6
  8
0
 10
3468.3151396808398204
 20
208.8678576037422943
 30
0.0
 40
0.0630932108566892
 50
90.0917222992039086
 51
269.5366447634611973
  0
ARC
  5
DBA7
  8
0
 10
3468.3151396808561913
 20
208.8678576057849057
 30
0.0
 40
0.0630932128993609
 50
269.5366447634611973
 51
90.0928715543841889
  0
ARC
  5
DBA8
  8
0
 10
3468.3162907990690655
 20
208.8691739537036938
 30
0.0
 40
0.0553744154075908
 50
91.3310501870720657
 51
271.8578623630605762
  0
ARC
  5
DBA9
  8
0
 10
3468.3162907990690655
 20
208.8691739537030969
 30
0.0
 40
0.0553744154070787
 50
271.8578623630605762
 51
91.3310501498031755
  0
ARC
  5
DBAA
  8
0
 10
3468.3110679904348217
 20
208.8620514086738069
 30
0.0
 40
0.0411656055476409
 50
87.819451361081633
 51
267.8194513610815761
  0
ARC
  5
DBAB
  8
0
 10
3468.3110679904348217
 20
208.8620514086738069
 30
0.0
 40
0.04116560554764
 50
267.8194513610815761
 51
87.819451361081633
  0
ARC
  5
DBAC
  8
0
 10
3468.3110871555732047
 20
208.8620477060590019
 30
0.0
 40
0.0215710176796416
 50
88.037731529720844
 51
271.8162899633171037
  0
ARC
  5
DBAD
  8
0
 10
3468.3110871555732047
 20
208.8620477060590019
 30
0.0
 40
0.0215710176796397
 50
271.8162899633171037
 51
88.0377315279219772
  0
ARC
  5
DBAE
  8
0
 10
3468.4381709330609738
 20
208.9939428475032912
 30
0.0
 40
0.0708734759994477
 50
89.1757150940315313
 51
270.8242849059685113
  0
ARC
  5
DBAF
  8
0
 10
3468.4381709330609738
 20
208.9939428475103966
 30
0.0
 40
0.0708734760066418
 50
270.8242849059685113
 51
89.175714285510125
  0
ARC
  5
DBB0
  8
0
 10
3468.4411173808398416
 20
208.9938418435422989
 30
0.0
 40
0.0630932108566892
 50
90.0917222992039086
 51
269.5366447634611973
  0
ARC
  5
DBB1
  8
0
 10
3468.4411173808562125
 20
208.9938418455849103
 30
0.0
 40
0.0630932128993609
 50
269.5366447634611973
 51
90.0928715543841889
  0
ARC
  5
DBB2
  8
0
 10
3468.4422684990690868
 20
208.9951581935036984
 30
0.0
 40
0.0553744154075908
 50
91.3310501870720657
 51
271.8578623630605762
  0
ARC
  5
DBB3
  8
0
 10
3468.4422684990690868
 20
208.9951581935031868
 30
0.0
 40
0.0553744154070787
 50
271.8578623630605762
 51
91.3310501498031755
  0
ARC
  5
DBB4
  8
0
 10
3468.437045690434843
 20
208.9880356484738115
 30
0.0
 40
0.0411656055476409
 50
87.819451361081633
 51
267.8194513610815761
  0
ARC
  5
DBB5
  8
0
 10
3468.437045690434843
 20
208.9880356484738115
 30
0.0
 40
0.04116560554764
 50
267.8194513610815761
 51
87.819451361081633
  0
ARC
  5
DBB6
  8
0
 10
3468.4370648555718617
 20
208.9880319458590066
 30
0.0
 40
0.0215710176796416
 50
88.037731529720844
 51
271.8162899633171037
  0
ARC
  5
DBB7
  8
0
 10
3468.4370648555718617
 20
208.9880319458590066
 30
0.0
 40
0.0215710176796397
 50
271.8162899633171037
 51
88.0377315279219772
  0
ARC
  5
DBB8
  8
0
 10
3468.5641617369610685
 20
208.8679586077032866
 30
0.0
 40
0.0708734759994477
 50
89.1757150940315313
 51
270.8242849059685113
  0
ARC
  5
DBB9
  8
0
 10
3468.5641617369610685
 20
208.8679586077105057
 30
0.0
 40
0.0708734760066418
 50
270.8242849059685113
 51
89.175714285510125
  0
ARC
  5
DBBA
  8
0
 10
3468.5671081847399364
 20
208.8678576037422943
 30
0.0
 40
0.0630932108566892
 50
90.0917222992039086
 51
269.5366447634611973
  0
ARC
  5
DBBB
  8
0
 10
3468.5671081847572168
 20
208.8678576057849057
 30
0.0
 40
0.0630932128993609
 50
269.5366447634611973
 51
90.0928715543841889
  0
ARC
  5
DBBC
  8
0
 10
3468.5682593029678173
 20
208.8691739537036938
 30
0.0
 40
0.0553744154075908
 50
91.3310501870720657
 51
271.8578623630605762
  0
ARC
  5
DBBD
  8
0
 10
3468.5682593029678173
 20
208.8691739537030969
 30
0.0
 40
0.0553744154070787
 50
271.8578623630605762
 51
91.3310501498031755
  0
ARC
  5
DBBE
  8
0
 10
3468.5630364943349377
 20
208.8620514086738069
 30
0.0
 40
0.0411656055476409
 50
87.819451361081633
 51
267.8194513610815761
  0
ARC
  5
DBBF
  8
0
 10
3468.5630364943349377
 20
208.8620514086738069
 30
0.0
 40
0.04116560554764
 50
267.8194513610815761
 51
87.819451361081633
  0
ARC
  5
DBC0
  8
0
 10
3468.563055659472866
 20
208.8620477060590019
 30
0.0
 40
0.0215710176796416
 50
88.037731529720844
 51
271.8162899633171037
  0
ARC
  5
DBC1
  8
0
 10
3468.563055659472866
 20
208.8620477060590019
 30
0.0
 40
0.0215710176796397
 50
271.8162899633171037
 51
88.0377315279219772
  0
ARC
  5
DBC2
  8
0
 10
3468.6901459889609214
 20
208.99394285970331
 30
0.0
 40
0.0708734759994477
 50
89.1757150940315313
 51
270.8242849059685113
  0
ARC
  5
DBC3
  8
0
 10
3468.6901459889609214
 20
208.9939428597105007
 30
0.0
 40
0.0708734760066418
 50
270.8242849059685113
 51
89.175714285510125
  0
ARC
  5
DBC4
  8
0
 10
3468.6930924367397893
 20
208.9938418557422892
 30
0.0
 40
0.0630932108566892
 50
90.0917222992039086
 51
269.5366447634611973
  0
ARC
  5
DBC5
  8
0
 10
3468.6930924367570697
 20
208.9938418577849006
 30
0.0
 40
0.0630932128993609
 50
269.5366447634611973
 51
90.0928715543841889
  0
ARC
  5
DBC6
  8
0
 10
3468.6942435549690344
 20
208.9951582057036035
 30
0.0
 40
0.0553744154075908
 50
91.3310501870720657
 51
271.8578623630605762
  0
ARC
  5
DBC7
  8
0
 10
3468.6942435549690344
 20
208.9951582057032056
 30
0.0
 40
0.0553744154070787
 50
271.8578623630605762
 51
91.3310501498031755
  0
ARC
  5
DBC8
  8
0
 10
3468.6890207463347906
 20
208.9880356606738019
 30
0.0
 40
0.0411656055476409
 50
87.819451361081633
 51
267.8194513610815761
  0
ARC
  5
DBC9
  8
0
 10
3468.6890207463347906
 20
208.9880356606738019
 30
0.0
 40
0.04116560554764
 50
267.8194513610815761
 51
87.819451361081633
  0
ARC
  5
DBCA
  8
0
 10
3468.6890399114731736
 20
208.9880319580589969
 30
0.0
 40
0.0215710176796416
 50
88.037731529720844
 51
271.8162899633171037
  0
ARC
  5
DBCB
  8
0
 10
3468.6890399114731736
 20
208.9880319580589969
 30
0.0
 40
0.0215710176796397
 50
271.8162899633171037
 51
88.0377315279219772
  0
ARC
  5
DBCC
  8
0
 10
3468.5545277085161615
 20
209.1043008359870896
 30
0.0
 40
0.0708734759994477
 50
89.1757150940315313
 51
270.8242849059685113
  0
ARC
  5
DBCD
  8
0
 10
3468.5545277085161615
 20
209.104300835994195
 30
0.0
 40
0.0708734760066418
 50
270.8242849059685113
 51
89.175714285510125
  0
ARC
  5
DBCE
  8
0
 10
3468.5574741562950294
 20
209.1041998320260973
 30
0.0
 40
0.0630932108566892
 50
90.0917222992039086
 51
269.5366447634611973
  0
ARC
  5
DBCF
  8
0
 10
3468.5574741563109455
 20
209.1041998340687087
 30
0.0
 40
0.0630932128993609
 50
269.5366447634611973
 51
90.0928715543841889
  0
ARC
  5
DBD0
  8
0
 10
3468.5586252745229103
 20
209.1055161819874115
 30
0.0
 40
0.0553744154075908
 50
91.3310501870720657
 51
271.8578623630605762
  0
ARC
  5
DBD1
  8
0
 10
3468.5586252745229103
 20
209.1055161819868999
 30
0.0
 40
0.0553744154070787
 50
271.8578623630605762
 51
91.3310501498031755
  0
ARC
  5
DBD2
  8
0
 10
3468.5534024658900307
 20
209.0983936369576099
 30
0.0
 40
0.0411656055476409
 50
87.819451361081633
 51
267.8194513610815761
  0
ARC
  5
DBD3
  8
0
 10
3468.5534024658900307
 20
209.0983936369576099
 30
0.0
 40
0.04116560554764
 50
267.8194513610815761
 51
87.819451361081633
  0
ARC
  5
DBD4
  8
0
 10
3468.5534216310270494
 20
209.098389934342805
 30
0.0
 40
0.0215710176796416
 50
88.037731529720844
 51
271.8162899633171037
  0
ARC
  5
DBD5
  8
0
 10
3468.5534216310270494
 20
209.098389934342805
 30
0.0
 40
0.0215710176796397
 50
271.8162899633171037
 51
88.0377315279219772
  0
ARC
  5
DBD6
  8
0
 10
3468.6901459889609214
 20
209.2459113636031987
 30
0.0
 40
0.0708734759994477
 50
89.1757150940315313
 51
270.8242849059685113
  0
ARC
  5
DBD7
  8
0
 10
3468.6901459889609214
 20
209.2459113636103893
 30
0.0
 40
0.0708734760066418
 50
270.8242849059685113
 51
89.175714285510125
  0
ARC
  5
DBD8
  8
0
 10
3468.6930924367397893
 20
209.2458103596422916
 30
0.0
 40
0.0630932108566892
 50
90.0917222992039086
 51
269.5366447634611973
  0
ARC
  5
DBD9
  8
0
 10
3468.6930924367570697
 20
209.245810361684903
 30
0.0
 40
0.0630932128993609
 50
269.5366447634611973
 51
90.0928715543841889
  0
ARC
  5
DBDA
  8
0
 10
3468.6942435549690344
 20
209.2471267096036911
 30
0.0
 40
0.0553744154075908
 50
91.3310501870720657
 51
271.8578623630605762
  0
ARC
  5
DBDB
  8
0
 10
3468.6942435549690344
 20
209.2471267096032079
 30
0.0
 40
0.0553744154070787
 50
271.8578623630605762
 51
91.3310501498031755
  0
ARC
  5
DBDC
  8
0
 10
3468.6890207463347906
 20
209.2400041645738042
 30
0.0
 40
0.0411656055476409
 50
87.819451361081633
 51
267.8194513610815761
  0
ARC
  5
DBDD
  8
0
 10
3468.6890207463347906
 20
209.2400041645738042
 30
0.0
 40
0.04116560554764
 50
267.8194513610815761
 51
87.819451361081633
  0
ARC
  5
DBDE
  8
0
 10
3468.6890399114731736
 20
209.2400004619589993
 30
0.0
 40
0.0215710176796416
 50
88.037731529720844
 51
271.8162899633171037
  0
ARC
  5
DBDF
  8
0
 10
3468.6890399114731736
 20
209.2400004619589993
 30
0.0
 40
0.0215710176796397
 50
271.8162899633171037
 51
88.0377315279219772
  0
ARC
  5
DBE0
  8
0
 10
3468.4381911806608514
 20
209.2473877285032984
 30
0.0
 40
0.0708734759994477
 50
89.1757150940315313
 51
270.8242849059685113
  0
ARC
  5
DBE1
  8
0
 10
3468.4381911806608514
 20
209.2473877285104891
 30
0.0
 40
0.0708734760066418
 50
270.8242849059685113
 51
89.175714285510125
  0
ARC
  5
DBE2
  8
0
 10
3468.441137628440174
 20
209.247286724542306
 30
0.0
 40
0.0630932108566892
 50
90.0917222992039086
 51
269.5366447634611973
  0
ARC
  5
DBE3
  8
0
 10
3468.4411376284560902
 20
209.247286726584889
 30
0.0
 40
0.0630932128993609
 50
269.5366447634611973
 51
90.0928715543841889
  0
ARC
  5
DBE4
  8
0
 10
3468.4422887466689644
 20
209.2486030745035919
 30
0.0
 40
0.0553744154075908
 50
91.3310501870720657
 51
271.8578623630605762
  0
ARC
  5
DBE5
  8
0
 10
3468.4422887466689644
 20
209.2486030745031087
 30
0.0
 40
0.0553744154070787
 50
271.8578623630605762
 51
91.3310501498031755
  0
ARC
  5
DBE6
  8
0
 10
3468.4370659380351753
 20
209.2414805294737903
 30
0.0
 40
0.0411656055476409
 50
87.819451361081633
 51
267.8194513610815761
  0
ARC
  5
DBE7
  8
0
 10
3468.4370659380351753
 20
209.2414805294737903
 30
0.0
 40
0.04116560554764
 50
267.8194513610815761
 51
87.819451361081633
  0
ARC
  5
DBE8
  8
0
 10
3468.4370851031721941
 20
209.2414768268590137
 30
0.0
 40
0.0215710176796416
 50
88.037731529720844
 51
271.8162899633171037
  0
ARC
  5
DBE9
  8
0
 10
3468.4370851031721941
 20
209.2414768268590137
 30
0.0
 40
0.0215710176796397
 50
271.8162899633171037
 51
88.0377315279219772
  0
ARC
  5
DBEA
  8
0
 10
3468.1589792174368085
 20
209.2472376892289958
 30
0.0
 40
0.0708734759994477
 50
89.1757150940315313
 51
270.8242849059685113
  0
ARC
  5
DBEB
  8
0
 10
3468.1589792174368085
 20
209.2472376892361865
 30
0.0
 40
0.0708734760066418
 50
270.8242849059685113
 51
89.175714285510125
  0
ARC
  5
DBEC
  8
0
 10
3468.1619256652161312
 20
209.2471366852680035
 30
0.0
 40
0.0630932108566892
 50
90.0917222992039086
 51
269.5366447634611973
  0
ARC
  5
DBED
  8
0
 10
3468.1619256652320473
 20
209.2471366873105865
 30
0.0
 40
0.0630932128993609
 50
269.5366447634611973
 51
90.0928715543841889
  0
ARC
  5
DBEE
  8
0
 10
3468.1630767834440121
 20
209.248453035229403
 30
0.0
 40
0.0553744154075908
 50
91.3310501870720657
 51
271.8578623630605762
  0
ARC
  5
DBEF
  8
0
 10
3468.1630767834440121
 20
209.2484530352288914
 30
0.0
 40
0.0553744154070787
 50
271.8578623630605762
 51
91.3310501498031755
  0
ARC
  5
DBF0
  8
0
 10
3468.1578539748111325
 20
209.2413304901994877
 30
0.0
 40
0.0411656055476409
 50
87.819451361081633
 51
267.8194513610815761
  0
ARC
  5
DBF1
  8
0
 10
3468.1578539748111325
 20
209.2413304901994877
 30
0.0
 40
0.04116560554764
 50
267.8194513610815761
 51
87.819451361081633
  0
ARC
  5
DBF2
  8
0
 10
3468.1578731399481512
 20
209.2413267875847112
 30
0.0
 40
0.0215710176796416
 50
88.037731529720844
 51
271.8162899633171037
  0
ARC
  5
DBF3
  8
0
 10
3468.1578731399481512
 20
209.2413267875847112
 30
0.0
 40
0.0215710176796397
 50
271.8162899633171037
 51
88.0377315279219772
  0
ARC
  5
DBF4
  8
0
 10
3468.3121932330609525
 20
209.3718956156031936
 30
0.0
 40
0.0708734759994477
 50
89.1757150940315313
 51
270.8242849059685113
  0
ARC
  5
DBF5
  8
0
 10
3468.3121932330609525
 20
209.3718956156104127
 30
0.0
 40
0.0708734760066418
 50
270.8242849059685113
 51
89.175714285510125
  0
ARC
  5
DBF6
  8
0
 10
3468.3151396808398204
 20
209.3717946116422866
 30
0.0
 40
0.0630932108566892
 50
90.0917222992039086
 51
269.5366447634611973
  0
ARC
  5
DBF7
  8
0
 10
3468.3151396808561913
 20
209.371794613684898
 30
0.0
 40
0.0630932128993609
 50
269.5366447634611973
 51
90.0928715543841889
  0
ARC
  5
DBF8
  8
0
 10
3468.3162907990690655
 20
209.3731109616036861
 30
0.0
 40
0.0553744154075908
 50
91.3310501870720657
 51
271.8578623630605762
  0
ARC
  5
DBF9
  8
0
 10
3468.3162907990690655
 20
209.3731109616030892
 30
0.0
 40
0.0553744154070787
 50
271.8578623630605762
 51
91.3310501498031755
  0
ARC
  5
DBFA
  8
0
 10
3468.3110679904348217
 20
209.3659884165737992
 30
0.0
 40
0.0411656055476409
 50
87.819451361081633
 51
267.8194513610815761
  0
ARC
  5
DBFB
  8
0
 10
3468.3110679904348217
 20
209.3659884165737992
 30
0.0
 40
0.04116560554764
 50
267.8194513610815761
 51
87.819451361081633
  0
ARC
  5
DBFC
  8
0
 10
3468.3110871555732047
 20
209.3659847139589942
 30
0.0
 40
0.0215710176796416
 50
88.037731529720844
 51
271.8162899633171037
  0
ARC
  5
DBFD
  8
0
 10
3468.3110871555732047
 20
209.3659847139589942
 30
0.0
 40
0.0215710176796397
 50
271.8162899633171037
 51
88.0377315279219772
  0
ARC
  5
DBFE
  8
0
 10
3468.5641617369610685
 20
209.3718956156031936
 30
0.0
 40
0.0708734759994477
 50
89.1757150940315313
 51
270.8242849059685113
  0
ARC
  5
DBFF
  8
0
 10
3468.5641617369610685
 20
209.3718956156104127
 30
0.0
 40
0.0708734760066418
 50
270.8242849059685113
 51
89.175714285510125
  0
ARC
  5
DC00
  8
0
 10
3468.5671081847399364
 20
209.3717946116422866
 30
0.0
 40
0.0630932108566892
 50
90.0917222992039086
 51
269.5366447634611973
  0
ARC
  5
DC01
  8
0
 10
3468.5671081847572168
 20
209.371794613684898
 30
0.0
 40
0.0630932128993609
 50
269.5366447634611973
 51
90.0928715543841889
  0
ARC
  5
DC02
  8
0
 10
3468.5682593029678173
 20
209.3731109616036861
 30
0.0
 40
0.0553744154075908
 50
91.3310501870720657
 51
271.8578623630605762
  0
ARC
  5
DC03
  8
0
 10
3468.5682593029678173
 20
209.3731109616030892
 30
0.0
 40
0.0553744154070787
 50
271.8578623630605762
 51
91.3310501498031755
  0
ARC
  5
DC04
  8
0
 10
3468.5630364943349377
 20
209.3659884165737992
 30
0.0
 40
0.0411656055476409
 50
87.819451361081633
 51
267.8194513610815761
  0
ARC
  5
DC05
  8
0
 10
3468.5630364943349377
 20
209.3659884165737992
 30
0.0
 40
0.04116560554764
 50
267.8194513610815761
 51
87.819451361081633
  0
ARC
  5
DC06
  8
0
 10
3468.563055659472866
 20
209.3659847139589942
 30
0.0
 40
0.0215710176796416
 50
88.037731529720844
 51
271.8162899633171037
  0
ARC
  5
DC07
  8
0
 10
3468.563055659472866
 20
209.3659847139589942
 30
0.0
 40
0.0215710176796397
 50
271.8162899633171037
 51
88.0377315279219772
  0
ARC
  5
DC08
  8
0
 10
3468.7090559958592166
 20
209.4835752444377874
 30
0.0
 40
0.0708734759994477
 50
89.1757150940315313
 51
270.8242849059685113
  0
ARC
  5
DC09
  8
0
 10
3468.7090559958592166
 20
209.4835752444450065
 30
0.0
 40
0.0708734760066418
 50
270.8242849059685113
 51
89.175714285510125
  0
ARC
  5
DC0A
  8
0
 10
3468.7120024436380845
 20
209.4834742404767951
 30
0.0
 40
0.0630932108566892
 50
90.0917222992039086
 51
269.5366447634611973
  0
ARC
  5
DC0B
  8
0
 10
3468.7120024436549102
 20
209.4834742425194065
 30
0.0
 40
0.0630932128993609
 50
269.5366447634611973
 51
90.0928715543841889
  0
ARC
  5
DC0C
  8
0
 10
3468.713153561866875
 20
209.4847905904381946
 30
0.0
 40
0.0553744154075908
 50
91.3310501870720657
 51
271.8578623630605762
  0
ARC
  5
DC0D
  8
0
 10
3468.713153561866875
 20
209.4847905904375978
 30
0.0
 40
0.0553744154070787
 50
271.8578623630605762
 51
91.3310501498031755
  0
ARC
  5
DC0E
  8
0
 10
3468.7079307532330859
 20
209.4776680454083078
 30
0.0
 40
0.0411656055476409
 50
87.819451361081633
 51
267.8194513610815761
  0
ARC
  5
DC0F
  8
0
 10
3468.7079307532330859
 20
209.4776680454083078
 30
0.0
 40
0.04116560554764
 50
267.8194513610815761
 51
87.819451361081633
  0
ARC
  5
DC10
  8
0
 10
3468.7079499183701046
 20
209.4776643427935028
 30
0.0
 40
0.0215710176796416
 50
88.037731529720844
 51
271.8162899633171037
  0
ARC
  5
DC11
  8
0
 10
3468.7079499183701046
 20
209.4776643427935028
 30
0.0
 40
0.0215710176796397
 50
271.8162899633171037
 51
88.0377315279219772
  0
ARC
  5
DC12
  8
0
 10
3468.4381774850621696
 20
209.4978798675032863
 30
0.0
 40
0.0708734759994477
 50
89.1757150940315313
 51
270.8242849059685113
  0
ARC
  5
DC13
  8
0
 10
3468.4381774850621696
 20
209.4978798675103917
 30
0.0
 40
0.0708734760066418
 50
270.8242849059685113
 51
89.175714285510125
  0
ARC
  5
DC14
  8
0
 10
3468.441123932840128
 20
209.4977788635422939
 30
0.0
 40
0.0630932108566892
 50
90.0917222992039086
 51
269.5366447634611973
  0
ARC
  5
DC15
  8
0
 10
3468.4411239328569536
 20
209.4977788655849054
 30
0.0
 40
0.0630932128993609
 50
269.5366447634611973
 51
90.0928715543841889
  0
ARC
  5
DC16
  8
0
 10
3468.4422750510689184
 20
209.4990952135036935
 30
0.0
 40
0.0553744154075908
 50
91.3310501870720657
 51
271.8578623630605762
  0
ARC
  5
DC17
  8
0
 10
3468.4422750510689184
 20
209.4990952135030966
 30
0.0
 40
0.0553744154070787
 50
271.8578623630605762
 51
91.3310501498031755
  0
ARC
  5
DC18
  8
0
 10
3468.4370522424351293
 20
209.4919726684738066
 30
0.0
 40
0.0411656055476409
 50
87.819451361081633
 51
267.8194513610815761
  0
ARC
  5
DC19
  8
0
 10
3468.4370522424351293
 20
209.4919726684738066
 30
0.0
 40
0.04116560554764
 50
267.8194513610815761
 51
87.819451361081633
  0
ARC
  5
DC1A
  8
0
 10
3468.437071407572148
 20
209.4919689658590016
 30
0.0
 40
0.0215710176796416
 50
88.037731529720844
 51
271.8162899633171037
  0
ARC
  5
DC1B
  8
0
 10
3468.437071407572148
 20
209.4919689658590016
 30
0.0
 40
0.0215710176796397
 50
271.8162899633171037
 51
88.0377315279219772
  0
ARC
  5
DC1C
  8
0
 10
3468.1862089810620091
 20
209.4978798675032863
 30
0.0
 40
0.0708734759994477
 50
89.1757150940315313
 51
270.8242849059685113
  0
ARC
  5
DC1D
  8
0
 10
3468.1862089810620091
 20
209.4978798675103917
 30
0.0
 40
0.0708734760066418
 50
270.8242849059685113
 51
89.175714285510125
  0
ARC
  5
DC1E
  8
0
 10
3468.1891554288399675
 20
209.4977788635422939
 30
0.0
 40
0.0630932108566892
 50
90.0917222992039086
 51
269.5366447634611973
  0
ARC
  5
DC1F
  8
0
 10
3468.1891554288558837
 20
209.4977788655849054
 30
0.0
 40
0.0630932128993609
 50
269.5366447634611973
 51
90.0928715543841889
  0
ARC
  5
DC20
  8
0
 10
3468.1903065470678484
 20
209.4990952135036935
 30
0.0
 40
0.0553744154075908
 50
91.3310501870720657
 51
271.8578623630605762
  0
ARC
  5
DC21
  8
0
 10
3468.1903065470678484
 20
209.4990952135030966
 30
0.0
 40
0.0553744154070787
 50
271.8578623630605762
 51
91.3310501498031755
  0
ARC
  5
DC22
  8
0
 10
3468.1850837384349688
 20
209.4919726684738066
 30
0.0
 40
0.0411656055476409
 50
87.819451361081633
 51
267.8194513610815761
  0
ARC
  5
DC23
  8
0
 10
3468.1850837384349688
 20
209.4919726684738066
 30
0.0
 40
0.04116560554764
 50
267.8194513610815761
 51
87.819451361081633
  0
ARC
  5
DC24
  8
0
 10
3468.1851029035719876
 20
209.4919689658590016
 30
0.0
 40
0.0215710176796416
 50
88.037731529720844
 51
271.8162899633171037
  0
ARC
  5
DC25
  8
0
 10
3468.1851029035719876
 20
209.4919689658590016
 30
0.0
 40
0.0215710176796397
 50
271.8162899633171037
 51
88.0377315279219772
  0
ARC
  5
DC26
  8
0
 10
3468.3121932330609525
 20
209.6238641195033097
 30
0.0
 40
0.0708734759994477
 50
89.1757150940315313
 51
270.8242849059685113
  0
ARC
  5
DC27
  8
0
 10
3468.3121932330609525
 20
209.6238641195105004
 30
0.0
 40
0.0708734760066418
 50
270.8242849059685113
 51
89.175714285510125
  0
ARC
  5
DC28
  8
0
 10
3468.3151396808398204
 20
209.6237631155422889
 30
0.0
 40
0.0630932108566892
 50
90.0917222992039086
 51
269.5366447634611973
  0
ARC
  5
DC29
  8
0
 10
3468.3151396808561913
 20
209.6237631175849003
 30
0.0
 40
0.0630932128993609
 50
269.5366447634611973
 51
90.0928715543841889
  0
ARC
  5
DC2A
  8
0
 10
3468.3162907990690655
 20
209.6250794655036884
 30
0.0
 40
0.0553744154075908
 50
91.3310501870720657
 51
271.8578623630605762
  0
ARC
  5
DC2B
  8
0
 10
3468.3162907990690655
 20
209.6250794655030916
 30
0.0
 40
0.0553744154070787
 50
271.8578623630605762
 51
91.3310501498031755
  0
ARC
  5
DC2C
  8
0
 10
3468.3110679904348217
 20
209.6179569204738016
 30
0.0
 40
0.0411656055476409
 50
87.819451361081633
 51
267.8194513610815761
  0
ARC
  5
DC2D
  8
0
 10
3468.3110679904348217
 20
209.6179569204738016
 30
0.0
 40
0.04116560554764
 50
267.8194513610815761
 51
87.819451361081633
  0
ARC
  5
DC2E
  8
0
 10
3468.3110871555732047
 20
209.6179532178589966
 30
0.0
 40
0.0215710176796416
 50
88.037731529720844
 51
271.8162899633171037
  0
ARC
  5
DC2F
  8
0
 10
3468.3110871555732047
 20
209.6179532178589966
 30
0.0
 40
0.0215710176796397
 50
271.8162899633171037
 51
88.0377315279219772
  0
ARC
  5
DC30
  8
0
 10
3468.5662213440759842
 20
209.6266884102990957
 30
0.0
 40
0.0708734759994477
 50
89.1757150940315313
 51
270.8242849059685113
  0
ARC
  5
DC31
  8
0
 10
3468.5662213440759842
 20
209.6266884103062864
 30
0.0
 40
0.0708734760066418
 50
270.8242849059685113
 51
89.175714285510125
  0
ARC
  5
DC32
  8
0
 10
3468.5691677918548521
 20
209.6265874063381034
 30
0.0
 40
0.0630932108566892
 50
90.0917222992039086
 51
269.5366447634611973
  0
ARC
  5
DC33
  8
0
 10
3468.569167791871223
 20
209.6265874083806864
 30
0.0
 40
0.0630932128993609
 50
269.5366447634611973
 51
90.0928715543841889
  0
ARC
  5
DC34
  8
0
 10
3468.5703189100840973
 20
209.6279037562995029
 30
0.0
 40
0.0553744154075908
 50
91.3310501870720657
 51
271.8578623630605762
  0
ARC
  5
DC35
  8
0
 10
3468.5703189100840973
 20
209.6279037562989913
 30
0.0
 40
0.0553744154070787
 50
271.8578623630605762
 51
91.3310501498031755
  0
ARC
  5
DC36
  8
0
 10
3468.5650961014498534
 20
209.6207812112695876
 30
0.0
 40
0.0411656055476409
 50
87.819451361081633
 51
267.8194513610815761
  0
ARC
  5
DC37
  8
0
 10
3468.5650961014498534
 20
209.6207812112695876
 30
0.0
 40
0.04116560554764
 50
267.8194513610815761
 51
87.819451361081633
  0
ARC
  5
DC38
  8
0
 10
3468.5651152665868722
 20
209.6207775086548111
 30
0.0
 40
0.0215710176796416
 50
88.037731529720844
 51
271.8162899633171037
  0
ARC
  5
DC39
  8
0
 10
3468.5651152665868722
 20
209.6207775086548111
 30
0.0
 40
0.0215710176796397
 50
271.8162899633171037
 51
88.0377315279219772
  0
ARC
  5
DC3A
  8
0
 10
3468.6901459889609214
 20
209.7498483715031909
 30
0.0
 40
0.0708734759994477
 50
89.1757150940315313
 51
270.8242849059685113
  0
ARC
  5
DC3B
  8
0
 10
3468.6901459889609214
 20
209.7498483715104101
 30
0.0
 40
0.0708734760066418
 50
270.8242849059685113
 51
89.175714285510125
  0
ARC
  5
DC3C
  8
0
 10
3468.6930924367397893
 20
209.7497473675423123
 30
0.0
 40
0.0630932108566892
 50
90.0917222992039086
 51
269.5366447634611973
  0
ARC
  5
DC3D
  8
0
 10
3468.6930924367570697
 20
209.7497473695848953
 30
0.0
 40
0.0630932128993609
 50
269.5366447634611973
 51
90.0928715543841889
  0
ARC
  5
DC3E
  8
0
 10
3468.6942435549690344
 20
209.7510637175035981
 30
0.0
 40
0.0553744154075908
 50
91.3310501870720657
 51
271.8578623630605762
  0
ARC
  5
DC3F
  8
0
 10
3468.6942435549690344
 20
209.7510637175032002
 30
0.0
 40
0.0553744154070787
 50
271.8578623630605762
 51
91.3310501498031755
  0
ARC
  5
DC40
  8
0
 10
3468.6890207463347906
 20
209.7439411724737965
 30
0.0
 40
0.0411656055476409
 50
87.819451361081633
 51
267.8194513610815761
  0
ARC
  5
DC41
  8
0
 10
3468.6890207463347906
 20
209.7439411724737965
 30
0.0
 40
0.04116560554764
 50
267.8194513610815761
 51
87.819451361081633
  0
ARC
  5
DC42
  8
0
 10
3468.6890399114731736
 20
209.7439374698589916
 30
0.0
 40
0.0215710176796416
 50
88.037731529720844
 51
271.8162899633171037
  0
ARC
  5
DC43
  8
0
 10
3468.6890399114731736
 20
209.7439374698589916
 30
0.0
 40
0.0215710176796397
 50
271.8162899633171037
 51
88.0377315279219772
  0
ARC
  5
DC44
  8
0
 10
3468.4381774850621696
 20
209.7498483715031909
 30
0.0
 40
0.0708734759994477
 50
89.1757150940315313
 51
270.8242849059685113
  0
ARC
  5
DC45
  8
0
 10
3468.4381774850621696
 20
209.7498483715104101
 30
0.0
 40
0.0708734760066418
 50
270.8242849059685113
 51
89.175714285510125
  0
ARC
  5
DC46
  8
0
 10
3468.441123932840128
 20
209.7497473675423123
 30
0.0
 40
0.0630932108566892
 50
90.0917222992039086
 51
269.5366447634611973
  0
ARC
  5
DC47
  8
0
 10
3468.4411239328569536
 20
209.7497473695848953
 30
0.0
 40
0.0630932128993609
 50
269.5366447634611973
 51
90.0928715543841889
  0
ARC
  5
DC48
  8
0
 10
3468.4422750510689184
 20
209.7510637175035981
 30
0.0
 40
0.0553744154075908
 50
91.3310501870720657
 51
271.8578623630605762
  0
ARC
  5
DC49
  8
0
 10
3468.4422750510689184
 20
209.7510637175032002
 30
0.0
 40
0.0553744154070787
 50
271.8578623630605762
 51
91.3310501498031755
  0
ARC
  5
DC4A
  8
0
 10
3468.4370522424351293
 20
209.7439411724737965
 30
0.0
 40
0.0411656055476409
 50
87.819451361081633
 51
267.8194513610815761
  0
ARC
  5
DC4B
  8
0
 10
3468.4370522424351293
 20
209.7439411724737965
 30
0.0
 40
0.04116560554764
 50
267.8194513610815761
 51
87.819451361081633
  0
ARC
  5
DC4C
  8
0
 10
3468.437071407572148
 20
209.7439374698589916
 30
0.0
 40
0.0215710176796416
 50
88.037731529720844
 51
271.8162899633171037
  0
ARC
  5
DC4D
  8
0
 10
3468.437071407572148
 20
209.7439374698589916
 30
0.0
 40
0.0215710176796397
 50
271.8162899633171037
 51
88.0377315279219772
  0
ARC
  5
DC4E
  8
0
 10
3468.1862089810620091
 20
209.7498483715031909
 30
0.0
 40
0.0708734759994477
 50
89.1757150940315313
 51
270.8242849059685113
  0
ARC
  5
DC4F
  8
0
 10
3468.1862089810620091
 20
209.7498483715104101
 30
0.0
 40
0.0708734760066418
 50
270.8242849059685113
 51
89.175714285510125
  0
ARC
  5
DC50
  8
0
 10
3468.1891554288399675
 20
209.7497473675423123
 30
0.0
 40
0.0630932108566892
 50
90.0917222992039086
 51
269.5366447634611973
  0
ARC
  5
DC51
  8
0
 10
3468.1891554288558837
 20
209.7497473695848953
 30
0.0
 40
0.0630932128993609
 50
269.5366447634611973
 51
90.0928715543841889
  0
ARC
  5
DC52
  8
0
 10
3468.1903065470678484
 20
209.7510637175035981
 30
0.0
 40
0.0553744154075908
 50
91.3310501870720657
 51
271.8578623630605762
  0
ARC
  5
DC53
  8
0
 10
3468.1903065470678484
 20
209.7510637175032002
 30
0.0
 40
0.0553744154070787
 50
271.8578623630605762
 51
91.3310501498031755
  0
ARC
  5
DC54
  8
0
 10
3468.1850837384349688
 20
209.7439411724737965
 30
0.0
 40
0.0411656055476409
 50
87.819451361081633
 51
267.8194513610815761
  0
ARC
  5
DC55
  8
0
 10
3468.1850837384349688
 20
209.7439411724737965
 30
0.0
 40
0.04116560554764
 50
267.8194513610815761
 51
87.819451361081633
  0
ARC
  5
DC56
  8
0
 10
3468.1851029035719876
 20
209.7439374698589916
 30
0.0
 40
0.0215710176796416
 50
88.037731529720844
 51
271.8162899633171037
  0
ARC
  5
DC57
  8
0
 10
3468.1851029035719876
 20
209.7439374698589916
 30
0.0
 40
0.0215710176796397
 50
271.8162899633171037
 51
88.0377315279219772
  0
ARC
  5
DC58
  8
0
 10
3468.3072095612378689
 20
209.880438823793213
 30
0.0
 40
0.0708734759994477
 50
89.1757150940315313
 51
270.8242849059685113
  0
ARC
  5
DC59
  8
0
 10
3468.3072095612378689
 20
209.8804388238004037
 30
0.0
 40
0.0708734760066418
 50
270.8242849059685113
 51
89.175714285510125
  0
ARC
  5
DC5A
  8
0
 10
3468.3101560090171915
 20
209.8803378198321923
 30
0.0
 40
0.0630932108566892
 50
90.0917222992039086
 51
269.5366447634611973
  0
ARC
  5
DC5B
  8
0
 10
3468.3101560090340172
 20
209.8803378218748037
 30
0.0
 40
0.0630932128993609
 50
269.5366447634611973
 51
90.0928715543841889
  0
ARC
  5
DC5C
  8
0
 10
3468.311307127245982
 20
209.8816541697935918
 30
0.0
 40
0.0553744154075908
 50
91.3310501870720657
 51
271.8578623630605762
  0
ARC
  5
DC5D
  8
0
 10
3468.311307127245982
 20
209.8816541697931086
 30
0.0
 40
0.0553744154070787
 50
271.8578623630605762
 51
91.3310501498031755
  0
ARC
  5
DC5E
  8
0
 10
3468.3060843186121929
 20
209.8745316247637049
 30
0.0
 40
0.0411656055476409
 50
87.819451361081633
 51
267.8194513610815761
  0
ARC
  5
DC5F
  8
0
 10
3468.3060843186121929
 20
209.8745316247637049
 30
0.0
 40
0.04116560554764
 50
267.8194513610815761
 51
87.819451361081633
  0
ARC
  5
DC60
  8
0
 10
3468.3061034837501211
 20
209.8745279221490136
 30
0.0
 40
0.0215710176796416
 50
88.037731529720844
 51
271.8162899633171037
  0
ARC
  5
DC61
  8
0
 10
3468.3061034837501211
 20
209.8745279221490136
 30
0.0
 40
0.0215710176796397
 50
271.8162899633171037
 51
88.0377315279219772
  0
ARC
  5
DC62
  8
0
 10
3468.5693154541631884
 20
209.8796685909478015
 30
0.0
 40
0.0708734759994477
 50
89.1757150940315313
 51
270.8242849059685113
  0
ARC
  5
DC63
  8
0
 10
3468.5693154541631884
 20
209.8796685909549922
 30
0.0
 40
0.0708734760066418
 50
270.8242849059685113
 51
89.175714285510125
  0
ARC
  5
DC64
  8
0
 10
3468.5722619019420563
 20
209.8795675869868091
 30
0.0
 40
0.0630932108566892
 50
90.0917222992039086
 51
269.5366447634611973
  0
ARC
  5
DC65
  8
0
 10
3468.5722619019579724
 20
209.8795675890293921
 30
0.0
 40
0.0630932128993609
 50
269.5366447634611973
 51
90.0928715543841889
  0
ARC
  5
DC66
  8
0
 10
3468.5734130201699372
 20
209.8808839369482087
 30
0.0
 40
0.0553744154075908
 50
91.3310501870720657
 51
271.8578623630605762
  0
ARC
  5
DC67
  8
0
 10
3468.5734130201699372
 20
209.8808839369476971
 30
0.0
 40
0.0553744154070787
 50
271.8578623630605762
 51
91.3310501498031755
  0
ARC
  5
DC68
  8
0
 10
3468.5681902115370576
 20
209.8737613919182934
 30
0.0
 40
0.0411656055476409
 50
87.819451361081633
 51
267.8194513610815761
  0
ARC
  5
DC69
  8
0
 10
3468.5681902115370576
 20
209.8737613919182934
 30
0.0
 40
0.04116560554764
 50
267.8194513610815761
 51
87.819451361081633
  0
ARC
  5
DC6A
  8
0
 10
3468.5682093766740763
 20
209.8737576893034884
 30
0.0
 40
0.0215710176796416
 50
88.037731529720844
 51
271.8162899633171037
  0
ARC
  5
DC6B
  8
0
 10
3468.5682093766740763
 20
209.8737576893034884
 30
0.0
 40
0.0215710176796397
 50
271.8162899633171037
 51
88.0377315279219772
  0
ARC
  5
DC6C
  8
0
 10
3468.6901459889609214
 20
210.0018168754031933
 30
0.0
 40
0.0708734759994477
 50
89.1757150940315313
 51
270.8242849059685113
  0
ARC
  5
DC6D
  8
0
 10
3468.6901459889609214
 20
210.0018168754104124
 30
0.0
 40
0.0708734760066418
 50
270.8242849059685113
 51
89.175714285510125
  0
ARC
  5
DC6E
  8
0
 10
3468.6930924367397893
 20
210.0017158714422862
 30
0.0
 40
0.0630932108566892
 50
90.0917222992039086
 51
269.5366447634611973
  0
ARC
  5
DC6F
  8
0
 10
3468.6930924367570697
 20
210.0017158734848977
 30
0.0
 40
0.0630932128993609
 50
269.5366447634611973
 51
90.0928715543841889
  0
ARC
  5
DC70
  8
0
 10
3468.6942435549690344
 20
210.0030322214037142
 30
0.0
 40
0.0553744154075908
 50
91.3310501870720657
 51
271.8578623630605762
  0
ARC
  5
DC71
  8
0
 10
3468.6942435549690344
 20
210.0030322214030889
 30
0.0
 40
0.0553744154070787
 50
271.8578623630605762
 51
91.3310501498031755
  0
ARC
  5
DC72
  8
0
 10
3468.6890207463347906
 20
209.9959096763737989
 30
0.0
 40
0.0411656055476409
 50
87.819451361081633
 51
267.8194513610815761
  0
ARC
  5
DC73
  8
0
 10
3468.6890207463347906
 20
209.9959096763737989
 30
0.0
 40
0.04116560554764
 50
267.8194513610815761
 51
87.819451361081633
  0
ARC
  5
DC74
  8
0
 10
3468.6890399114731736
 20
209.9959059737589939
 30
0.0
 40
0.0215710176796416
 50
88.037731529720844
 51
271.8162899633171037
  0
ARC
  5
DC75
  8
0
 10
3468.6890399114731736
 20
209.9959059737589939
 30
0.0
 40
0.0215710176796397
 50
271.8162899633171037
 51
88.0377315279219772
  0
ARC
  5
DC76
  8
0
 10
3468.4381774850621696
 20
210.0018168754031933
 30
0.0
 40
0.0708734759994477
 50
89.1757150940315313
 51
270.8242849059685113
  0
ARC
  5
DC77
  8
0
 10
3468.4381774850621696
 20
210.0018168754104124
 30
0.0
 40
0.0708734760066418
 50
270.8242849059685113
 51
89.175714285510125
  0
ARC
  5
DC78
  8
0
 10
3468.441123932840128
 20
210.0017158714422862
 30
0.0
 40
0.0630932108566892
 50
90.0917222992039086
 51
269.5366447634611973
  0
ARC
  5
DC79
  8
0
 10
3468.4411239328569536
 20
210.0017158734848977
 30
0.0
 40
0.0630932128993609
 50
269.5366447634611973
 51
90.0928715543841889
  0
ARC
  5
DC7A
  8
0
 10
3468.4422750510689184
 20
210.0030322214037142
 30
0.0
 40
0.0553744154075908
 50
91.3310501870720657
 51
271.8578623630605762
  0
ARC
  5
DC7B
  8
0
 10
3468.4422750510689184
 20
210.0030322214030889
 30
0.0
 40
0.0553744154070787
 50
271.8578623630605762
 51
91.3310501498031755
  0
ARC
  5
DC7C
  8
0
 10
3468.4370522424351293
 20
209.9959096763737989
 30
0.0
 40
0.0411656055476409
 50
87.819451361081633
 51
267.8194513610815761
  0
ARC
  5
DC7D
  8
0
 10
3468.4370522424351293
 20
209.9959096763737989
 30
0.0
 40
0.04116560554764
 50
267.8194513610815761
 51
87.819451361081633
  0
ARC
  5
DC7E
  8
0
 10
3468.437071407572148
 20
209.9959059737589939
 30
0.0
 40
0.0215710176796416
 50
88.037731529720844
 51
271.8162899633171037
  0
ARC
  5
DC7F
  8
0
 10
3468.437071407572148
 20
209.9959059737589939
 30
0.0
 40
0.0215710176796397
 50
271.8162899633171037
 51
88.0377315279219772
  0
ARC
  5
DC80
  8
0
 10
3468.1862089810620091
 20
210.0018168754031933
 30
0.0
 40
0.0708734759994477
 50
89.1757150940315313
 51
270.8242849059685113
  0
ARC
  5
DC81
  8
0
 10
3468.1862089810620091
 20
210.0018168754104124
 30
0.0
 40
0.0708734760066418
 50
270.8242849059685113
 51
89.175714285510125
  0
ARC
  5
DC82
  8
0
 10
3468.1891554288399675
 20
210.0017158714422862
 30
0.0
 40
0.0630932108566892
 50
90.0917222992039086
 51
269.5366447634611973
  0
ARC
  5
DC83
  8
0
 10
3468.1891554288558837
 20
210.0017158734848977
 30
0.0
 40
0.0630932128993609
 50
269.5366447634611973
 51
90.0928715543841889
  0
ARC
  5
DC84
  8
0
 10
3468.1903065470678484
 20
210.0030322214037142
 30
0.0
 40
0.0553744154075908
 50
91.3310501870720657
 51
271.8578623630605762
  0
ARC
  5
DC85
  8
0
 10
3468.1903065470678484
 20
210.0030322214030889
 30
0.0
 40
0.0553744154070787
 50
271.8578623630605762
 51
91.3310501498031755
  0
ARC
  5
DC86
  8
0
 10
3468.1850837384349688
 20
209.9959096763737989
 30
0.0
 40
0.0411656055476409
 50
87.819451361081633
 51
267.8194513610815761
  0
ARC
  5
DC87
  8
0
 10
3468.1850837384349688
 20
209.9959096763737989
 30
0.0
 40
0.04116560554764
 50
267.8194513610815761
 51
87.819451361081633
  0
ARC
  5
DC88
  8
0
 10
3468.1851029035719876
 20
209.9959059737589939
 30
0.0
 40
0.0215710176796416
 50
88.037731529720844
 51
271.8162899633171037
  0
ARC
  5
DC89
  8
0
 10
3468.1851029035719876
 20
209.9959059737589939
 30
0.0
 40
0.0215710176796397
 50
271.8162899633171037
 51
88.0377315279219772
  0
ARC
  5
DC8A
  8
0
 10
3468.3121932330609525
 20
210.127801127403302
 30
0.0
 40
0.0708734759994477
 50
89.1757150940315313
 51
270.8242849059685113
  0
ARC
  5
DC8B
  8
0
 10
3468.3121932330609525
 20
210.1278011274104074
 30
0.0
 40
0.0708734760066418
 50
270.8242849059685113
 51
89.175714285510125
  0
ARC
  5
DC8C
  8
0
 10
3468.3151396808398204
 20
210.1277001234423096
 30
0.0
 40
0.0630932108566892
 50
90.0917222992039086
 51
269.5366447634611973
  0
ARC
  5
DC8D
  8
0
 10
3468.3151396808561913
 20
210.1277001254848926
 30
0.0
 40
0.0630932128993609
 50
269.5366447634611973
 51
90.0928715543841889
  0
ARC
  5
DC8E
  8
0
 10
3468.3162907990690655
 20
210.1290164734037091
 30
0.0
 40
0.0553744154075908
 50
91.3310501870720657
 51
271.8578623630605762
  0
ARC
  5
DC8F
  8
0
 10
3468.3162907990690655
 20
210.1290164734031976
 30
0.0
 40
0.0553744154070787
 50
271.8578623630605762
 51
91.3310501498031755
  0
ARC
  5
DC90
  8
0
 10
3468.3110679904348217
 20
210.1218939283737939
 30
0.0
 40
0.0411656055476409
 50
87.819451361081633
 51
267.8194513610815761
  0
ARC
  5
DC91
  8
0
 10
3468.3110679904348217
 20
210.1218939283737939
 30
0.0
 40
0.04116560554764
 50
267.8194513610815761
 51
87.819451361081633
  0
ARC
  5
DC92
  8
0
 10
3468.3110871555732047
 20
210.1218902257589889
 30
0.0
 40
0.0215710176796416
 50
88.037731529720844
 51
271.8162899633171037
  0
ARC
  5
DC93
  8
0
 10
3468.3110871555732047
 20
210.1218902257589889
 30
0.0
 40
0.0215710176796397
 50
271.8162899633171037
 51
88.0377315279219772
  0
ARC
  5
DC94
  8
0
 10
3468.5669419564028431
 20
210.1121758615362012
 30
0.0
 40
0.0708734759994477
 50
89.1757150940315313
 51
270.8242849059685113
  0
ARC
  5
DC95
  8
0
 10
3468.5669419564028431
 20
210.1121758615433919
 30
0.0
 40
0.0708734760066418
 50
270.8242849059685113
 51
89.175714285510125
  0
ARC
  5
DC96
  8
0
 10
3468.5698884041821657
 20
210.1120748575752089
 30
0.0
 40
0.0630932108566892
 50
90.0917222992039086
 51
269.5366447634611973
  0
ARC
  5
DC97
  8
0
 10
3468.5698884041989913
 20
210.1120748596179055
 30
0.0
 40
0.0630932128993609
 50
269.5366447634611973
 51
90.0928715543841889
  0
ARC
  5
DC98
  8
0
 10
3468.5710395224109561
 20
210.1133912075366084
 30
0.0
 40
0.0553744154075908
 50
91.3310501870720657
 51
271.8578623630605762
  0
ARC
  5
DC99
  8
0
 10
3468.5710395224109561
 20
210.1133912075360968
 30
0.0
 40
0.0553744154070787
 50
271.8578623630605762
 51
91.3310501498031755
  0
ARC
  5
DC9A
  8
0
 10
3468.565816713777167
 20
210.1062686625066931
 30
0.0
 40
0.0411656055476409
 50
87.819451361081633
 51
267.8194513610815761
  0
ARC
  5
DC9B
  8
0
 10
3468.565816713777167
 20
210.1062686625066931
 30
0.0
 40
0.04116560554764
 50
267.8194513610815761
 51
87.819451361081633
  0
ARC
  5
DC9C
  8
0
 10
3468.5658358789141857
 20
210.1062649598918881
 30
0.0
 40
0.0215710176796416
 50
88.037731529720844
 51
271.8162899633171037
  0
ARC
  5
DC9D
  8
0
 10
3468.5658358789141857
 20
210.1062649598918881
 30
0.0
 40
0.0215710176796397
 50
271.8162899633171037
 51
88.0377315279219772
  0
CIRCLE
  5
DC9E
  8
0
 10
3468.2126616426721739
 20
210.8344879392589917
 30
0.0
 40
0.0393691316
  0
ARC
  5
DC9F
  8
0
 10
3468.2093478157189566
 20
210.8368233999512995
 30
0.0
 40
0.0968229577355939
 50
239.2788017209987004
 51
270.03658968642128
  0
ARC
  5
DCA0
  8
0
 10
3468.2082698672397783
 20
210.8350094569206874
 30
0.0
 40
0.0947128955941159
 50
179.6574573977478053
 51
239.2788017209994962
  0
ARC
  5
DCA1
  8
0
 10
3468.207581044401195
 20
210.8350135750945071
 30
0.0
 40
0.0940240604448771
 50
87.5602255267018137
 51
179.6574573977493969
  0
ARC
  5
DCA2
  8
0
 10
3468.2072419205810547
 20
210.8270543893289073
 30
0.0
 40
0.1019904676035018
 50
46.2891626320015632
 51
87.5602255267018137
  0
ARC
  5
DCA3
  8
0
 10
3468.216069193515068
 20
210.8362881055016089
 30
0.0
 40
0.0892161863396301
 50
358.8442888370221908
 51
46.2891626320015632
  0
LINE
  5
DCA4
  8
0
 10
3468.3052672308731417
 20
210.8344886509590026
 30
0.0
 11
3468.3052672308731417
 21
210.7793817531718048
 31
0.0
  0
ARC
  5
DCA5
  8
0
 10
3468.2656047139907969
 20
210.7796630824346948
 30
0.0
 40
0.0396635957268398
 50
269.5982085297702042
 51
359.5774069208105743
  0
LINE
  5
DCA6
  8
0
 10
3468.2653265719718547
 20
210.7400004619589993
 30
0.0
 11
3468.2094096478717802
 21
210.7400004619589993
 31
0.0
  0
CIRCLE
  5
DCA7
  8
0
 10
3468.6614811723720777
 20
210.8344879392589917
 30
0.0
 40
0.0393691316
  0
ARC
  5
DCA8
  8
0
 10
3468.6647949993248403
 20
210.8368233999512995
 30
0.0
 40
0.0968229577355939
 50
269.96341031357872
 51
300.721198279001328
  0
ARC
  5
DCA9
  8
0
 10
3468.6658729478040186
 20
210.8350094569206874
 30
0.0
 40
0.0947128955941159
 50
300.7211982790004754
 51
0.3425426022521543
  0
ARC
  5
DCAA
  8
0
 10
3468.6665617706430567
 20
210.8350135750945071
 30
0.0
 40
0.0940240604448771
 50
0.3425426022505259
 51
92.4397744732981863
  0
ARC
  5
DCAB
  8
0
 10
3468.6669008944641064
 20
210.8270543893289073
 30
0.0
 40
0.1019904676035018
 50
92.4397744732981863
 51
133.7108373679984084
  0
ARC
  5
DCAC
  8
0
 10
3468.6580736215291836
 20
210.8362881055016089
 30
0.0
 40
0.0892161863396301
 50
133.7108373679984084
 51
181.1557111629778092
  0
LINE
  5
DCAD
  8
0
 10
3468.5688755841729289
 20
210.8344886509590026
 30
0.0
 11
3468.5688755841729289
 21
210.7793817531718048
 31
0.0
  0
ARC
  5
DCAE
  8
0
 10
3468.608538101053
 20
210.7796630824346948
 30
0.0
 40
0.0396635957268398
 50
180.4225930791893973
 51
270.4017914702299095
  0
LINE
  5
DCAF
  8
0
 10
3468.6088162430719422
 20
210.7400004619589993
 30
0.0
 11
3468.6647331671720167
 21
210.7400004619589993
 31
0.0
  0
CIRCLE
  5
DCB0
  8
0
 10
3468.2126616426721739
 20
210.3856704649589915
 30
0.0
 40
0.0393691316
  0
ARC
  5
DCB1
  8
0
 10
3468.2093478157189566
 20
210.3833350042667973
 30
0.0
 40
0.0968229577355939
 50
89.9634103135787058
 51
120.7211982790012996
  0
ARC
  5
DCB2
  8
0
 10
3468.2082698672397783
 20
210.3851489472972958
 30
0.0
 40
0.0947128955941159
 50
120.7211982790005038
 51
180.3425426022521094
  0
ARC
  5
DCB3
  8
0
 10
3468.207581044401195
 20
210.3851448291235045
 30
0.0
 40
0.0940240604448771
 50
180.3425426022504894
 51
272.4397744732982005
  0
ARC
  5
DCB4
  8
0
 10
3468.2072419205810547
 20
210.3931040148891043
 30
0.0
 40
0.1019904676035018
 50
272.4397744732982005
 51
313.7108373679984084
  0
ARC
  5
DCB5
  8
0
 10
3468.216069193515068
 20
210.3838702987164027
 30
0.0
 40
0.0892161863396301
 50
313.7108373679984084
 51
1.1557111629777901
  0
LINE
  5
DCB6
  8
0
 10
3468.3052672308731417
 20
210.385669753259009
 30
0.0
 11
3468.3052672308731417
 21
210.440776651046292
 31
0.0
  0
ARC
  5
DCB7
  8
0
 10
3468.2656047139907969
 20
210.4404953217832883
 30
0.0
 40
0.0396635957268398
 50
0.4225930791894151
 51
90.4017914702298384
  0
LINE
  5
DCB8
  8
0
 10
3468.2653265719718547
 20
210.4801579422590123
 30
0.0
 11
3468.2094096478717802
 21
210.4801579422590123
 31
0.0
  0
CIRCLE
  5
DCB9
  8
0
 10
3468.6614811723720777
 20
210.3856704649589915
 30
0.0
 40
0.0393691316
  0
ARC
  5
DCBA
  8
0
 10
3468.6647949993248403
 20
210.3833350042667973
 30
0.0
 40
0.0968229577355939
 50
59.2788017209986791
 51
90.0365896864213084
  0
ARC
  5
DCBB
  8
0
 10
3468.6658729478040186
 20
210.3851489472972958
 30
0.0
 40
0.0947128955941159
 50
359.657457397747919
 51
59.2788017209995175
  0
ARC
  5
DCBC
  8
0
 10
3468.6665617706430567
 20
210.3851448291235045
 30
0.0
 40
0.0940240604448771
 50
267.5602255267017995
 51
359.6574573977495106
  0
ARC
  5
DCBD
  8
0
 10
3468.6669008944641064
 20
210.3931040148891043
 30
0.0
 40
0.1019904676035018
 50
226.2891626320015916
 51
267.5602255267017995
  0
ARC
  5
DCBE
  8
0
 10
3468.6580736215291836
 20
210.3838702987164027
 30
0.0
 40
0.0892161863396301
 50
178.8442888370221908
 51
226.2891626320015916
  0
LINE
  5
DCBF
  8
0
 10
3468.5688755841729289
 20
210.385669753259009
 30
0.0
 11
3468.5688755841729289
 21
210.440776651046292
 31
0.0
  0
ARC
  5
DCC0
  8
0
 10
3468.608538101053
 20
210.4404953217832883
 30
0.0
 40
0.0396635957268398
 50
89.5982085297701758
 51
179.5774069208106027
  0
LINE
  5
DCC1
  8
0
 10
3468.6088162430719422
 20
210.4801579422590123
 30
0.0
 11
3468.6647331671720167
 21
210.4801579422590123
 31
0.0
  0
LINE
  5
DCC2
  8
0
 10
3467.8858935929961262
 20
211.1553547926590113
 30
0.0
 11
3467.8858935929961262
 21
201.7185437690590106
 31
0.0
  0
LINE
  5
DCC3
  8
0
 10
3468.988252509871927
 20
211.1553547926590113
 30
0.0
 11
3468.988252509871927
 21
201.7185437690590106
 31
0.0
  0
LINE
  5
DCC4
  8
0
 10
3469.1063627461730903
 20
200.9705122729588993
 30
0.0
 11
3469.1063627461730903
 21
201.6876556824431077
 31
0.0
  0
LINE
  5
DCC5
  8
0
 10
3469.6969139272719076
 20
200.881096666669805
 30
0.0
 11
3469.6969139272719076
 21
200.7449672493482069
 31
0.0
  0
LINE
  5
DCC6
  8
0
 10
3467.1772243638720283
 20
200.8799610917735947
 30
0.0
 11
3467.1772243638720283
 21
200.7461028242443888
 31
0.0
  0
LINE
  5
DCC7
  8
0
 10
3462.5315595964721069
 20
206.6571958006095997
 30
0.0
 11
3463.4764414862220292
 21
206.6571958006095997
 31
0.0
  0
LINE
  5
DCC9
  8
0
 10
3463.4764414862220292
 20
207.1725573937931983
 30
0.0
 11
3463.4764414862220292
 21
206.3690356240518895
 31
0.0
  0
LINE
  5
DCCA
  8
0
 10
3463.4764414862220292
 20
206.3066388335574004
 30
0.0
 11
3463.4764414862220292
 21
200.9429532178590136
 31
0.0
  0
ARC
  5
DCCB
  8
0
 10
3455.3977013287722002
 20
200.7461028241590952
 30
0.0
 40
0.031496063000017
 50
180.0000000000260059
 51
269.9999999999739089
  0
ARC
  5
DCCC
  8
0
 10
3455.3977013287722002
 20
200.879961091859002
 30
0.0
 40
0.0314960629999934
 50
90.0
 51
179.999999999985306
  0
ARC
  5
DCCD
  8
0
 10
3455.7126619586720153
 20
200.9429532178590136
 30
0.0
 40
0.031496063
 50
205.267997048719991
 51
270.0
  0
LINE
  5
DCCE
  8
0
 10
3456.6260477854721103
 20
203.9685437690592948
 30
0.0
 11
3455.6841794039478373
 21
203.9685437690590106
 31
0.0
  0
ARC
  5
DCCF
  8
0
 10
3455.7202181987668155
 20
204.5910622301418016
 30
0.0
 40
0.0363941401867857
 50
94.412667869140023
 51
171.9868877659691009
  0
ARC
  5
DCD0
  8
0
 10
3456.9541681245309519
 20
136.8372342418464029
 30
0.0
 40
67.8013948267921052
 50
90.2772801950763721
 51
91.0451774585319242
  0
LINE
  5
DCD1
  8
0
 10
3456.6260477854721103
 20
204.2040771120722127
 30
0.0
 11
3455.7858485507399564
 21
204.2040771125128913
 31
0.0
  0
ARC
  5
DCD2
  8
0
 10
3455.7895715706008559
 20
204.3089058540566896
 30
0.0
 40
0.1048943954499669
 50
185.0350593354419004
 51
267.9728849152890007
  0
LINE
  5
DCD3
  8
0
 10
3456.6260477854721103
 20
203.8248429816590033
 30
0.0
 11
3455.6841794039478373
 21
203.8248429816590033
 31
0.0
  0
LINE
  5
DCD4
  8
0
 10
3455.7008509350721397
 20
203.8248429816590033
 30
0.0
 11
3455.7008509350721397
 21
203.834761111259013
 31
0.0
  0
ARC
  5
DCD5
  8
0
 10
3456.2799391798630495
 20
203.4991904071274007
 30
0.0
 40
0.6692913362103764
 50
135.4692080671889869
 51
149.9085179582295098
  0
LINE
  5
DCD6
  8
0
 10
3455.7008517712711182
 20
203.8347625543430865
 30
0.0
 11
3456.6260477854721103
 21
203.8348405463690938
 31
0.0
  0
LINE
  5
DCD7
  8
0
 10
3455.3662052657718959
 20
200.74610282415901
 30
0.0
 11
3455.3662052657718959
 21
200.879961091859002
 31
0.0
  0
ARC
  5
DCD8
  8
0
 10
3455.8082522808881549
 20
204.3146509096966099
 30
0.0
 40
0.1240744481001331
 50
179.7116585710923005
 51
186.9210401570518059
  0
LINE
  5
DCD9
  8
0
 10
3455.6841794039478373
 20
204.5961355631590095
 30
0.0
 11
3455.6841794039478373
 21
203.9685437690590106
 31
0.0
  0
LINE
  5
DCDA
  8
0
 10
3455.6841794039478373
 20
203.8248429816590033
 30
0.0
 11
3455.6841794039478373
 21
200.9295090346988104
 31
0.0
  0
LINE
  5
DCDB
  8
0
 10
3461.2717170767728021
 20
200.74610282415901
 30
0.0
 11
3461.2717170767728021
 21
200.879961091859002
 31
0.0
  0
LINE
  5
DCDC
  8
0
 10
3461.7113170206657742
 20
207.2091415031113115
 30
0.0
 11
3462.5315595964721069
 21
207.2091415031113115
 31
0.0
  0
ARC
  5
DCDD
  8
0
 10
3461.3032131398581441
 20
200.7461028242443888
 30
0.0
 40
0.0314960630854008
 50
180.0000001553551954
 51
269.9999999356177796
  0
ARC
  5
DCDE
  8
0
 10
3461.3032131398581441
 20
200.8799610917737084
 30
0.0
 40
0.0314960630853847
 50
90.0000000643821636
 51
179.99999984469531
  0
ARC
  5
DCDF
  8
0
 10
3461.6181737697220342
 20
200.9429532178590136
 30
0.0
 40
0.031496063
 50
180.0
 51
270.0
  0
ARC
  5
DCE0
  8
0
 10
3461.6206820405850522
 20
206.306327984573187
 30
0.0
 40
0.0340057546383259
 50
110.6096099169923974
 51
179.476247970772306
  0
ARC
  5
DCE1
  8
0
 10
3461.1366707234637943
 20
289.3814356569350252
 30
0.0
 40
83.0231219629347805
 50
270.5460550606616721
 51
270.96268366843168
  0
ARC
  5
DCE2
  8
0
 10
3461.957329208972169
 20
203.2750200072671873
 30
0.0
 40
3.0872043422371749
 50
90.5460550606617147
 51
94.9297003894083673
  0
ARC
  5
DCE3
  8
0
 10
3461.8027129758161209
 20
205.0676211806841991
 30
0.0
 40
1.2879475105170599
 50
94.9297003894083673
 51
97.5941244353317217
  0
ARC
  5
DCE4
  8
0
 10
3461.6461752762788819
 20
206.2417351004322938
 30
0.0
 40
0.1034444299291039
 50
97.5941244353317217
 51
111.2327779575329032
  0
ARC
  5
DCE5
  8
0
 10
3461.5300911197041387
 20
210.4843676082828949
 30
0.0
 40
3.2802360993040578
 50
271.6788424629011161
 51
273.1670795956616757
  0
ARC
  5
DCE6
  8
0
 10
3461.6259144337350335
 20
207.1529744484483047
 30
0.0
 40
0.0525658486446467
 50
89.6967563239627594
 51
113.5427274246864044
  0
ARC
  5
DCE7
  8
0
 10
3461.6184851176358279
 20
207.1723956190249964
 30
0.0
 40
0.0318078223101936
 50
115.2479834992818013
 51
179.7085920783312076
  0
ARC
  5
DCE8
  8
0
 10
3461.6223282713440312
 20
206.3711829404639957
 30
0.0
 40
0.0357151750050003
 50
183.4468936992101931
 51
247.6060997605515865
  0
LINE
  5
DCE9
  8
0
 10
3462.5315595964721069
 20
206.6571958006095997
 30
0.0
 11
3461.5866777067230942
 21
206.6571958006095997
 31
0.0
  0
LINE
  5
DCEA
  8
0
 10
3461.5866777067230942
 20
207.1725573937931983
 30
0.0
 11
3461.5866777067230942
 21
206.3690356240518895
 31
0.0
  0
LINE
  5
DCEB
  8
0
 10
3461.5866777067230942
 20
206.3066388335574004
 30
0.0
 11
3461.5866777067230942
 21
200.9429532178590136
 31
0.0
  0
CIRCLE
  5
DCEC
  8
0
 10
3468.4371459534731912
 20
206.3664773617589958
 30
0.0
 40
0.303396836160804
  0
CIRCLE
  5
DCED
  8
0
 10
3468.4364703239721166
 20
206.3662451308589993
 30
0.0
 40
0.2757098977868138
  0
LINE
  5
DCEE
  8
0
 10
3457.5679097288511912
 20
204.5961355631590095
 30
0.0
 11
3457.5679097288511912
 21
204.2996997661014973
 31
0.0
  0
LINE
  5
DCEF
  8
0
 10
3457.5679097288511912
 20
203.9685437690590106
 30
0.0
 11
3457.5679097288511912
 21
200.9294954034355101
 31
0.0
  0
ENDSEC
  0
EOF
