  0
SECTION
  2
HEADER
  9
$ACADVER
  1
AC1009
  9
$INSBASE
 10
3507.9134488802401393
 20
199.7286646588229075
 30
0.0
  9
$EXTMIN
 10
3503.0315550342397728
 20
190.5440198002295915
 30
0.0
  9
$EXTMAX
 10
3512.7953427262409605
 20
199.7332946222867065
 30
0.0
  9
$LIMMIN
 10
0.0
 20
0.0
  9
$LIMMAX
 10
11.6929133858000007
 20
8.2677165353999982
  9
$ORTHOMODE
 70
     0
  9
$REGENMODE
 70
     1
  9
$FILLMODE
 70
     1
  9
$QTEXTMODE
 70
     0
  9
$MIRRTEXT
 70
     0
  9
$DRAGMODE
 70
     2
  9
$LTSCALE
 40
0.6431102362
  9
$OSMODE
 70
  3839
  9
$ATTMODE
 70
     1
  9
$TEXTSIZE
 40
0.2
  9
$TRACEWID
 40
0.05
  9
$TEXTSTYLE
  7
STANDARD
  9
$CLAYER
  8
0
  9
$CELTYPE
  6
BYLAYER
  9
$CECOLOR
 62
   256
  9
$DIMSCALE
 40
1.0
  9
$DIMASZ
 40
0.1875
  9
$DIMEXO
 40
0.0625
  9
$DIMDLI
 40
0.4443307087
  9
$DIMRND
 40
0.0
  9
$DIMDLE
 40
0.0
  9
$DIMEXE
 40
0.125
  9
$DIMTP
 40
0.01
  9
$DIMTM
 40
0.01
  9
$DIMTXT
 40
2.0
  9
$DIMCEN
 40
0.1052362205
  9
$DIMTSZ
 40
0.0
  9
$DIMTOL
 70
     1
  9
$DIMLIM
 70
     0
  9
$DIMTIH
 70
     1
  9
$DIMTOH
 70
     1
  9
$DIMSE1
 70
     0
  9
$DIMSE2
 70
     0
  9
$DIMTAD
 70
     0
  9
$DIMZIN
 70
     0
  9
$DIMBLK
  1

  9
$DIMASO
 70
     1
  9
$DIMSHO
 70
     1
  9
$DIMPOST
  1
\X
  9
$DIMAPOST
  1

  9
$DIMALT
 70
     1
  9
$DIMALTD
 70
     2
  9
$DIMALTF
 40
25.3999999999999986
  9
$DIMLFAC
 40
1.0
  9
$DIMTOFL
 70
     0
  9
$DIMTVP
 40
0.0
  9
$DIMTIX
 70
     0
  9
$DIMSOXD
 70
     0
  9
$DIMSAH
 70
     0
  9
$DIMBLK1
  1

  9
$DIMBLK2
  1

  9
$DIMSTYLE
  2
STANDARD
  9
$DIMCLRD
 70
     0
  9
$DIMCLRE
 70
     0
  9
$DIMCLRT
 70
     0
  9
$DIMTFAC
 40
1.0
  9
$DIMGAP
 40
0.09
  9
$LUNITS
 70
     2
  9
$LUPREC
 70
     4
  9
$SKETCHINC
 40
0.1
  9
$FILLETRAD
 40
0.0
  9
$AUNITS
 70
     0
  9
$AUPREC
 70
     0
  9
$MENU
  1
.
  9
$ELEVATION
 40
0.0
  9
$PELEVATION
 40
0.0
  9
$THICKNESS
 40
0.0
  9
$LIMCHECK
 70
     0
  9
$BLIPMODE
 70
     0
  9
$CHAMFERA
 40
0.0
  9
$CHAMFERB
 40
0.0
  9
$SKPOLY
 70
     0
  9
$TDCREATE
 40
2458060.468368056230247
  9
$TDUPDATE
 40
2459037.9540393520146608
  9
$TDINDWG
 40
0.692634375
  9
$TDUSRTIMER
 40
0.692634375
  9
$USRTIMER
 70
     1
  9
$ANGBASE
 50
0.0
  9
$ANGDIR
 70
     0
  9
$PDMODE
 70
     0
  9
$PDSIZE
 40
0.3125
  9
$PLINEWID
 40
0.0
  9
$COORDS
 70
     1
  9
$SPLFRAME
 70
     0
  9
$SPLINETYPE
 70
     6
  9
$SPLINESEGS
 70
     8
  9
$ATTDIA
 70
     1
  9
$ATTREQ
 70
     1
  9
$HANDLING
 70
     1
  9
$HANDSEED
  5
9A48
  9
$SURFTAB1
 70
     6
  9
$SURFTAB2
 70
     6
  9
$SURFTYPE
 70
     6
  9
$SURFU
 70
     6
  9
$SURFV
 70
     6
  9
$UCSNAME
  2

  9
$UCSORG
 10
0.0
 20
0.0
 30
0.0
  9
$UCSXDIR
 10
1.0
 20
0.0
 30
0.0
  9
$UCSYDIR
 10
0.0
 20
1.0
 30
0.0
  9
$PUCSNAME
  2

  9
$PUCSORG
 10
0.0
 20
0.0
 30
0.0
  9
$PUCSXDIR
 10
1.0
 20
0.0
 30
0.0
  9
$PUCSYDIR
 10
0.0
 20
1.0
 30
0.0
  9
$USERI1
 70
     0
  9
$USERI2
 70
     0
  9
$USERI3
 70
     0
  9
$USERI4
 70
     0
  9
$USERI5
 70
     0
  9
$USERR1
 40
0.0
  9
$USERR2
 40
0.0
  9
$USERR3
 40
0.0
  9
$USERR4
 40
0.0
  9
$USERR5
 40
0.0
  9
$WORLDVIEW
 70
     1
  9
$SHADEDGE
 70
     3
  9
$SHADEDIF
 70
    70
  9
$TILEMODE
 70
     1
  9
$MAXACTVP
 70
    64
  9
$PLIMCHECK
 70
     0
  9
$PEXTMIN
 10
1.0000000000000000E+20
 20
1.0000000000000000E+20
 30
1.0000000000000000E+20
  9
$PEXTMAX
 10
-1.0000000000000000E+20
 20
-1.0000000000000000E+20
 30
-1.0000000000000000E+20
  9
$PLIMMIN
 10
0.0
 20
0.0
  9
$PLIMMAX
 10
12.0
 20
9.0
  9
$UNITMODE
 70
     0
  9
$VISRETAIN
 70
     1
  9
$PLINEGEN
 70
     0
  9
$PSLTSCALE
 70
     1
  0
ENDSEC
  0
SECTION
  2
TABLES
  0
TABLE
  2
VPORT
 70
     1
  0
VPORT
  2
*ACTIVE
 70
     0
 10
0.0
 20
0.0
 11
1.0
 21
1.0
 12
0.0
 22
0.0
 13
0.0
 23
0.0
 14
1.0
 24
1.0
 15
0.0
 25
0.0
 16
0.0
 26
0.0
 36
55.664312620735231
 17
3507.9134521484379547
 27
195.13865811436591
 37
0.0
 40
13.4080869075288707
 41
3.314341846758349
 42
50.0
 43
0.0
 44
0.0
 50
0.0
 51
0.0
 71
     0
 72
   100
 73
     1
 74
     1
 75
     0
 76
     0
 77
     0
 78
     0
  0
ENDTAB
  0
TABLE
  2
LTYPE
 70
     2
  0
LTYPE
  2
CONTINUOUS
 70
     0
  3
Solid line
 72
    65
 73
     0
 40
0.0
  0
LTYPE
  2
PHANTOM2
 70
     0
  3
___ _ _ ___ _ _ ___ _ _ ___ _ _
 72
    65
 73
     6
 40
1.25
 49
0.625
 49
-0.125
 49
0.125
 49
-0.125
 49
0.125
 49
-0.125
  0
ENDTAB
  0
TABLE
  2
LAYER
 70
     2
  0
LAYER
  2
0
 70
     0
 62
   255
  6
CONTINUOUS
  0
LAYER
  2
DEFPOINTS
 70
     0
 62
     7
  6
CONTINUOUS
  0
ENDTAB
  0
TABLE
  2
STYLE
 70
     1
  0
STYLE
  2
STANDARD
 70
     0
 40
0.0
 41
0.8
 50
0.0
 71
     0
 42
0.2
  3
txt
  4

  0
ENDTAB
  0
TABLE
  2
VIEW
 70
     0
  0
ENDTAB
  0
TABLE
  2
UCS
 70
     0
  0
ENDTAB
  0
TABLE
  2
APPID
 70
     9
  0
APPID
  2
ACAD
 70
     0
  0
APPID
  2
ACAD_MLEADERVER
 70
     0
  0
APPID
  2
ACAD_EXEMPT_FROM_CAD_STANDARDS
 70
     0
  0
APPID
  2
ACAD_NAV_VCDISPLAY
 70
     0
  0
APPID
  2
ACAECLAYERSTANDARD
 70
     0
  0
APPID
  2
ACCMTRANSPARENCY
 70
     0
  0
APPID
  2
ACAD_DSTYLE_DIMJAG
 70
     0
  0
APPID
  2
ACAD_DSTYLE_DIMTALN
 70
     0
  0
APPID
  2
ACDBATTR
 70
     0
  0
ENDTAB
  0
TABLE
  2
DIMSTYLE
 70
     1
  0
DIMSTYLE
  2
STANDARD
 70
     0
  3

  4

  5

  6

  7

 40
1.0
 41
0.1875
 42
0.0625
 43
0.38
 44
0.125
 45
0.0
 46
0.0
 47
0.01
 48
0.01
140
0.15625
141
0.09
142
0.0
143
25.3999999999999986
144
1.0
145
0.0
146
1.0
147
0.09
 71
     1
 72
     0
 73
     1
 74
     1
 75
     0
 76
     0
 77
     0
 78
     4
170
     0
171
     2
172
     0
173
     0
174
     0
175
     0
176
     0
177
     0
178
     0
  0
ENDTAB
  0
ENDSEC
  0
SECTION
  2
BLOCKS
  0
BLOCK
  8
0
  2
$MODEL_SPACE
 70
     0
 10
0.0
 20
0.0
 30
0.0
  3
$MODEL_SPACE
  1

  0
ENDBLK
  5
21
  8
0
  0
BLOCK
 67
     1
  8
0
  2
$PAPER_SPACE
 70
     0
 10
0.0
 20
0.0
 30
0.0
  3
$PAPER_SPACE
  1

  0
ENDBLK
  5
1D
 67
     1
  8
0
  0
BLOCK
  8
0
  2
_FILLED
 70
     0
 10
0.0
 20
0.0
 30
0.0
  3
_FILLED
  1

  0
SOLID
  5
6F59
  8
0
  6
BYBLOCK
 62
     0
 10
0.0
 20
0.0
 30
0.0
 11
-1.0
 21
0.1666666667
 31
0.0
 12
-1.0
 22
-0.1666666667
 32
0.0
 13
-1.0
 23
-0.1666666667
 33
0.0
  0
ENDBLK
  5
6F5A
  8
0
  6
BYBLOCK
 62
     0
  0
ENDSEC
  0
SECTION
  2
ENTITIES
  0
ATTDEF
  5
3930
  8
DEFPOINTS
 10
3507.9037079811891999
 20
199.732294622286588
 30
0.0
 40
0.001
  1
K-73067T-9GCH
  3

  2
MODELNUMBER
 70
     0
1001
ACDBATTR
1070
     0
1070
     1
  0
ATTDEF
  5
3931
  8
DEFPOINTS
 10
3507.9037079811891999
 20
199.7306279556198945
 30
0.0
 40
0.001
  1
COMPOSED
  3

  2
TRADENAME
 70
     0
1001
ACDBATTR
1070
     0
1070
     1
  0
ATTDEF
  5
3932
  8
DEFPOINTS
 10
3507.9037079811891999
 20
199.7289612889532009
 30
0.0
 40
0.001
  1
BATHROOM SINK FAUCET
  3

  2
PRODUCT
 70
     0
1001
ACDBATTR
1070
     0
1070
     1
  0
LINE
  5
9713
  8
0
 10
3503.0512400736411109
 20
199.7286646588229075
 30
0.0
 11
3504.9016337744410521
 21
199.7286646588229075
 31
0.0
  0
LINE
  5
9714
  8
0
 10
3508.8661966213398955
 20
199.7286646588229075
 30
0.0
 11
3506.9607011391408378
 21
199.7286646588229075
 31
0.0
  0
ARC
  5
9715
  8
0
 10
3506.9607011391408378
 20
199.6971604303647041
 30
0.0
 40
0.0315042284581857
 50
90.0
 51
179.9851497300579126
  0
LINE
  5
9716
  8
0
 10
3506.9291969117398367
 20
199.6971685958228022
 30
0.0
 11
3506.9291969117398367
 21
199.6026804082032129
 31
0.0
  0
ARC
  5
9717
  8
0
 10
3506.9606430942999395
 20
199.6026305263841039
 30
0.0
 40
0.03144622212184
 50
179.9091140775244924
 51
270.0908834114148931
  0
ARC
  5
9718
  8
0
 10
3507.2441566696920745
 20
199.5515014097283881
 30
0.0
 40
0.0196829341138223
 50
89.9974615241755487
 51
179.9888314773409945
  0
LINE
  5
9719
  8
0
 10
3507.2244737359528699
 20
199.5515052464733117
 30
0.0
 11
3507.2244737359528699
 21
190.6935541504228979
 31
0.0
  0
ARC
  5
971A
  8
0
 10
3507.3738520682140916
 20
190.7104612465599871
 30
0.0
 40
0.1493783892220581
 50
180.0500360549953029
 51
270.0869653226014862
  0
ARC
  5
971B
  8
0
 10
3507.374065478662942
 20
190.6936115539531897
 30
0.0
 40
0.1495917537235996
 50
180.0219863730162047
 51
270.0051028526158916
  0
LINE
  5
971C
  8
0
 10
3507.3740788015411454
 20
190.5440198008228094
 30
0.0
 11
3508.4528189589400426
 21
190.5440198008228094
 31
0.0
  0
LINE
  5
971D
  8
0
 10
3507.3740787993078811
 20
190.5610830294077971
 30
0.0
 11
3508.4528189611719426
 21
190.5610830294077971
 31
0.0
  0
ARC
  5
971E
  8
0
 10
3508.8661966213398955
 20
199.6971604303647041
 30
0.0
 40
0.0315042284581857
 50
0.0148502699420744
 51
90.0
  0
LINE
  5
971F
  8
0
 10
3508.8977008487399871
 20
199.6971685958228022
 30
0.0
 11
3508.8977008487399871
 21
199.6026804082032129
 31
0.0
  0
ARC
  5
9720
  8
0
 10
3508.866254666182158
 20
199.6026305263841039
 30
0.0
 40
0.0314462221218508
 50
269.909116588611198
 51
0.0908859224559141
  0
LINE
  5
9722
  8
0
 10
3506.9606929747401409
 20
199.5711843438228073
 30
0.0
 11
3508.8662047857410471
 21
199.5711843438228073
 31
0.0
  0
ARC
  5
9723
  8
0
 10
3508.8661966213398955
 20
199.6971604303647041
 30
0.0
 40
0.0315042284581857
 50
0.0148502699420744
 51
90.0
  0
LINE
  5
9724
  8
0
 10
3508.8977008487399871
 20
199.6971685958228022
 30
0.0
 11
3508.8977008487399871
 21
199.6026804082032129
 31
0.0
  0
ARC
  5
9725
  8
0
 10
3508.866254666182158
 20
199.6026305263841039
 30
0.0
 40
0.03144622212184
 50
269.9091165885851069
 51
0.0908859224754554
  0
ARC
  5
9726
  8
0
 10
3508.5827410907868398
 20
199.5515014097283881
 30
0.0
 40
0.0196829341138223
 50
0.0111685226589532
 51
90.0025384758244371
  0
LINE
  5
9727
  8
0
 10
3508.6024240245278634
 20
199.5515052464733117
 30
0.0
 11
3508.6024240245278634
 21
190.6935541504228979
 31
0.0
  0
ARC
  5
9728
  8
0
 10
3508.4530456922670965
 20
190.7104612465599871
 30
0.0
 40
0.1493783892220581
 50
269.9130346773985138
 51
359.9499639450045834
  0
ARC
  5
9729
  8
0
 10
3508.4528322818177912
 20
190.6936115539531897
 30
0.0
 40
0.1495917537235996
 50
269.9948971473839947
 51
359.9780136269837953
  0
LINE
  5
972A
  8
0
 10
3503.0315550342397728
 20
197.4255150525229112
 30
0.0
 11
3503.0315550342397728
 21
199.2759087533229092
 31
0.0
  0
LINE
  5
972B
  8
0
 10
3503.082736136640051
 20
199.4137040289228082
 30
0.0
 11
3504.8701377114412026
 21
199.4137040289228082
 31
0.0
  0
LINE
  5
972C
  8
0
 10
3503.1102951917409882
 20
199.3546489108229025
 30
0.0
 11
3504.8425786563411748
 21
199.3546489108229025
 31
0.0
  0
LINE
  5
972D
  8
0
 10
3503.0512400736411109
 20
199.2955937927227978
 30
0.0
 11
3504.9016337744410521
 21
199.2955937927227978
 31
0.0
  0
LINE
  5
972E
  8
0
 10
3503.0512400736411109
 20
197.4058300132228112
 30
0.0
 11
3504.9016337744410521
 21
197.4058300132228112
 31
0.0
  0
LINE
  5
972F
  8
0
 10
3503.0512400736411109
 20
199.4452000919227999
 30
0.0
 11
3503.0512400736411109
 21
199.7286646588229075
 31
0.0
  0
LINE
  5
9730
  8
0
 10
3503.2866587314451863
 20
199.2437257034785887
 30
0.0
 11
3503.2866587314451863
 21
197.4576981024619897
 31
0.0
  0
LINE
  5
9731
  8
0
 10
3503.7245174972272252
 20
199.2437035293374095
 30
0.0
 11
3503.7245174972272252
 21
197.4577202766083985
 31
0.0
  0
LINE
  5
9732
  8
0
 10
3503.0512400736411109
 20
197.4058300132228112
 30
0.0
 11
3503.0315550342397728
 21
197.4255150525229112
 31
0.0
  0
LINE
  5
9733
  8
0
 10
3503.0315550342397728
 20
199.2759087533229092
 30
0.0
 11
3503.0512400736411109
 21
199.2955937927227978
 31
0.0
  0
LINE
  5
9734
  8
0
 10
3503.1102951917409882
 20
199.3546489108229025
 30
0.0
 11
3503.1102951917409882
 21
199.2955937927227978
 31
0.0
  0
ARC
  5
9735
  8
0
 10
3503.0830096296681404
 20
199.4454735849504914
 30
0.0
 40
0.03177073320888
 50
180.4932271989711126
 51
269.5067728010221799
  0
ARC
  5
9736
  8
0
 10
3503.1593886223558911
 20
199.0081287568004029
 30
0.0
 40
0.26777528256299
 50
61.6219621850036532
 51
118.5151613411480014
  0
ARC
  5
9737
  8
0
 10
3503.505551226409807
 20
198.5153120345611057
 30
0.0
 40
0.7605921360480618
 50
73.2683716471770907
 51
106.7258251815568997
  0
ARC
  5
9738
  8
0
 10
3503.1593886223558911
 20
197.6932950491402039
 30
0.0
 40
0.26777528256299
 50
241.4848386588519986
 51
298.3780378149962758
  0
ARC
  5
9739
  8
0
 10
3503.505551226409807
 20
198.1861117713795011
 30
0.0
 40
0.7605921360480618
 50
253.2741748184431003
 51
286.7316283528228951
  0
LINE
  5
973A
  8
0
 10
3503.5630510972400771
 20
199.3546489108229025
 30
0.0
 11
3503.5630510972400771
 21
199.3822079659229018
 31
0.0
  0
ARC
  5
973B
  8
0
 10
3503.5315550342397728
 20
199.3822079659229018
 30
0.0
 40
0.0314960629999988
 50
0.0
 51
90.0
  0
LINE
  5
973C
  8
0
 10
3504.921318813841026
 20
197.4255150525229112
 30
0.0
 11
3504.921318813841026
 21
199.2759087533229092
 31
0.0
  0
LINE
  5
973D
  8
0
 10
3504.9016337744410521
 20
199.4452000919227999
 30
0.0
 11
3504.9016337744410521
 21
199.7286646588229075
 31
0.0
  0
LINE
  5
973E
  8
0
 10
3504.6662151166360673
 20
199.2437257034785887
 30
0.0
 11
3504.6662151166360673
 21
197.4576981024619897
 31
0.0
  0
LINE
  5
973F
  8
0
 10
3504.2283563508540283
 20
199.2437035293374095
 30
0.0
 11
3504.2283563508540283
 21
197.4577202766083985
 31
0.0
  0
LINE
  5
9740
  8
0
 10
3504.9016337744410521
 20
197.4058300132228112
 30
0.0
 11
3504.921318813841026
 21
197.4255150525229112
 31
0.0
  0
LINE
  5
9741
  8
0
 10
3504.921318813841026
 20
199.2759087533229092
 30
0.0
 11
3504.9016337744410521
 21
199.2955937927227978
 31
0.0
  0
LINE
  5
9742
  8
0
 10
3504.8425786563411748
 20
199.3546489108229025
 30
0.0
 11
3504.8425786563411748
 21
199.2955937927227978
 31
0.0
  0
ARC
  5
9743
  8
0
 10
3504.8698642184131131
 20
199.4454735849504914
 30
0.0
 40
0.03177073320888
 50
270.4932271989777064
 51
359.5067728010287738
  0
ARC
  5
9744
  8
0
 10
3504.7934852257258171
 20
199.0081287568004029
 30
0.0
 40
0.26777528256299
 50
61.4848386588519915
 51
118.3780378149963042
  0
ARC
  5
9745
  8
0
 10
3504.4473226216709918
 20
198.5153120345611057
 30
0.0
 40
0.7605921360480618
 50
73.2741748184431145
 51
106.7316283528228951
  0
ARC
  5
9746
  8
0
 10
3504.7934852257258171
 20
197.6932950491402039
 30
0.0
 40
0.26777528256299
 50
241.6219621850036958
 51
298.515161341147973
  0
ARC
  5
9747
  8
0
 10
3504.4473226216709918
 20
198.1861117713795011
 30
0.0
 40
0.7605921360480618
 50
253.2683716471771049
 51
286.7258251815568997
  0
LINE
  5
9748
  8
0
 10
3504.3898227508398122
 20
199.3546489108229025
 30
0.0
 11
3504.3898227508398122
 21
199.3822079659229018
 31
0.0
  0
ARC
  5
9749
  8
0
 10
3504.4213188138401165
 20
199.3822079659229018
 30
0.0
 40
0.0314960629999988
 50
90.0
 51
180.0
  0
ARC
  5
974A
  8
0
 10
3503.976436924040172
 20
198.2745095069346917
 30
0.0
 40
1.0013992463881569
 50
75.4297164557513753
 51
104.5702835442485963
  0
ARC
  5
974B
  8
0
 10
3503.9764369240301676
 20
198.4269142959778947
 30
0.0
 40
1.0013992434550181
 50
255.4297164127312953
 51
284.5702835884532078
  0
LINE
  5
974C
  8
0
 10
3512.7756576868400771
 20
199.7286646588229075
 30
0.0
 11
3510.9252639860401359
 21
199.7286646588229075
 31
0.0
  0
LINE
  5
974D
  8
0
 10
3512.7953427262409605
 20
197.4255150525229112
 30
0.0
 11
3512.7953427262409605
 21
199.2759087533229092
 31
0.0
  0
LINE
  5
974E
  8
0
 10
3512.7441616238397728
 20
199.4137040289228082
 30
0.0
 11
3510.9567600490399855
 21
199.4137040289228082
 31
0.0
  0
LINE
  5
974F
  8
0
 10
3512.7166025687401998
 20
199.3546489108229025
 30
0.0
 11
3510.9843191041400132
 21
199.3546489108229025
 31
0.0
  0
LINE
  5
9750
  8
0
 10
3512.7756576868400771
 20
199.2955937927227978
 30
0.0
 11
3510.9252639860401359
 21
199.2955937927227978
 31
0.0
  0
LINE
  5
9751
  8
0
 10
3512.7756576868400771
 20
197.4058300132228112
 30
0.0
 11
3510.9252639860401359
 21
197.4058300132228112
 31
0.0
  0
LINE
  5
9752
  8
0
 10
3512.7756576868400771
 20
199.4452000919227999
 30
0.0
 11
3512.7756576868400771
 21
199.7286646588229075
 31
0.0
  0
LINE
  5
9753
  8
0
 10
3512.5402390290360017
 20
199.2437257034785887
 30
0.0
 11
3512.5402390290360017
 21
197.4576981024619897
 31
0.0
  0
LINE
  5
9754
  8
0
 10
3512.1023802632530533
 20
199.2437035293374095
 30
0.0
 11
3512.1023802632530533
 21
197.4577202766083985
 31
0.0
  0
LINE
  5
9755
  8
0
 10
3512.7756576868400771
 20
197.4058300132228112
 30
0.0
 11
3512.7953427262409605
 21
197.4255150525229112
 31
0.0
  0
LINE
  5
9756
  8
0
 10
3512.7953427262409605
 20
199.2759087533229092
 30
0.0
 11
3512.7756576868400771
 21
199.2955937927227978
 31
0.0
  0
LINE
  5
9757
  8
0
 10
3512.7166025687401998
 20
199.3546489108229025
 30
0.0
 11
3512.7166025687401998
 21
199.2955937927227978
 31
0.0
  0
ARC
  5
9758
  8
0
 10
3512.7438881308130476
 20
199.4454735849504914
 30
0.0
 40
0.03177073320888
 50
270.4932271989777064
 51
359.5067728010287738
  0
ARC
  5
9759
  8
0
 10
3512.6675091381248421
 20
199.0081287568004029
 30
0.0
 40
0.26777528256299
 50
61.4848386588519915
 51
118.3780378149963042
  0
ARC
  5
975A
  8
0
 10
3512.3213465340709263
 20
198.5153120345611057
 30
0.0
 40
0.7605921360480618
 50
73.2741748184431145
 51
106.7316283528228951
  0
ARC
  5
975B
  8
0
 10
3512.6675091381248421
 20
197.6932950491402039
 30
0.0
 40
0.26777528256299
 50
241.6219621850036958
 51
298.515161341147973
  0
ARC
  5
975C
  8
0
 10
3512.3213465340709263
 20
198.1861117713795011
 30
0.0
 40
0.7605921360480618
 50
253.2683716471771049
 51
286.7258251815568997
  0
LINE
  5
975D
  8
0
 10
3512.2638466632402015
 20
199.3546489108229025
 30
0.0
 11
3512.2638466632402015
 21
199.3822079659229018
 31
0.0
  0
ARC
  5
975E
  8
0
 10
3512.295342726240051
 20
199.3822079659229018
 30
0.0
 40
0.0314960629999988
 50
90.0
 51
180.0
  0
LINE
  5
975F
  8
0
 10
3510.9055789466410715
 20
197.4255150525229112
 30
0.0
 11
3510.9055789466410715
 21
199.2759087533229092
 31
0.0
  0
LINE
  5
9760
  8
0
 10
3510.9252639860401359
 20
199.4452000919227999
 30
0.0
 11
3510.9252639860401359
 21
199.7286646588229075
 31
0.0
  0
LINE
  5
9761
  8
0
 10
3511.1606826438451208
 20
199.2437257034785887
 30
0.0
 11
3511.1606826438451208
 21
197.4576981024619897
 31
0.0
  0
LINE
  5
9762
  8
0
 10
3511.5985414096280692
 20
199.2437035293374095
 30
0.0
 11
3511.5985414096280692
 21
197.4577202766083985
 31
0.0
  0
LINE
  5
9763
  8
0
 10
3510.9252639860401359
 20
197.4058300132228112
 30
0.0
 11
3510.9055789466410715
 21
197.4255150525229112
 31
0.0
  0
LINE
  5
9764
  8
0
 10
3510.9055789466410715
 20
199.2759087533229092
 30
0.0
 11
3510.9252639860401359
 21
199.2955937927227978
 31
0.0
  0
LINE
  5
9765
  8
0
 10
3510.9843191041400132
 20
199.3546489108229025
 30
0.0
 11
3510.9843191041400132
 21
199.2955937927227978
 31
0.0
  0
ARC
  5
9766
  8
0
 10
3510.9570335420680749
 20
199.4454735849504914
 30
0.0
 40
0.03177073320888
 50
180.4932271989711126
 51
269.5067728010221799
  0
ARC
  5
9767
  8
0
 10
3511.0334125347558256
 20
199.0081287568004029
 30
0.0
 40
0.26777528256299
 50
61.6219621850036532
 51
118.5151613411480014
  0
ARC
  5
9768
  8
0
 10
3511.3795751388111057
 20
198.5153120345611057
 30
0.0
 40
0.7605921360480618
 50
73.2683716471770907
 51
106.7258251815568997
  0
ARC
  5
9769
  8
0
 10
3511.0334125347558256
 20
197.6932950491402039
 30
0.0
 40
0.26777528256299
 50
241.4848386588519986
 51
298.3780378149962758
  0
ARC
  5
976A
  8
0
 10
3511.3795751388111057
 20
198.1861117713795011
 30
0.0
 40
0.7605921360480618
 50
253.2741748184431003
 51
286.7316283528228951
  0
LINE
  5
976B
  8
0
 10
3511.4370750096400116
 20
199.3546489108229025
 30
0.0
 11
3511.4370750096400116
 21
199.3822079659229018
 31
0.0
  0
ARC
  5
976C
  8
0
 10
3511.4055789466410715
 20
199.3822079659229018
 30
0.0
 40
0.0314960629999988
 50
0.0
 51
90.0
  0
ARC
  5
976D
  8
0
 10
3511.8504608364401065
 20
198.2745095069346917
 30
0.0
 40
1.0013992463881569
 50
75.4297164557513753
 51
104.5702835442485963
  0
ARC
  5
976E
  8
0
 10
3511.8504608364510204
 20
198.4269142959778947
 30
0.0
 40
1.0013992434550181
 50
255.4297164115467069
 51
284.5702835872687047
  0
ENDSEC
  0
EOF
