  0
SECTION
  2
HEADER
  9
$ACADVER
  1
AC1009
  9
$INSBASE
 10
3482.7351271238730988
 20
197.1849489750954092
 30
0.0
  9
$EXTMIN
 10
3477.853233277873187
 20
196.2006970065953908
 30
0.0
  9
$EXTMAX
 10
3487.617020969872101
 20
198.1692009435953992
 30
0.0
  9
$LIMMIN
 10
0.0
 20
0.0
  9
$LIMMAX
 10
11.6929133858000007
 20
8.2677165353999982
  9
$ORTHOMODE
 70
     1
  9
$REGENMODE
 70
     1
  9
$FILLMODE
 70
     1
  9
$QTEXTMODE
 70
     0
  9
$MIRRTEXT
 70
     0
  9
$DRAGMODE
 70
     2
  9
$LTSCALE
 40
0.6431102362
  9
$OSMODE
 70
  3839
  9
$ATTMODE
 70
     1
  9
$TEXTSIZE
 40
0.2
  9
$TRACEWID
 40
0.05
  9
$TEXTSTYLE
  7
STANDARD
  9
$CLAYER
  8
0
  9
$CELTYPE
  6
BYLAYER
  9
$CECOLOR
 62
   256
  9
$DIMSCALE
 40
1.0
  9
$DIMASZ
 40
0.1875
  9
$DIMEXO
 40
0.0625
  9
$DIMDLI
 40
0.4443307087
  9
$DIMRND
 40
0.0
  9
$DIMDLE
 40
0.0
  9
$DIMEXE
 40
0.125
  9
$DIMTP
 40
0.01
  9
$DIMTM
 40
0.01
  9
$DIMTXT
 40
2.0
  9
$DIMCEN
 40
0.1052362205
  9
$DIMTSZ
 40
0.0
  9
$DIMTOL
 70
     1
  9
$DIMLIM
 70
     0
  9
$DIMTIH
 70
     1
  9
$DIMTOH
 70
     1
  9
$DIMSE1
 70
     0
  9
$DIMSE2
 70
     0
  9
$DIMTAD
 70
     0
  9
$DIMZIN
 70
     0
  9
$DIMBLK
  1

  9
$DIMASO
 70
     1
  9
$DIMSHO
 70
     1
  9
$DIMPOST
  1
\X
  9
$DIMAPOST
  1

  9
$DIMALT
 70
     1
  9
$DIMALTD
 70
     2
  9
$DIMALTF
 40
25.3999999999999986
  9
$DIMLFAC
 40
1.0
  9
$DIMTOFL
 70
     0
  9
$DIMTVP
 40
0.0
  9
$DIMTIX
 70
     0
  9
$DIMSOXD
 70
     0
  9
$DIMSAH
 70
     0
  9
$DIMBLK1
  1

  9
$DIMBLK2
  1

  9
$DIMSTYLE
  2
STANDARD
  9
$DIMCLRD
 70
     0
  9
$DIMCLRE
 70
     0
  9
$DIMCLRT
 70
     0
  9
$DIMTFAC
 40
1.0
  9
$DIMGAP
 40
0.09
  9
$LUNITS
 70
     2
  9
$LUPREC
 70
     4
  9
$SKETCHINC
 40
0.1
  9
$FILLETRAD
 40
0.0
  9
$AUNITS
 70
     0
  9
$AUPREC
 70
     0
  9
$MENU
  1
.
  9
$ELEVATION
 40
0.0
  9
$PELEVATION
 40
0.0
  9
$THICKNESS
 40
0.0
  9
$LIMCHECK
 70
     0
  9
$BLIPMODE
 70
     0
  9
$CHAMFERA
 40
0.0
  9
$CHAMFERB
 40
0.0
  9
$SKPOLY
 70
     0
  9
$TDCREATE
 40
2458060.468368056230247
  9
$TDUPDATE
 40
2459037.9515162031166255
  9
$TDINDWG
 40
0.6925186343
  9
$TDUSRTIMER
 40
0.6925186343
  9
$USRTIMER
 70
     1
  9
$ANGBASE
 50
0.0
  9
$ANGDIR
 70
     0
  9
$PDMODE
 70
     0
  9
$PDSIZE
 40
0.3125
  9
$PLINEWID
 40
0.0
  9
$COORDS
 70
     1
  9
$SPLFRAME
 70
     0
  9
$SPLINETYPE
 70
     6
  9
$SPLINESEGS
 70
     8
  9
$ATTDIA
 70
     1
  9
$ATTREQ
 70
     1
  9
$HANDLING
 70
     1
  9
$HANDSEED
  5
9CC8
  9
$SURFTAB1
 70
     6
  9
$SURFTAB2
 70
     6
  9
$SURFTYPE
 70
     6
  9
$SURFU
 70
     6
  9
$SURFV
 70
     6
  9
$UCSNAME
  2

  9
$UCSORG
 10
0.0
 20
0.0
 30
0.0
  9
$UCSXDIR
 10
1.0
 20
0.0
 30
0.0
  9
$UCSYDIR
 10
0.0
 20
1.0
 30
0.0
  9
$PUCSNAME
  2

  9
$PUCSORG
 10
0.0
 20
0.0
 30
0.0
  9
$PUCSXDIR
 10
1.0
 20
0.0
 30
0.0
  9
$PUCSYDIR
 10
0.0
 20
1.0
 30
0.0
  9
$USERI1
 70
     0
  9
$USERI2
 70
     0
  9
$USERI3
 70
     0
  9
$USERI4
 70
     0
  9
$USERI5
 70
     0
  9
$USERR1
 40
0.0
  9
$USERR2
 40
0.0
  9
$USERR3
 40
0.0
  9
$USERR4
 40
0.0
  9
$USERR5
 40
0.0
  9
$WORLDVIEW
 70
     1
  9
$SHADEDGE
 70
     3
  9
$SHADEDIF
 70
    70
  9
$TILEMODE
 70
     1
  9
$MAXACTVP
 70
    64
  9
$PLIMCHECK
 70
     0
  9
$PEXTMIN
 10
1.0000000000000000E+20
 20
1.0000000000000000E+20
 30
1.0000000000000000E+20
  9
$PEXTMAX
 10
-1.0000000000000000E+20
 20
-1.0000000000000000E+20
 30
-1.0000000000000000E+20
  9
$PLIMMIN
 10
0.0
 20
0.0
  9
$PLIMMAX
 10
12.0
 20
9.0
  9
$UNITMODE
 70
     0
  9
$VISRETAIN
 70
     1
  9
$PLINEGEN
 70
     0
  9
$PSLTSCALE
 70
     1
  0
ENDSEC
  0
SECTION
  2
TABLES
  0
TABLE
  2
VPORT
 70
     1
  0
VPORT
  2
*ACTIVE
 70
     0
 10
0.0
 20
0.0
 11
1.0
 21
1.0
 12
0.0
 22
0.0
 13
0.0
 23
0.0
 14
1.0
 24
1.0
 15
0.0
 25
0.0
 16
0.0
 26
0.0
 36
41.3429199146866324
 17
3482.7351074218759095
 27
197.1850509643554119
 37
0.0
 40
9.9584354342791972
 41
3.3143418467583499
 42
50.0
 43
0.0
 44
0.0
 50
0.0
 51
0.0
 71
     0
 72
   100
 73
     1
 74
     1
 75
     0
 76
     0
 77
     0
 78
     0
  0
ENDTAB
  0
TABLE
  2
LTYPE
 70
     2
  0
LTYPE
  2
CONTINUOUS
 70
     0
  3
Solid line
 72
    65
 73
     0
 40
0.0
  0
LTYPE
  2
PHANTOM2
 70
     0
  3
___ _ _ ___ _ _ ___ _ _ ___ _ _
 72
    65
 73
     6
 40
1.25
 49
0.625
 49
-0.125
 49
0.125
 49
-0.125
 49
0.125
 49
-0.125
  0
ENDTAB
  0
TABLE
  2
LAYER
 70
     2
  0
LAYER
  2
0
 70
     0
 62
   255
  6
CONTINUOUS
  0
LAYER
  2
DEFPOINTS
 70
     0
 62
     7
  6
CONTINUOUS
  0
ENDTAB
  0
TABLE
  2
STYLE
 70
     1
  0
STYLE
  2
STANDARD
 70
     0
 40
0.0
 41
0.8
 50
0.0
 71
     0
 42
0.2
  3
txt
  4

  0
ENDTAB
  0
TABLE
  2
VIEW
 70
     0
  0
ENDTAB
  0
TABLE
  2
UCS
 70
     0
  0
ENDTAB
  0
TABLE
  2
APPID
 70
     9
  0
APPID
  2
ACAD
 70
     0
  0
APPID
  2
ACAD_MLEADERVER
 70
     0
  0
APPID
  2
ACAD_EXEMPT_FROM_CAD_STANDARDS
 70
     0
  0
APPID
  2
ACAD_NAV_VCDISPLAY
 70
     0
  0
APPID
  2
ACAECLAYERSTANDARD
 70
     0
  0
APPID
  2
ACCMTRANSPARENCY
 70
     0
  0
APPID
  2
ACAD_DSTYLE_DIMJAG
 70
     0
  0
APPID
  2
ACAD_DSTYLE_DIMTALN
 70
     0
  0
APPID
  2
ACDBATTR
 70
     0
  0
ENDTAB
  0
TABLE
  2
DIMSTYLE
 70
     1
  0
DIMSTYLE
  2
STANDARD
 70
     0
  3

  4

  5

  6

  7

 40
1.0
 41
0.1875
 42
0.0625
 43
0.38
 44
0.125
 45
0.0
 46
0.0
 47
0.01
 48
0.01
140
0.15625
141
0.09
142
0.0
143
25.3999999999999986
144
1.0
145
0.0
146
1.0
147
0.09
 71
     1
 72
     0
 73
     1
 74
     1
 75
     0
 76
     0
 77
     0
 78
     4
170
     0
171
     2
172
     0
173
     0
174
     0
175
     0
176
     0
177
     0
178
     0
  0
ENDTAB
  0
ENDSEC
  0
SECTION
  2
BLOCKS
  0
BLOCK
  8
0
  2
$MODEL_SPACE
 70
     0
 10
0.0
 20
0.0
 30
0.0
  3
$MODEL_SPACE
  1

  0
ENDBLK
  5
21
  8
0
  0
BLOCK
 67
     1
  8
0
  2
$PAPER_SPACE
 70
     0
 10
0.0
 20
0.0
 30
0.0
  3
$PAPER_SPACE
  1

  0
ENDBLK
  5
1D
 67
     1
  8
0
  0
BLOCK
  8
0
  2
_FILLED
 70
     0
 10
0.0
 20
0.0
 30
0.0
  3
_FILLED
  1

  0
SOLID
  5
6F59
  8
0
  6
BYBLOCK
 62
     0
 10
0.0
 20
0.0
 30
0.0
 11
-1.0
 21
0.1666666667
 31
0.0
 12
-1.0
 22
-0.1666666667
 32
0.0
 13
-1.0
 23
-0.1666666667
 33
0.0
  0
ENDBLK
  5
6F5A
  8
0
  6
BYBLOCK
 62
     0
  0
ENDSEC
  0
SECTION
  2
ENTITIES
  0
ATTDEF
  5
3930
  8
DEFPOINTS
 10
3482.7354550873537846
 20
197.1833960986232057
 30
0.0
 40
0.001
  1
K-73067T-9ACH
  3

  2
MODELNUMBER
 70
     0
1001
ACDBATTR
1070
     0
1070
     1
  0
ATTDEF
  5
3931
  8
DEFPOINTS
 10
3482.7354550873537846
 20
197.1817294319565974
 30
0.0
 40
0.001
  1
COMPOSED
  3

  2
TRADENAME
 70
     0
1001
ACDBATTR
1070
     0
1070
     1
  0
ATTDEF
  5
3932
  8
DEFPOINTS
 10
3482.7354550873537846
 20
197.1800627652899038
 30
0.0
 40
0.001
  1
BATHROOM SINK FAUCET
  3

  2
PRODUCT
 70
     0
1001
ACDBATTR
1070
     0
1070
     1
  0
ARC
  5
9927
  8
0
 10
3482.7351637293159001
 20
197.1853173525020964
 30
0.0
 40
0.4723858074249655
 50
205.8998459399913088
 51
269.9955601176304185
  0
ARC
  5
9928
  8
0
 10
3482.1245991936621067
 20
196.9082197779719081
 30
0.0
 40
0.1986550415740534
 50
20.8666451190976403
 51
89.6663197889878063
  0
LINE
  5
9929
  8
0
 10
3482.1257561179950244
 20
197.1068714506778861
 30
0.0
 11
3482.0776468089720765
 21
197.1068726644149081
 31
0.0
  0
ARC
  5
992A
  8
0
 10
3482.0776430204728058
 20
197.1383637051910114
 30
0.0
 40
0.0314910410040825
 50
180.0049144417050115
 51
270.0068929135663893
  0
LINE
  5
992B
  8
0
 10
3482.0461519795849199
 20
197.1383610041040129
 30
0.0
 11
3482.0461519795849199
 21
197.9355813456953967
 31
0.0
  0
ARC
  5
992C
  8
0
 10
3482.0778690355341496
 20
197.9356964908280929
 30
0.0
 40
0.031717264959724
 50
103.1288031063711941
 51
180.2080053532054933
  0
ARC
  5
992D
  8
0
 10
3482.2093793514918616
 20
195.904153323734505
 30
0.0
 40
2.067090959330474
 50
90.377586823331157
 51
93.8477932373671848
  0
LINE
  5
992E
  8
0
 10
3482.1957570451718311
 20
197.9711993964953933
 30
0.0
 11
3483.2744972025730021
 21
197.9711993964953933
 31
0.0
  0
ARC
  5
992F
  8
0
 10
3482.7350485844731338
 20
197.2476649610954098
 30
0.0
 40
0.4724562574999993
 50
204.3429659092805935
 51
270.0095246408428125
  0
ARC
  5
9930
  8
0
 10
3482.1252040818808382
 20
196.9717588700729038
 30
0.0
 40
0.1968975266866545
 50
24.3429659092806112
 51
89.9987181087916355
  0
LINE
  5
9931
  8
0
 10
3482.1252084871130137
 20
197.1686563967103041
 30
0.0
 11
3482.0461519795849199
 21
197.1686581654591066
 31
0.0
  0
ARC
  5
9932
  8
0
 10
3482.0774715407128497
 20
197.4476291864903033
 30
0.0
 40
0.0313196204545657
 50
180.1115201928905094
 51
270.3817003932110765
  0
ARC
  5
9933
  8
0
 10
3482.1773517516289758
 20
196.2261992364103946
 30
0.0
 40
1.194277468380796
 50
89.1169661852832178
 51
94.7873382388296761
  0
LINE
  5
9934
  8
0
 10
3482.1957570451718311
 20
197.4203348721954114
 30
0.0
 11
3482.7351271238730988
 21
197.4203348721954114
 31
0.0
  0
LINE
  5
9935
  8
0
 10
3482.4772831633731585
 20
197.2484991451954102
 30
0.0
 11
3482.7351271238730988
 21
197.2484991451954102
 31
0.0
  0
ARC
  5
9936
  8
0
 10
3482.7236652648648487
 20
203.2824201646390918
 30
0.0
 40
6.0438933582963648
 50
268.1704713709839893
 51
270.1086578635976139
  0
ARC
  5
9937
  8
0
 10
3482.5310941967350118
 20
197.7094830751852044
 30
0.0
 40
0.4678754890029837
 50
260.4890606870415013
 51
269.9527918854681729
  0
ARC
  5
9938
  8
0
 10
3482.4585457698899518
 20
197.2435546635720129
 30
0.0
 40
0.006540640961408
 50
95.8905024315009484
 51
136.7166803967130022
  0
ARC
  5
9939
  8
0
 10
3482.5616830550861778
 20
196.3257533086083981
 30
0.0
 40
0.9301185372277886
 50
90.6006423463646939
 51
96.408009729180236
  0
ARC
  5
993A
  8
0
 10
3482.7271279471651724
 20
190.7816562688107922
 30
0.0
 40
6.4765344875836552
 50
89.9292338854439492
 51
91.5500846991271686
  0
LINE
  5
993B
  8
0
 10
3482.7311901160728667
 20
197.241355713495409
 30
0.0
 11
3482.7311901160728667
 21
197.2393631210954084
 31
0.0
  0
ARC
  5
993C
  8
0
 10
3482.734510756868076
 20
204.3871903773483041
 30
0.0
 40
7.1478280275820048
 50
269.5311528092541948
 51
269.9733823045330041
  0
LINE
  5
993D
  8
0
 10
3482.6760212534659331
 20
197.2396016587748022
 30
0.0
 11
3482.6908052105718525
 21
197.24152722029541
 31
0.0
  0
LINE
  5
993E
  8
0
 10
3482.6908052105718525
 20
197.24152722029541
 30
0.0
 11
3482.6908052105718525
 21
197.24152722029541
 31
0.0
  0
LINE
  5
993F
  8
0
 10
3482.6908052105718525
 20
197.24152722029541
 30
0.0
 11
3482.7311901160728667
 21
197.241355713495409
 31
0.0
  0
ARC
  5
9940
  8
0
 10
3482.4846289209331189
 20
197.259602528566802
 30
0.0
 40
0.0133133495568216
 50
236.5122432488446123
 51
267.8012970424881019
  0
LINE
  5
9941
  8
0
 10
3482.4841181517731457
 20
197.2462989804953963
 30
0.0
 11
3482.5392926309727955
 21
197.2468149330954077
 31
0.0
  0
ARC
  5
9942
  8
0
 10
3482.5423853961437999
 20
197.2628148238169956
 30
0.0
 40
0.0162960639269226
 50
241.458902073282502
 51
259.0597029566583274
  0
LINE
  5
9943
  8
0
 10
3482.4899595675587989
 20
197.2457846191389876
 30
0.0
 11
3482.5433685214720754
 21
197.246284061895409
 31
0.0
  0
LINE
  5
9944
  8
0
 10
3482.5433685214720754
 20
197.246284061895409
 30
0.0
 11
3482.5593050595721252
 21
197.2449777210954096
 31
0.0
  0
LINE
  5
9945
  8
0
 10
3482.5593050595721252
 20
197.2449777210954096
 30
0.0
 11
3482.510630569658133
 21
197.2439969674038025
 31
0.0
  0
LINE
  5
9946
  8
0
 10
3482.510630569658133
 20
197.2439969674038025
 30
0.0
 11
3482.4899595675587989
 21
197.2457846191389876
 31
0.0
  0
LINE
  5
9947
  8
0
 10
3482.5146386796000115
 20
197.2437045126756061
 30
0.0
 11
3482.5632420674728564
 21
197.2447397379953884
 31
0.0
  0
LINE
  5
9948
  8
0
 10
3482.5632420674728564
 20
197.2447397379953884
 30
0.0
 11
3482.587690434671913
 21
197.243604904095406
 31
0.0
  0
LINE
  5
9949
  8
0
 10
3482.587690434671913
 20
197.243604904095406
 30
0.0
 11
3482.5472999126732248
 21
197.242195295195387
 31
0.0
  0
LINE
  5
994A
  8
0
 10
3482.5472999126732248
 20
197.242195295195387
 30
0.0
 11
3482.5146386796000115
 21
197.2437045126756061
 31
0.0
  0
LINE
  5
994B
  8
0
 10
3482.5584354537159015
 20
197.2418066704352952
 30
0.0
 11
3482.5988259745718096
 21
197.2432162792954102
 31
0.0
  0
LINE
  5
994C
  8
0
 10
3482.5988259745718096
 20
197.2432162792954102
 30
0.0
 11
3482.63816227287316
 21
197.2422256439953969
 31
0.0
  0
LINE
  5
994D
  8
0
 10
3482.63816227287316
 20
197.2422256439953969
 30
0.0
 11
3482.6027955948729868
 21
197.2406374080348996
 31
0.0
  0
LINE
  5
994E
  8
0
 10
3482.6027955948729868
 20
197.2406374080348996
 30
0.0
 11
3482.5584354537159015
 21
197.2418066704352952
 31
0.0
  0
LINE
  5
994F
  8
0
 10
3482.6096146929507995
 20
197.2405000084243056
 30
0.0
 11
3482.638583392198143
 21
197.2417967149220885
 31
0.0
  0
LINE
  5
9950
  8
0
 10
3482.638583392198143
 20
197.2417967149220885
 30
0.0
 11
3482.6755937802718108
 21
197.241669466895388
 31
0.0
  0
LINE
  5
9951
  8
0
 10
3482.6755937802718108
 20
197.241669466895388
 30
0.0
 11
3482.6608098231731674
 21
197.2397439052953985
 31
0.0
  0
LINE
  5
9952
  8
0
 10
3482.6608098231731674
 20
197.2397439052953985
 30
0.0
 11
3482.6096146929507995
 21
197.2405000084243056
 31
0.0
  0
ARC
  5
9953
  8
0
 10
3482.5625627173358225
 20
197.3250423986877991
 30
0.0
 40
0.0799831835016217
 50
253.8275134385633862
 51
271.3308637937552135
  0
LINE
  5
9954
  8
0
 10
3482.5644203960728191
 20
197.2450807911953916
 30
0.0
 11
3482.6138600227009192
 21
197.2460780733331092
 31
0.0
  0
ARC
  5
9955
  8
0
 10
3482.6141040741940742
 20
197.312232441964909
 30
0.0
 40
0.0661548187980672
 50
255.3638676022690959
 51
269.7886298757575787
  0
LINE
  5
9956
  8
0
 10
3482.5973881027721291
 20
197.2482243459953963
 30
0.0
 11
3482.5402850059731463
 21
197.2482243459953963
 31
0.0
  0
LINE
  5
9957
  8
0
 10
3482.7078507332721529
 20
197.2482243459953963
 30
0.0
 11
3482.7180793797720071
 21
197.2476060477953865
 31
0.0
  0
LINE
  5
9958
  8
0
 10
3482.7180793797720071
 20
197.2476060477953865
 30
0.0
 11
3482.7002830880719557
 21
197.246530302895394
 31
0.0
  0
LINE
  5
9959
  8
0
 10
3482.7002830880719557
 20
197.246530302895394
 30
0.0
 11
3482.6722581497720057
 21
197.2482243459953963
 31
0.0
  0
LINE
  5
995A
  8
0
 10
3482.6722581497720057
 20
197.2482243459953963
 30
0.0
 11
3482.7078507332721529
 21
197.2482243459953963
 31
0.0
  0
LINE
  5
995B
  8
0
 10
3482.6032961345717922
 20
197.2482243459953963
 30
0.0
 11
3482.6663420640720688
 21
197.2482243459953963
 31
0.0
  0
ARC
  5
995C
  8
0
 10
3482.6979867463301161
 20
197.5145138244789962
 30
0.0
 40
0.2681631448693593
 50
263.2230011519073969
 51
269.8586206831774916
  0
LINE
  5
995D
  8
0
 10
3482.697325045170146
 20
197.2463514959952988
 30
0.0
 11
3482.6658020803720319
 21
197.2444460051954138
 31
0.0
  0
ARC
  5
995E
  8
0
 10
3482.6653242338779819
 20
197.7554550472285939
 30
0.0
 40
0.5110092654512127
 50
263.0280442916088077
 51
270.0535774852561985
  0
LINE
  5
995F
  8
0
 10
3482.6411156137719445
 20
197.242404166695394
 30
0.0
 11
3482.6696671621730275
 21
197.244130042195394
 31
0.0
  0
LINE
  5
9960
  8
0
 10
3482.6696671621730275
 20
197.244130042195394
 30
0.0
 11
3482.7311901160728667
 21
197.2435547230954
 31
0.0
  0
LINE
  5
9961
  8
0
 10
3482.7311901160728667
 20
197.2435547230954
 30
0.0
 11
3482.7311901160728667
 21
197.2415618536954014
 31
0.0
  0
LINE
  5
9962
  8
0
 10
3482.6411156137719445
 20
197.242404166695394
 30
0.0
 11
3482.7311901160728667
 21
197.2415618536954014
 31
0.0
  0
LINE
  5
9963
  8
0
 10
3482.7351271238730988
 20
197.2437588592368058
 30
0.0
 11
3482.6726211780719495
 21
197.2443086055953927
 31
0.0
  0
LINE
  5
9964
  8
0
 10
3482.6726211780719495
 20
197.2443086055953927
 30
0.0
 11
3482.7047352030172078
 21
197.246204184260904
 31
0.0
  0
LINE
  5
9965
  8
0
 10
3482.7047352030172078
 20
197.246204184260904
 30
0.0
 11
3482.7351271238730988
 21
197.2459572526692
 31
0.0
  0
LINE
  5
9966
  8
0
 10
3482.7351271238730988
 20
197.2461633520699991
 30
0.0
 11
3482.707102185705935
 21
197.2463929032774956
 31
0.0
  0
LINE
  5
9967
  8
0
 10
3482.707102185705935
 20
197.2463929032774956
 30
0.0
 11
3482.7248984773727898
 21
197.2474686481953938
 31
0.0
  0
LINE
  5
9968
  8
0
 10
3482.7248984773727898
 20
197.2474686481953938
 30
0.0
 11
3482.7351271238730988
 21
197.2473995566676024
 31
0.0
  0
LINE
  5
9969
  8
0
 10
3482.7311901160728667
 20
197.2556425768952977
 30
0.0
 11
3482.7311901160728667
 21
197.2576351692952983
 31
0.0
  0
ARC
  5
996A
  8
0
 10
3482.7345107568598905
 20
190.1098079130424026
 30
0.0
 40
7.1478280275820048
 50
90.0266176954148847
 51
90.4688471906676028
  0
LINE
  5
996B
  8
0
 10
3482.6760212534659331
 20
197.2573966316159044
 30
0.0
 11
3482.6908052105718525
 21
197.2554710700952967
 31
0.0
  0
LINE
  5
996C
  8
0
 10
3482.6908052105718525
 20
197.2554710700952967
 30
0.0
 11
3482.6908052105718525
 21
197.2554710700952967
 31
0.0
  0
LINE
  5
996D
  8
0
 10
3482.6908052105718525
 20
197.2554710700952967
 30
0.0
 11
3482.7311901160728667
 21
197.2556425768952977
 31
0.0
  0
ARC
  5
996E
  8
0
 10
3482.4846289209331189
 20
197.2373957618241889
 30
0.0
 40
0.0133133495568216
 50
92.1987029574337384
 51
123.4877567510931016
  0
LINE
  5
996F
  8
0
 10
3482.4841181517731457
 20
197.2506993098955093
 30
0.0
 11
3482.5392926309727955
 21
197.2501833572954979
 31
0.0
  0
ARC
  5
9970
  8
0
 10
3482.5423853961437999
 20
197.23418346657391
 30
0.0
 40
0.0162960639269226
 50
100.9402970432627029
 51
118.5410979266577982
  0
LINE
  5
9971
  8
0
 10
3482.4899595675587989
 20
197.2512136712520032
 30
0.0
 11
3482.5433685214720754
 21
197.2507142284954966
 31
0.0
  0
LINE
  5
9972
  8
0
 10
3482.5433685214720754
 20
197.2507142284954966
 30
0.0
 11
3482.5593050595721252
 21
197.252020569295496
 31
0.0
  0
LINE
  5
9973
  8
0
 10
3482.5593050595721252
 20
197.252020569295496
 30
0.0
 11
3482.510630569658133
 21
197.2530013229871031
 31
0.0
  0
LINE
  5
9974
  8
0
 10
3482.510630569658133
 20
197.2530013229871031
 30
0.0
 11
3482.4899595675587989
 21
197.2512136712520032
 31
0.0
  0
LINE
  5
9975
  8
0
 10
3482.5146386796000115
 20
197.2532937777154132
 30
0.0
 11
3482.5632420674728564
 21
197.2522585523954035
 31
0.0
  0
LINE
  5
9976
  8
0
 10
3482.5632420674728564
 20
197.2522585523954035
 30
0.0
 11
3482.587690434671913
 21
197.2533933862953859
 31
0.0
  0
LINE
  5
9977
  8
0
 10
3482.587690434671913
 20
197.2533933862953859
 30
0.0
 11
3482.5472999126732248
 21
197.2548029951954902
 31
0.0
  0
LINE
  5
9978
  8
0
 10
3482.5472999126732248
 20
197.2548029951954902
 30
0.0
 11
3482.5146386796000115
 21
197.2532937777154132
 31
0.0
  0
LINE
  5
9979
  8
0
 10
3482.5584354537159015
 20
197.2551916199556103
 30
0.0
 11
3482.5988259745718096
 21
197.2537820110954101
 31
0.0
  0
LINE
  5
997A
  8
0
 10
3482.5988259745718096
 20
197.2537820110954101
 30
0.0
 11
3482.63816227287316
 21
197.254772646395395
 31
0.0
  0
LINE
  5
997B
  8
0
 10
3482.63816227287316
 20
197.254772646395395
 30
0.0
 11
3482.6027955948729868
 21
197.2563608823558923
 31
0.0
  0
LINE
  5
997C
  8
0
 10
3482.6027955948729868
 20
197.2563608823558923
 30
0.0
 11
3482.5584354537159015
 21
197.2551916199556103
 31
0.0
  0
LINE
  5
997D
  8
0
 10
3482.6096146929507995
 20
197.2564982819664863
 30
0.0
 11
3482.638583392198143
 21
197.2552015754687034
 31
0.0
  0
LINE
  5
997E
  8
0
 10
3482.638583392198143
 20
197.2552015754687034
 30
0.0
 11
3482.6755937802718108
 21
197.2553288234952902
 31
0.0
  0
LINE
  5
997F
  8
0
 10
3482.6755937802718108
 20
197.2553288234952902
 30
0.0
 11
3482.6608098231731674
 21
197.2572543850953082
 31
0.0
  0
LINE
  5
9980
  8
0
 10
3482.6608098231731674
 20
197.2572543850953082
 30
0.0
 11
3482.6096146929507995
 21
197.2564982819664863
 31
0.0
  0
ARC
  5
9981
  8
0
 10
3482.5625627173358225
 20
197.1719558917031065
 30
0.0
 40
0.0799831835016217
 50
88.6691362061927038
 51
106.1724865613815041
  0
LINE
  5
9982
  8
0
 10
3482.5644203960728191
 20
197.2519174991954003
 30
0.0
 11
3482.6138600227009192
 21
197.2509202170577112
 31
0.0
  0
ARC
  5
9983
  8
0
 10
3482.6141040741940742
 20
197.1847658484259114
 30
0.0
 40
0.0661548187980672
 50
90.2113701241642332
 51
104.6361323976767039
  0
LINE
  5
9984
  8
0
 10
3482.5973881027721291
 20
197.2487739443953956
 30
0.0
 11
3482.5402850059731463
 21
197.2487739443955093
 31
0.0
  0
LINE
  5
9985
  8
0
 10
3482.7078507332721529
 20
197.2487739443953103
 30
0.0
 11
3482.7180793797720071
 21
197.2493922425952917
 31
0.0
  0
LINE
  5
9986
  8
0
 10
3482.7180793797720071
 20
197.2493922425952917
 30
0.0
 11
3482.7002830880719557
 21
197.2504679874953126
 31
0.0
  0
LINE
  5
9987
  8
0
 10
3482.7002830880719557
 20
197.2504679874953126
 30
0.0
 11
3482.6722581497720057
 21
197.2487739443953103
 31
0.0
  0
LINE
  5
9988
  8
0
 10
3482.6722581497720057
 20
197.2487739443953103
 30
0.0
 11
3482.7078507332721529
 21
197.2487739443953103
 31
0.0
  0
LINE
  5
9989
  8
0
 10
3482.6032961345717922
 20
197.2487739443953956
 30
0.0
 11
3482.6663420640720688
 21
197.2487739443953103
 31
0.0
  0
ARC
  5
998A
  8
0
 10
3482.6979867463292067
 20
196.9824844659117105
 30
0.0
 40
0.2681631448693593
 50
90.141379316770383
 51
96.7769988480140029
  0
LINE
  5
998B
  8
0
 10
3482.697325045170146
 20
197.2506467943954078
 30
0.0
 11
3482.6658020803720319
 21
197.2525522851952928
 31
0.0
  0
ARC
  5
998C
  8
0
 10
3482.6653242338770724
 20
196.7415432431621127
 30
0.0
 40
0.5110092654512127
 50
89.946422514691605
 51
96.9719557083384842
  0
LINE
  5
998D
  8
0
 10
3482.6411156137719445
 20
197.2545941236953979
 30
0.0
 11
3482.6696671621730275
 21
197.2528682481953126
 31
0.0
  0
LINE
  5
998E
  8
0
 10
3482.6696671621730275
 20
197.2528682481953126
 30
0.0
 11
3482.7311901160728667
 21
197.2534435672953066
 31
0.0
  0
LINE
  5
998F
  8
0
 10
3482.7311901160728667
 20
197.2534435672953066
 30
0.0
 11
3482.7311901160728667
 21
197.2554364366953052
 31
0.0
  0
LINE
  5
9990
  8
0
 10
3482.6411156137719445
 20
197.2545941236953979
 30
0.0
 11
3482.7311901160728667
 21
197.2554364366953052
 31
0.0
  0
LINE
  5
9991
  8
0
 10
3482.7351271238730988
 20
197.2532394311539008
 30
0.0
 11
3482.6726211780719495
 21
197.252689684795314
 31
0.0
  0
LINE
  5
9992
  8
0
 10
3482.6726211780719495
 20
197.252689684795314
 30
0.0
 11
3482.7047352030172078
 21
197.2507941061298027
 31
0.0
  0
LINE
  5
9993
  8
0
 10
3482.7047352030172078
 20
197.2507941061298027
 30
0.0
 11
3482.7351271238730988
 21
197.2510410377215067
 31
0.0
  0
LINE
  5
9994
  8
0
 10
3482.7351271238730988
 20
197.2508349383207076
 30
0.0
 11
3482.707102185705935
 21
197.250605387113211
 31
0.0
  0
LINE
  5
9995
  8
0
 10
3482.707102185705935
 20
197.250605387113211
 30
0.0
 11
3482.7248984773727898
 21
197.2495296421953128
 31
0.0
  0
LINE
  5
9996
  8
0
 10
3482.7248984773727898
 20
197.2495296421953128
 30
0.0
 11
3482.7351271238730988
 21
197.2495987337231043
 31
0.0
  0
ARC
  5
9997
  8
0
 10
3482.5685908536102033
 20
197.3562169038343939
 30
0.0
 40
0.1577434487658658
 50
187.7777142435683118
 51
223.297296221699014
  0
ARC
  5
9998
  8
0
 10
3482.7264834401798907
 20
190.4877602026083139
 30
0.0
 40
6.8584351667052443
 50
89.927790127915074
 51
92.1110630831606869
  0
ARC
  5
9999
  8
0
 10
3482.7152276571309812
 20
190.312184561942388
 30
0.0
 40
7.0351327009701352
 50
89.8379338346996263
 51
92.1124230132397344
  0
ARC
  5
999A
  8
0
 10
3482.4914668280462138
 20
196.8917292830639951
 30
0.0
 40
0.4501564435936902
 50
92.2439128005521809
 51
100.1291946366928016
  0
ARC
  5
999B
  8
0
 10
3482.5063351526341648
 20
196.4850117428879059
 30
0.0
 40
0.8590059224810568
 50
93.3652999938048538
 51
98.4023074546892218
  0
ARC
  5
999C
  8
0
 10
3482.4165222937967883
 20
197.4577251474798061
 30
0.0
 40
0.128008750762261
 50
253.8026809098059005
 51
268.4597274653110048
  0
ARC
  5
999D
  8
0
 10
3482.9852665290009099
 20
197.5108271600340117
 30
0.0
 40
0.6295620777358861
 50
191.4377823588218916
 51
196.2367236016322067
  0
ARC
  5
999E
  8
0
 10
3482.7600303094782248
 20
191.7903012922731989
 30
0.0
 40
5.6093827972495669
 50
90.2543688263679229
 51
94.0054511981872594
  0
ARC
  5
999F
  8
0
 10
3482.7047208425278768
 20
189.4713239468756001
 30
0.0
 40
7.9313334473864563
 50
89.7803451499454894
 51
92.6564566829043343
  0
ARC
  5
99A0
  8
0
 10
3482.3652926017862228
 20
196.8593301621766898
 30
0.0
 40
0.5355453830002076
 50
93.0149368097452509
 51
98.2291152701603494
  0
ARC
  5
99A1
  8
0
 10
3482.2929894768690247
 20
197.3662342552993039
 30
0.0
 40
0.0235327467510271
 50
100.6535340019902947
 51
120.2704964129771952
  0
ARC
  5
99A2
  8
0
 10
3482.3745494691370368
 20
197.8394364144716064
 30
0.0
 40
0.4624134708982132
 50
258.3441733965382241
 51
269.4465855247457853
  0
ARC
  5
99A3
  8
0
 10
3482.3102535054890723
 20
197.3450568571259112
 30
0.0
 40
0.0507023977188638
 50
94.4837930073080798
 51
125.0618050683213056
  0
ARC
  5
99A4
  8
0
 10
3482.7362868992709082
 20
192.5131478963807865
 30
0.0
 40
4.9013545003296279
 50
90.0135575250057371
 51
95.0330446396607442
  0
LINE
  5
99A5
  8
0
 10
3482.7351271238730988
 20
197.4145022594954071
 30
0.0
 11
3482.455295182701775
 21
197.4113315921044887
 31
0.0
  0
LINE
  5
99A6
  8
0
 10
3482.455295182701775
 20
197.4113315921044887
 30
0.0
 11
3482.3332373965390616
 21
197.4068032781798934
 31
0.0
  0
ARC
  5
99A7
  8
0
 10
3482.3396602814050311
 20
197.2336785521623028
 30
0.0
 40
0.1732438287751797
 50
92.1246849225827162
 51
103.0694398128427025
  0
ARC
  5
99A8
  8
0
 10
3482.3243900934180601
 20
197.2945108024860019
 30
0.0
 40
0.1105399178109558
 50
102.4896634905123989
 51
107.9147751483173039
  0
ARC
  5
99A9
  8
0
 10
3482.2917966127438376
 20
197.3952496182521941
 30
0.0
 40
0.0046596633663018
 50
107.5984161234836023
 51
155.8712639473311867
  0
LINE
  5
99AA
  8
0
 10
3482.2875440675729806
 20
197.3971544337954072
 30
0.0
 11
3482.2875440675729806
 21
197.3903891255880865
 31
0.0
  0
ARC
  5
99AB
  8
0
 10
3482.3073476140698403
 20
197.6259110163981063
 30
0.0
 40
0.2345694650692434
 50
259.5728098109107123
 51
265.1570342966049907
  0
ARC
  5
99AC
  8
0
 10
3482.2675885886019387
 20
197.409858630292689
 30
0.0
 40
0.014889211864701
 50
233.5837091766684921
 51
259.5728098109107123
  0
ARC
  5
99AD
  8
0
 10
3482.3336035270090179
 20
197.0809711467298087
 30
0.0
 40
0.3256261139282505
 50
90.9169583478587953
 51
103.2898178307429049
  0
ARC
  5
99B0
  8
0
 10
3482.6781816788820834
 20
196.8277894863643098
 30
0.0
 40
0.0903326124927109
 50
249.848816312259089
 51
260.7469523721031806
  0
ARC
  5
99B1
  8
0
 10
3482.6471566932500536
 20
196.7432438302517141
 30
0.0
 40
0.0002741997766401
 50
145.6095218789274099
 51
249.8488163121768082
  0
ARC
  5
99B2
  8
0
 10
3482.6488804681689544
 20
196.700015633035008
 30
0.0
 40
0.0434268781164884
 50
82.2920805785145149
 51
92.5736830969915161
  0
ARC
  5
99B3
  8
0
 10
3482.7386452500309133
 20
197.4212980463983058
 30
0.0
 40
0.6834224109787423
 50
262.9449255421786802
 51
269.7050511254493017
  0
ARC
  5
99B7
  8
0
 10
3482.7350905184289331
 20
197.1853173525020964
 30
0.0
 40
0.4723858074249655
 50
270.0044398823695246
 51
334.1001540600087196
  0
ARC
  5
99B8
  8
0
 10
3482.7352056632721542
 20
197.2476649610954098
 30
0.0
 40
0.4724562574999993
 50
269.9904753591571875
 51
335.6570340907193781
  0
LINE
  5
99B9
  8
0
 10
3483.2744972025720926
 20
197.4203348721954114
 30
0.0
 11
3482.7351271238730988
 21
197.4203348721954114
 31
0.0
  0
LINE
  5
99BA
  8
0
 10
3482.9929710843721296
 20
197.2484991451954102
 30
0.0
 11
3482.7351271238730988
 21
197.2484991451954102
 31
0.0
  0
ARC
  5
99BB
  8
0
 10
3482.746588982879075
 20
203.2824201646390918
 30
0.0
 40
6.0438933582963648
 50
269.8913421364023861
 51
271.8295286290160107
  0
ARC
  5
99BC
  8
0
 10
3482.7431263005792061
 20
190.7816562688107922
 30
0.0
 40
6.4765344875836552
 50
88.4499153008728172
 51
90.0707661145560508
  0
LINE
  5
99BD
  8
0
 10
3482.7390641316728761
 20
197.241355713495409
 30
0.0
 11
3482.7390641316728761
 21
197.2393631210954084
 31
0.0
  0
ARC
  5
99BE
  8
0
 10
3482.735743490877212
 20
204.3871903773483041
 30
0.0
 40
7.1478280275820048
 50
270.0266176954669959
 51
270.4688471907456915
  0
LINE
  5
99BF
  8
0
 10
3482.7942329942789002
 20
197.2396016587748022
 30
0.0
 11
3482.7794490371729808
 21
197.24152722029541
 31
0.0
  0
LINE
  5
99C0
  8
0
 10
3482.7794490371729808
 20
197.24152722029541
 30
0.0
 11
3482.7794490371729808
 21
197.24152722029541
 31
0.0
  0
LINE
  5
99C1
  8
0
 10
3482.7794490371729808
 20
197.24152722029541
 30
0.0
 11
3482.7390641316728761
 21
197.241355713495409
 31
0.0
  0
LINE
  5
99C2
  8
0
 10
3482.9268857262732126
 20
197.246284061895409
 30
0.0
 11
3482.9109491881717986
 21
197.2449777210954096
 31
0.0
  0
LINE
  5
99C3
  8
0
 10
3482.9109491881717986
 20
197.2449777210954096
 30
0.0
 11
3482.959623678087155
 21
197.2439969674038025
 31
0.0
  0
LINE
  5
99C4
  8
0
 10
3482.9556155681448217
 20
197.2437045126756061
 30
0.0
 11
3482.9070121802719768
 21
197.2447397379953884
 31
0.0
  0
LINE
  5
99C5
  8
0
 10
3482.9070121802719768
 20
197.2447397379953884
 30
0.0
 11
3482.8825638130729203
 21
197.243604904095406
 31
0.0
  0
LINE
  5
99C6
  8
0
 10
3482.8825638130729203
 20
197.243604904095406
 30
0.0
 11
3482.9229543350720633
 21
197.242195295195387
 31
0.0
  0
LINE
  5
99C7
  8
0
 10
3482.9118187940289317
 20
197.2418066704352952
 30
0.0
 11
3482.8714282731730236
 21
197.2432162792954102
 31
0.0
  0
LINE
  5
99C8
  8
0
 10
3482.8714282731730236
 20
197.2432162792954102
 30
0.0
 11
3482.832091974872128
 21
197.2422256439953969
 31
0.0
  0
LINE
  5
99C9
  8
0
 10
3482.832091974872128
 20
197.2422256439953969
 30
0.0
 11
3482.8674586528732107
 21
197.2406374080348996
 31
0.0
  0
LINE
  5
99CA
  8
0
 10
3482.8674586528732107
 20
197.2406374080348996
 30
0.0
 11
3482.9118187940289317
 21
197.2418066704352952
 31
0.0
  0
LINE
  5
99CB
  8
0
 10
3482.8606395547940338
 20
197.2405000084243056
 30
0.0
 11
3482.831670855547145
 21
197.2417967149220885
 31
0.0
  0
LINE
  5
99CC
  8
0
 10
3482.831670855547145
 20
197.2417967149220885
 30
0.0
 11
3482.7946604674721129
 21
197.241669466895388
 31
0.0
  0
LINE
  5
99CD
  8
0
 10
3482.7946604674721129
 20
197.241669466895388
 30
0.0
 11
3482.8094444245721206
 21
197.2397439052953985
 31
0.0
  0
LINE
  5
99CE
  8
0
 10
3482.8094444245721206
 20
197.2397439052953985
 30
0.0
 11
3482.8606395547940338
 21
197.2405000084243056
 31
0.0
  0
ARC
  5
99CF
  8
0
 10
3482.9076915304090107
 20
197.3250423986877991
 30
0.0
 40
0.0799831835016217
 50
268.6691362062447865
 51
286.1724865614365854
  0
LINE
  5
99D0
  8
0
 10
3482.9058338516729236
 20
197.2450807911953916
 30
0.0
 11
3482.856394225043914
 21
197.2460780733331092
 31
0.0
  0
ARC
  5
99D1
  8
0
 10
3482.8561501735512138
 20
197.312232441964909
 30
0.0
 40
0.0661548187980672
 50
270.2113701242424213
 51
284.6361323977308757
  0
LINE
  5
99D2
  8
0
 10
3482.872866144973159
 20
197.2482243459953963
 30
0.0
 11
3482.9299692417721417
 21
197.2482243459953963
 31
0.0
  0
LINE
  5
99D3
  8
0
 10
3482.7624035144731351
 20
197.2482243459953963
 30
0.0
 11
3482.7521748679728262
 21
197.2476060477953865
 31
0.0
  0
LINE
  5
99D4
  8
0
 10
3482.7521748679728262
 20
197.2476060477953865
 30
0.0
 11
3482.7699711596719681
 21
197.246530302895394
 31
0.0
  0
LINE
  5
99D5
  8
0
 10
3482.7699711596719681
 20
197.246530302895394
 30
0.0
 11
3482.7979960979728276
 21
197.2482243459953963
 31
0.0
  0
LINE
  5
99D6
  8
0
 10
3482.7979960979728276
 20
197.2482243459953963
 30
0.0
 11
3482.7624035144731351
 21
197.2482243459953963
 31
0.0
  0
LINE
  5
99D7
  8
0
 10
3482.8669581131721316
 20
197.2482243459953963
 30
0.0
 11
3482.8039121836732193
 21
197.2482243459953963
 31
0.0
  0
ARC
  5
99D8
  8
0
 10
3482.7722675014151719
 20
197.5145138244789962
 30
0.0
 40
0.2681631448693593
 50
270.1413793168225084
 51
276.7769988480926031
  0
LINE
  5
99D9
  8
0
 10
3482.772929202575142
 20
197.2463514959952988
 30
0.0
 11
3482.8044521673728013
 21
197.2444460051954138
 31
0.0
  0
ARC
  5
99DA
  8
0
 10
3482.8049300138668514
 20
197.7554550472285939
 30
0.0
 40
0.5110092654512127
 50
269.9464225147436878
 51
276.9719557083910786
  0
LINE
  5
99DB
  8
0
 10
3482.8291386339728888
 20
197.242404166695394
 30
0.0
 11
3482.80058708557317
 21
197.244130042195394
 31
0.0
  0
LINE
  5
99DC
  8
0
 10
3482.80058708557317
 20
197.244130042195394
 30
0.0
 11
3482.7390641316728761
 21
197.2435547230954
 31
0.0
  0
LINE
  5
99DD
  8
0
 10
3482.7390641316728761
 20
197.2435547230954
 30
0.0
 11
3482.7390641316728761
 21
197.2415618536954014
 31
0.0
  0
LINE
  5
99DE
  8
0
 10
3482.8291386339728888
 20
197.242404166695394
 30
0.0
 11
3482.7390641316728761
 21
197.2415618536954014
 31
0.0
  0
LINE
  5
99DF
  8
0
 10
3482.7351271238730988
 20
197.2437588592368058
 30
0.0
 11
3482.7976330696728837
 21
197.2443086055953927
 31
0.0
  0
LINE
  5
99E0
  8
0
 10
3482.7976330696728837
 20
197.2443086055953927
 30
0.0
 11
3482.7655190447280802
 21
197.246204184260904
 31
0.0
  0
LINE
  5
99E1
  8
0
 10
3482.7655190447280802
 20
197.246204184260904
 30
0.0
 11
3482.7351271238730988
 21
197.2459572526692
 31
0.0
  0
LINE
  5
99E2
  8
0
 10
3482.7351271238730988
 20
197.2461633520699991
 30
0.0
 11
3482.7631520620388983
 21
197.2463929032774956
 31
0.0
  0
LINE
  5
99E3
  8
0
 10
3482.7631520620388983
 20
197.2463929032774956
 30
0.0
 11
3482.7453557703720435
 21
197.2474686481953938
 31
0.0
  0
LINE
  5
99E4
  8
0
 10
3482.7453557703720435
 20
197.2474686481953938
 30
0.0
 11
3482.7351271238730988
 21
197.2473995566676024
 31
0.0
  0
LINE
  5
99E5
  8
0
 10
3482.7390641316728761
 20
197.2556425768952977
 30
0.0
 11
3482.7390641316728761
 21
197.2576351692952983
 31
0.0
  0
ARC
  5
99E6
  8
0
 10
3482.7357434908849427
 20
190.1098079130424026
 30
0.0
 40
7.1478280275820048
 50
89.531152809332383
 51
89.9733823045851011
  0
LINE
  5
99E7
  8
0
 10
3482.7942329942789002
 20
197.2573966316159044
 30
0.0
 11
3482.7794490371729808
 21
197.2554710700952967
 31
0.0
  0
LINE
  5
99E8
  8
0
 10
3482.7794490371729808
 20
197.2554710700952967
 30
0.0
 11
3482.7794490371729808
 21
197.2554710700952967
 31
0.0
  0
LINE
  5
99E9
  8
0
 10
3482.7794490371729808
 20
197.2554710700952967
 30
0.0
 11
3482.7390641316728761
 21
197.2556425768952977
 31
0.0
  0
LINE
  5
99EA
  8
0
 10
3482.9268857262732126
 20
197.2507142284954966
 30
0.0
 11
3482.9109491881717986
 21
197.252020569295496
 31
0.0
  0
LINE
  5
99EB
  8
0
 10
3482.9109491881717986
 20
197.252020569295496
 30
0.0
 11
3482.959623678087155
 21
197.2530013229871031
 31
0.0
  0
LINE
  5
99EC
  8
0
 10
3482.9556155681448217
 20
197.2532937777154132
 30
0.0
 11
3482.9070121802719768
 21
197.2522585523954035
 31
0.0
  0
LINE
  5
99ED
  8
0
 10
3482.9070121802719768
 20
197.2522585523954035
 30
0.0
 11
3482.8825638130729203
 21
197.2533933862953859
 31
0.0
  0
LINE
  5
99EE
  8
0
 10
3482.8825638130729203
 20
197.2533933862953859
 30
0.0
 11
3482.9229543350720633
 21
197.2548029951954902
 31
0.0
  0
LINE
  5
99EF
  8
0
 10
3482.9118187940289317
 20
197.2551916199556103
 30
0.0
 11
3482.8714282731730236
 21
197.2537820110954101
 31
0.0
  0
LINE
  5
99F0
  8
0
 10
3482.8714282731730236
 20
197.2537820110954101
 30
0.0
 11
3482.832091974872128
 21
197.254772646395395
 31
0.0
  0
LINE
  5
99F1
  8
0
 10
3482.832091974872128
 20
197.254772646395395
 30
0.0
 11
3482.8674586528732107
 21
197.2563608823558923
 31
0.0
  0
LINE
  5
99F2
  8
0
 10
3482.8674586528732107
 20
197.2563608823558923
 30
0.0
 11
3482.9118187940289317
 21
197.2551916199556103
 31
0.0
  0
LINE
  5
99F3
  8
0
 10
3482.8606395547940338
 20
197.2564982819664863
 30
0.0
 11
3482.831670855547145
 21
197.2552015754687034
 31
0.0
  0
LINE
  5
99F4
  8
0
 10
3482.831670855547145
 20
197.2552015754687034
 30
0.0
 11
3482.7946604674721129
 21
197.2553288234952902
 31
0.0
  0
LINE
  5
99F5
  8
0
 10
3482.7946604674721129
 20
197.2553288234952902
 30
0.0
 11
3482.8094444245721206
 21
197.2572543850953082
 31
0.0
  0
LINE
  5
99F6
  8
0
 10
3482.8094444245721206
 20
197.2572543850953082
 30
0.0
 11
3482.8606395547940338
 21
197.2564982819664863
 31
0.0
  0
ARC
  5
99F7
  8
0
 10
3482.9076915304090107
 20
197.1719558917031065
 30
0.0
 40
0.0799831835016217
 50
73.8275134386184817
 51
91.3308637938073247
  0
LINE
  5
99F8
  8
0
 10
3482.9058338516729236
 20
197.2519174991954003
 30
0.0
 11
3482.856394225043914
 21
197.2509202170577112
 31
0.0
  0
ARC
  5
99F9
  8
0
 10
3482.8561501735512138
 20
197.1847658484259114
 30
0.0
 40
0.0661548187980672
 50
75.3638676023232392
 51
89.788629875835781
  0
LINE
  5
99FA
  8
0
 10
3482.872866144973159
 20
197.2487739443953956
 30
0.0
 11
3482.9299692417721417
 21
197.2487739443955093
 31
0.0
  0
LINE
  5
99FB
  8
0
 10
3482.7624035144731351
 20
197.2487739443953103
 30
0.0
 11
3482.7521748679728262
 21
197.2493922425952917
 31
0.0
  0
LINE
  5
99FC
  8
0
 10
3482.7521748679728262
 20
197.2493922425952917
 30
0.0
 11
3482.7699711596719681
 21
197.2504679874953126
 31
0.0
  0
LINE
  5
99FD
  8
0
 10
3482.7699711596719681
 20
197.2504679874953126
 30
0.0
 11
3482.7979960979728276
 21
197.2487739443953103
 31
0.0
  0
LINE
  5
99FE
  8
0
 10
3482.7979960979728276
 20
197.2487739443953103
 30
0.0
 11
3482.7624035144731351
 21
197.2487739443953103
 31
0.0
  0
LINE
  5
99FF
  8
0
 10
3482.8669581131721316
 20
197.2487739443953956
 30
0.0
 11
3482.8039121836732193
 21
197.2487739443953103
 31
0.0
  0
ARC
  5
9A00
  8
0
 10
3482.7722675014151719
 20
196.9824844659117105
 30
0.0
 40
0.2681631448693593
 50
83.2230011519859829
 51
89.8586206832296455
  0
LINE
  5
9A01
  8
0
 10
3482.772929202575142
 20
197.2506467943954078
 30
0.0
 11
3482.8044521673728013
 21
197.2525522851952928
 31
0.0
  0
ARC
  5
9A02
  8
0
 10
3482.8049300138668514
 20
196.7415432431621127
 30
0.0
 40
0.5110092654512127
 50
83.0280442916615442
 51
90.053577485308395
  0
LINE
  5
9A03
  8
0
 10
3482.8291386339728888
 20
197.2545941236953979
 30
0.0
 11
3482.80058708557317
 21
197.2528682481953126
 31
0.0
  0
LINE
  5
9A04
  8
0
 10
3482.80058708557317
 20
197.2528682481953126
 30
0.0
 11
3482.7390641316728761
 21
197.2534435672953066
 31
0.0
  0
LINE
  5
9A05
  8
0
 10
3482.7390641316728761
 20
197.2534435672953066
 30
0.0
 11
3482.7390641316728761
 21
197.2554364366953052
 31
0.0
  0
LINE
  5
9A06
  8
0
 10
3482.8291386339728888
 20
197.2545941236953979
 30
0.0
 11
3482.7390641316728761
 21
197.2554364366953052
 31
0.0
  0
LINE
  5
9A07
  8
0
 10
3482.7351271238730988
 20
197.2532394311539008
 30
0.0
 11
3482.7976330696728837
 21
197.252689684795314
 31
0.0
  0
LINE
  5
9A08
  8
0
 10
3482.7976330696728837
 20
197.252689684795314
 30
0.0
 11
3482.7655190447280802
 21
197.2507941061298027
 31
0.0
  0
LINE
  5
9A09
  8
0
 10
3482.7655190447280802
 20
197.2507941061298027
 30
0.0
 11
3482.7351271238730988
 21
197.2510410377215067
 31
0.0
  0
LINE
  5
9A0A
  8
0
 10
3482.7351271238730988
 20
197.2508349383207076
 30
0.0
 11
3482.7631520620388983
 21
197.250605387113211
 31
0.0
  0
LINE
  5
9A0B
  8
0
 10
3482.7631520620388983
 20
197.250605387113211
 30
0.0
 11
3482.7453557703720435
 21
197.2495296421953128
 31
0.0
  0
LINE
  5
9A0C
  8
0
 10
3482.7453557703720435
 20
197.2495296421953128
 30
0.0
 11
3482.7351271238730988
 21
197.2495987337231043
 31
0.0
  0
ARC
  5
9A0D
  8
0
 10
3482.7437708075649425
 20
190.4877602026083139
 30
0.0
 40
6.8584351667052443
 50
87.8889369168392847
 51
90.072209872084926
  0
ARC
  5
9A0E
  8
0
 10
3482.7550265906152163
 20
190.312184561942388
 30
0.0
 40
7.0351327009701352
 50
87.8875769867602656
 51
90.1620661653003737
  0
ARC
  5
9A0F
  8
0
 10
3482.7386726364397873
 20
192.5552347544497991
 30
0.0
 40
4.8443953526640806
 50
85.698246378028017
 51
90.0419335974189039
  0
ARC
  5
9A10
  8
0
 10
3482.7655334052169565
 20
189.4713239468756001
 30
0.0
 40
7.9313334473864563
 50
87.3435433170956941
 51
90.2196548500544964
  0
ARC
  5
9A11
  8
0
 10
3482.7339673484739251
 20
192.5131478963807865
 30
0.0
 40
4.9013545003296279
 50
84.96695536033927
 51
89.9864424749942913
  0
LINE
  5
9A12
  8
0
 10
3482.7351271238730988
 20
197.4145022594954071
 30
0.0
 11
3483.0149590650430582
 21
197.4113315921044887
 31
0.0
  0
ARC
  5
9A14
  8
0
 10
3482.7920725688632047
 20
196.8277894863643098
 30
0.0
 40
0.0903326124927109
 50
279.2530476278967058
 51
290.1511836877407973
  0
ARC
  5
9A15
  8
0
 10
3482.8230975544947796
 20
196.7432438302517141
 30
0.0
 40
0.0002741997766401
 50
290.1511836878232202
 51
34.390478121073869
  0
ARC
  5
9A16
  8
0
 10
3482.8213737795758789
 20
196.700015633035008
 30
0.0
 40
0.0434268781164884
 50
87.4263169030085265
 51
97.7079194214854994
  0
ARC
  5
9A17
  8
0
 10
3482.73160899771392
 20
197.4212980463983058
 30
0.0
 40
0.6834224109787423
 50
270.2949488745506983
 51
277.0550744578213198
  0
ARC
  5
9A1B
  8
0
 10
3482.7351271238730988
 20
197.1849489750954092
 30
0.0
 40
0.9842519685000002
 50
134.426903440346706
 51
45.5730965596533011
  0
ARC
  5
9A1C
  8
0
 10
3482.7351271238730988
 20
197.1849489750954092
 30
0.0
 40
0.9842519685000002
 50
52.9155657304345723
 51
127.0844342695654063
  0
ARC
  5
9A1E
  8
0
 10
3483.3456550540831813
 20
196.9082197779719081
 30
0.0
 40
0.1986550415740534
 50
90.3336802110122363
 51
159.1333548809022886
  0
LINE
  5
9A1F
  8
0
 10
3483.3444981297498089
 20
197.1068714506778861
 30
0.0
 11
3483.3926074387732115
 21
197.1068726644149081
 31
0.0
  0
ARC
  5
9A20
  8
0
 10
3483.3926112272720275
 20
197.1383637051910114
 30
0.0
 40
0.0314910410040825
 50
269.9931070864336107
 51
359.9950855582949885
  0
LINE
  5
9A21
  8
0
 10
3483.4241022681599134
 20
197.1383610041040129
 30
0.0
 11
3483.4241022681599134
 21
197.9355813456953967
 31
0.0
  0
ARC
  5
9A22
  8
0
 10
3483.3923852122111384
 20
197.9356964908280929
 30
0.0
 40
0.031717264959724
 50
359.7919946467944783
 51
76.8711968936288343
  0
ARC
  5
9A23
  8
0
 10
3483.2608748962529717
 20
195.904153323734505
 30
0.0
 40
2.067090959330474
 50
86.1522067626328152
 51
89.622413176668843
  0
ARC
  5
9A24
  8
0
 10
3483.3450501658649046
 20
196.9717588700729038
 30
0.0
 40
0.1968975266866545
 50
90.0012818912083787
 51
155.6570340907209129
  0
LINE
  5
9A25
  8
0
 10
3483.3450457606318196
 20
197.1686563967103041
 30
0.0
 11
3483.4241022681599134
 21
197.1686581654591066
 31
0.0
  0
ARC
  5
9A26
  8
0
 10
3483.3927827070319836
 20
197.4476291864903033
 30
0.0
 40
0.0313196204545657
 50
269.6182996067889235
 51
359.8884798071094906
  0
ARC
  5
9A27
  8
0
 10
3483.2929024961158575
 20
196.2261992364103946
 30
0.0
 40
1.194277468380796
 50
85.2126617611703239
 51
90.883033814716768
  0
ARC
  5
9A28
  8
0
 10
3482.9391600510111857
 20
197.7094830751852044
 30
0.0
 40
0.4678754890029837
 50
270.0472081145318271
 51
279.5109393129584987
  0
ARC
  5
9A29
  8
0
 10
3483.0117084778548815
 20
197.2435546635720129
 30
0.0
 40
0.006540640961408
 50
43.2833196032869481
 51
84.1094975684990231
  0
ARC
  5
9A2A
  8
0
 10
3482.9085711926591102
 20
196.3257533086083981
 30
0.0
 40
0.9301185372277886
 50
83.591990270819764
 51
89.3993576536353345
  0
ARC
  5
9A2B
  8
0
 10
3482.9016633941350847
 20
197.3562169038343939
 30
0.0
 40
0.1577434487658658
 50
316.702703778300986
 51
352.2222857564315746
  0
ARC
  5
9A2C
  8
0
 10
3482.9639190951111232
 20
196.4850117428879059
 30
0.0
 40
0.8590059224810568
 50
81.5976925453108066
 51
86.634700006195132
  0
ARC
  5
9A2D
  8
0
 10
3483.053731953948045
 20
197.4577251474798061
 30
0.0
 40
0.128008750762261
 50
271.5402725346891089
 51
286.197319090194128
  0
ARC
  5
9A2E
  8
0
 10
3482.4849877187439233
 20
197.5108271600340117
 30
0.0
 40
0.6295620777358861
 50
343.7632763983676796
 51
348.5622176411779947
  0
ARC
  5
9A2F
  8
0
 10
3483.1049616459599747
 20
196.8593301621766898
 30
0.0
 40
0.5355453830002076
 50
81.7708847298396648
 51
86.9850631902547349
  0
ARC
  5
9A30
  8
0
 10
3483.1749405995237794
 20
197.3600053910008967
 30
0.0
 40
0.0301052250335085
 50
61.8855234808381667
 51
77.1904461006561178
  0
ARC
  5
9A31
  8
0
 10
3483.095704778606887
 20
197.8394364144915016
 30
0.0
 40
0.4624134709181328
 50
270.5534144753431178
 51
281.6558266031292987
  0
ARC
  5
9A32
  8
0
 10
3483.1600007422548515
 20
197.3450568571259112
 30
0.0
 40
0.0507023977188638
 50
54.9381949316786375
 51
85.516206992691906
  0
LINE
  5
9A33
  8
0
 10
3483.0149590650430582
 20
197.4113315921044887
 30
0.0
 11
3483.1370168512062264
 21
197.4068032781798934
 31
0.0
  0
ARC
  5
9A34
  8
0
 10
3483.1305939663398021
 20
197.2336785521623028
 30
0.0
 40
0.1732438287751797
 50
76.9305601871572833
 51
87.8753150774172838
  0
ARC
  5
9A35
  8
0
 10
3483.1458641543267731
 20
197.2945108024860019
 30
0.0
 40
0.1105399178109558
 50
72.0852248516827103
 51
77.5103365094875869
  0
ARC
  5
9A36
  8
0
 10
3483.1784576350009957
 20
197.3952496182521941
 30
0.0
 40
0.0046596633663018
 50
24.1287360526688097
 51
72.4015838765163693
  0
LINE
  5
9A37
  8
0
 10
3483.1827101801718527
 20
197.3971544337954072
 30
0.0
 11
3483.1827101801718527
 21
197.3903891255880865
 31
0.0
  0
ARC
  5
9A38
  8
0
 10
3483.1629066336749929
 20
197.6259110163981063
 30
0.0
 40
0.2345694650692434
 50
274.8429657033950093
 51
280.4271901890892877
  0
ARC
  5
9A39
  8
0
 10
3483.2026656591428946
 20
197.409858630292689
 30
0.0
 40
0.014889211864701
 50
280.4271901890892877
 51
306.4162908233315079
  0
ARC
  5
9A3A
  8
0
 10
3483.1366507207358154
 20
197.0809711467298087
 30
0.0
 40
0.3256261139282505
 50
76.7101821692570525
 51
89.0830416521412047
  0
ARC
  5
9A3B
  8
0
 10
3482.9787874196981647
 20
196.8917292830639951
 30
0.0
 40
0.4501564435936902
 50
79.87080536330717
 51
87.7560871994478333
  0
ARC
  5
9A3C
  8
0
 10
3482.9856253268130786
 20
197.259602528566802
 30
0.0
 40
0.0133133495568216
 50
272.1987029575118981
 51
303.4877567511554162
  0
LINE
  5
9A3D
  8
0
 10
3482.9861360959730519
 20
197.2462989804953963
 30
0.0
 11
3482.9309616167720378
 21
197.2468149330954077
 31
0.0
  0
ARC
  5
9A3E
  8
0
 10
3482.9278688516001239
 20
197.2628148238169956
 30
0.0
 40
0.0162960639269226
 50
280.9402970433416726
 51
298.5410979267176117
  0
LINE
  5
9A3F
  8
0
 10
3482.9802946801851249
 20
197.2457846191389876
 30
0.0
 11
3482.9268857262732126
 21
197.246284061895409
 31
0.0
  0
LINE
  5
9A40
  8
0
 10
3482.9109491881717986
 20
197.2449777210954096
 30
0.0
 11
3482.959623678087155
 21
197.2439969674038025
 31
0.0
  0
LINE
  5
9A41
  8
0
 10
3482.959623678087155
 20
197.2439969674038025
 30
0.0
 11
3482.9802946801851249
 21
197.2457846191389876
 31
0.0
  0
LINE
  5
9A42
  8
0
 10
3482.9229543350720633
 20
197.242195295195387
 30
0.0
 11
3482.9556155681448217
 21
197.2437045126756061
 31
0.0
  0
ARC
  5
9A43
  8
0
 10
3482.9856253268130786
 20
197.2373957618241889
 30
0.0
 40
0.0133133495568216
 50
56.5122432489069126
 51
87.8012970425662758
  0
LINE
  5
9A44
  8
0
 10
3482.9861360959730519
 20
197.2506993098955093
 30
0.0
 11
3482.9309616167720378
 21
197.2501833572954979
 31
0.0
  0
ARC
  5
9A45
  8
0
 10
3482.9278688516001239
 20
197.23418346657391
 30
0.0
 40
0.0162960639269226
 50
61.4589020733422231
 51
79.0597029567372402
  0
LINE
  5
9A46
  8
0
 10
3482.9802946801851249
 20
197.2512136712520032
 30
0.0
 11
3482.9268857262732126
 21
197.2507142284954966
 31
0.0
  0
LINE
  5
9A47
  8
0
 10
3482.959623678087155
 20
197.2530013229871031
 30
0.0
 11
3482.9802946801851249
 21
197.2512136712520032
 31
0.0
  0
LINE
  5
9A48
  8
0
 10
3482.9229543350720633
 20
197.2548029951954902
 30
0.0
 11
3482.9556155681448217
 21
197.2532937777154132
 31
0.0
  0
LINE
  5
9A49
  8
0
 10
3477.853233277873187
 20
197.438129314306309
 30
0.0
 11
3477.853233277873187
 21
196.9317686358845094
 31
0.0
  0
CIRCLE
  5
9A4A
  8
0
 10
3478.7981151676731315
 20
197.1849489750954092
 30
0.0
 40
0.9251968504000014
  0
LINE
  5
9A4B
  8
0
 10
3478.5449348281122184
 20
198.1298308647953945
 30
0.0
 11
3479.0512955072331351
 21
198.1298308647953945
 31
0.0
  0
LINE
  5
9A4C
  8
0
 10
3478.5449348282850224
 20
196.2400670852954079
 30
0.0
 11
3479.0512955070598764
 21
196.2400670852954079
 31
0.0
  0
LINE
  5
9A4D
  8
0
 10
3478.106413617202179
 20
196.4932474246288052
 30
0.0
 11
3477.853233277873187
 21
196.9317686358845094
 31
0.0
  0
LINE
  5
9A4E
  8
0
 10
3478.106413617202179
 20
196.4932474246288052
 30
0.0
 11
3478.5449348282850224
 21
196.2400670852954079
 31
0.0
  0
LINE
  5
9A4F
  8
0
 10
3478.106413617202179
 20
197.8766505255620132
 30
0.0
 11
3477.853233277873187
 21
197.438129314306309
 31
0.0
  0
LINE
  5
9A50
  8
0
 10
3478.106413617202179
 20
197.8766505255620132
 30
0.0
 11
3478.5449348282850224
 21
198.1298308648954105
 31
0.0
  0
LINE
  5
9A51
  8
0
 10
3479.742997057473076
 20
197.438129314306309
 30
0.0
 11
3479.742997057473076
 21
196.9317686358845094
 31
0.0
  0
LINE
  5
9A52
  8
0
 10
3479.4898167181431745
 20
196.4932474246288052
 30
0.0
 11
3479.742997057473076
 21
196.9317686358845094
 31
0.0
  0
LINE
  5
9A53
  8
0
 10
3479.4898167181431745
 20
196.4932474246288052
 30
0.0
 11
3479.0512955070598764
 21
196.2400670852954079
 31
0.0
  0
LINE
  5
9A54
  8
0
 10
3479.4898167181431745
 20
197.8766505255620132
 30
0.0
 11
3479.742997057473076
 21
197.438129314306309
 31
0.0
  0
LINE
  5
9A55
  8
0
 10
3479.4898167181431745
 20
197.8766505255620132
 30
0.0
 11
3479.0512955070598764
 21
198.1298308648954105
 31
0.0
  0
LINE
  5
9A56
  8
0
 10
3487.617020969872101
 20
197.438129314306309
 30
0.0
 11
3487.617020969872101
 21
196.9317686358845094
 31
0.0
  0
CIRCLE
  5
9A57
  8
0
 10
3486.6721390800721565
 20
197.1849489750954092
 30
0.0
 40
0.9251968504000014
  0
LINE
  5
9A58
  8
0
 10
3486.9253194196330696
 20
198.1298308647953945
 30
0.0
 11
3486.4189587405107886
 21
198.1298308647953945
 31
0.0
  0
LINE
  5
9A59
  8
0
 10
3486.9253194194589014
 20
196.2400670852954079
 30
0.0
 11
3486.4189587406849569
 21
196.2400670852954079
 31
0.0
  0
LINE
  5
9A5A
  8
0
 10
3487.363840630543109
 20
196.4932474246288052
 30
0.0
 11
3487.617020969872101
 21
196.9317686358845094
 31
0.0
  0
LINE
  5
9A5B
  8
0
 10
3487.363840630543109
 20
196.4932474246288052
 30
0.0
 11
3486.9253194194589014
 21
196.2400670852954079
 31
0.0
  0
LINE
  5
9A5C
  8
0
 10
3487.363840630543109
 20
197.8766505255620132
 30
0.0
 11
3487.617020969872101
 21
197.438129314306309
 31
0.0
  0
LINE
  5
9A5D
  8
0
 10
3487.363840630543109
 20
197.8766505255620132
 30
0.0
 11
3486.9253194194589014
 21
198.1298308648954105
 31
0.0
  0
LINE
  5
9A5E
  8
0
 10
3485.7272571902731215
 20
197.438129314306309
 30
0.0
 11
3485.7272571902731215
 21
196.9317686358845094
 31
0.0
  0
LINE
  5
9A5F
  8
0
 10
3485.980437529601204
 20
196.4932474246288052
 30
0.0
 11
3485.7272571902731215
 21
196.9317686358845094
 31
0.0
  0
LINE
  5
9A60
  8
0
 10
3485.980437529601204
 20
196.4932474246288052
 30
0.0
 11
3486.4189587406849569
 21
196.2400670852954079
 31
0.0
  0
LINE
  5
9A61
  8
0
 10
3485.980437529601204
 20
197.8766505255620132
 30
0.0
 11
3485.7272571902731215
 21
197.438129314306309
 31
0.0
  0
LINE
  5
9A62
  8
0
 10
3485.980437529601204
 20
197.8766505255620132
 30
0.0
 11
3486.4189587406849569
 21
198.1298308648954105
 31
0.0
  0
ARC
  5
9A63
  8
0
 10
3482.7362926678129043
 20
197.3498667232350101
 30
0.0
 40
0.6155351447274605
 50
263.223039108269802
 51
269.8915077569603227
  0
ARC
  5
9A64
  8
0
 10
3482.7339615799310195
 20
197.3498667232229025
 30
0.0
 40
0.61553514471545
 50
270.1084922431264772
 51
276.7769608919472262
  0
ENDSEC
  0
EOF
