  0
SECTION
  2
HEADER
  9
$ACADVER
  1
AC1009
  9
$INSBASE
 10
663.302398406439579
 20
118.1509456849083932
 30
0.0
  9
$EXTMIN
 10
660.7711464960832473
 20
116.5030306680692007
 30
-0.000000000000013
  9
$EXTMAX
 10
669.8657797265385625
 20
119.7946716896006052
 30
0.0000000000000023
  9
$LIMMIN
 10
0.0
 20
0.0
  9
$LIMMAX
 10
11.6929133858000007
 20
8.2677165353999982
  9
$ORTHOMODE
 70
     0
  9
$REGENMODE
 70
     1
  9
$FILLMODE
 70
     1
  9
$QTEXTMODE
 70
     0
  9
$MIRRTEXT
 70
     0
  9
$DRAGMODE
 70
     2
  9
$LTSCALE
 40
0.6431102362
  9
$OSMODE
 70
  4095
  9
$ATTMODE
 70
     1
  9
$TEXTSIZE
 40
0.2
  9
$TRACEWID
 40
0.05
  9
$TEXTSTYLE
  7
STANDARD
  9
$CLAYER
  8
0
  9
$CELTYPE
  6
BYLAYER
  9
$CECOLOR
 62
   256
  9
$DIMSCALE
 40
1.0
  9
$DIMASZ
 40
0.1875
  9
$DIMEXO
 40
0.0625
  9
$DIMDLI
 40
0.4443307087
  9
$DIMRND
 40
0.0
  9
$DIMDLE
 40
0.0
  9
$DIMEXE
 40
0.125
  9
$DIMTP
 40
0.01
  9
$DIMTM
 40
0.01
  9
$DIMTXT
 40
1.0
  9
$DIMCEN
 40
0.1052362205
  9
$DIMTSZ
 40
0.0
  9
$DIMTOL
 70
     1
  9
$DIMLIM
 70
     0
  9
$DIMTIH
 70
     0
  9
$DIMTOH
 70
     1
  9
$DIMSE1
 70
     0
  9
$DIMSE2
 70
     0
  9
$DIMTAD
 70
     0
  9
$DIMZIN
 70
     0
  9
$DIMBLK
  1

  9
$DIMASO
 70
     1
  9
$DIMSHO
 70
     1
  9
$DIMPOST
  1
\X
  9
$DIMAPOST
  1

  9
$DIMALT
 70
     1
  9
$DIMALTD
 70
     2
  9
$DIMALTF
 40
25.3999999999999986
  9
$DIMLFAC
 40
1.0
  9
$DIMTOFL
 70
     0
  9
$DIMTVP
 40
0.0
  9
$DIMTIX
 70
     0
  9
$DIMSOXD
 70
     0
  9
$DIMSAH
 70
     0
  9
$DIMBLK1
  1

  9
$DIMBLK2
  1

  9
$DIMSTYLE
  2
STANDARD
  9
$DIMCLRD
 70
     0
  9
$DIMCLRE
 70
     0
  9
$DIMCLRT
 70
     0
  9
$DIMTFAC
 40
1.0
  9
$DIMGAP
 40
0.09
  9
$LUNITS
 70
     2
  9
$LUPREC
 70
     4
  9
$SKETCHINC
 40
0.1
  9
$FILLETRAD
 40
0.02
  9
$AUNITS
 70
     0
  9
$AUPREC
 70
     0
  9
$MENU
  1
.
  9
$ELEVATION
 40
0.0
  9
$PELEVATION
 40
0.0
  9
$THICKNESS
 40
0.0
  9
$LIMCHECK
 70
     0
  9
$BLIPMODE
 70
     0
  9
$CHAMFERA
 40
0.0
  9
$CHAMFERB
 40
0.0
  9
$SKPOLY
 70
     0
  9
$TDCREATE
 40
2458172.5207638889551163
  9
$TDUPDATE
 40
2459101.6285185180604458
  9
$TDINDWG
 40
0.3836696991
  9
$TDUSRTIMER
 40
0.3836696991
  9
$USRTIMER
 70
     1
  9
$ANGBASE
 50
0.0
  9
$ANGDIR
 70
     0
  9
$PDMODE
 70
     0
  9
$PDSIZE
 40
0.3125
  9
$PLINEWID
 40
0.0
  9
$COORDS
 70
     1
  9
$SPLFRAME
 70
     0
  9
$SPLINETYPE
 70
     6
  9
$SPLINESEGS
 70
     8
  9
$ATTDIA
 70
     1
  9
$ATTREQ
 70
     1
  9
$HANDLING
 70
     1
  9
$HANDSEED
  5
AFAD
  9
$SURFTAB1
 70
     6
  9
$SURFTAB2
 70
     6
  9
$SURFTYPE
 70
     6
  9
$SURFU
 70
     6
  9
$SURFV
 70
     6
  9
$UCSNAME
  2

  9
$UCSORG
 10
0.0
 20
0.0
 30
0.0
  9
$UCSXDIR
 10
1.0
 20
0.0
 30
0.0
  9
$UCSYDIR
 10
0.0
 20
1.0
 30
0.0
  9
$PUCSNAME
  2

  9
$PUCSORG
 10
0.0
 20
0.0
 30
0.0
  9
$PUCSXDIR
 10
1.0
 20
0.0
 30
0.0
  9
$PUCSYDIR
 10
0.0
 20
1.0
 30
0.0
  9
$USERI1
 70
     0
  9
$USERI2
 70
     0
  9
$USERI3
 70
     0
  9
$USERI4
 70
     0
  9
$USERI5
 70
     0
  9
$USERR1
 40
0.0
  9
$USERR2
 40
0.0
  9
$USERR3
 40
0.0
  9
$USERR4
 40
0.0
  9
$USERR5
 40
0.0
  9
$WORLDVIEW
 70
     1
  9
$SHADEDGE
 70
     3
  9
$SHADEDIF
 70
    70
  9
$TILEMODE
 70
     1
  9
$MAXACTVP
 70
    64
  9
$PLIMCHECK
 70
     0
  9
$PEXTMIN
 10
1.0000000000000000E+20
 20
1.0000000000000000E+20
 30
1.0000000000000000E+20
  9
$PEXTMAX
 10
-1.0000000000000000E+20
 20
-1.0000000000000000E+20
 30
-1.0000000000000000E+20
  9
$PLIMMIN
 10
0.0
 20
0.0
  9
$PLIMMAX
 10
12.0
 20
9.0
  9
$UNITMODE
 70
     0
  9
$VISRETAIN
 70
     1
  9
$PLINEGEN
 70
     0
  9
$PSLTSCALE
 70
     1
  0
ENDSEC
  0
SECTION
  2
TABLES
  0
TABLE
  2
VPORT
 70
     1
  0
VPORT
  2
*ACTIVE
 70
     0
 10
0.0
 20
0.0
 11
1.0
 21
1.0
 12
198.5762614034809133
 22
29.0157040589051007
 13
0.0
 23
0.0
 14
1.0
 24
1.0
 15
0.0
 25
0.0
 16
0.0
 26
0.0
 36
24.1179433675886514
 17
466.74220170783002
 27
89.133147119929788
 37
0.0
 40
4.5500558663924124
 41
2.005224660397074
 42
50.0
 43
0.0
 44
0.0
 50
0.0
 51
0.0
 71
     0
 72
   100
 73
     1
 74
     1
 75
     0
 76
     0
 77
     0
 78
     0
  0
ENDTAB
  0
TABLE
  2
LTYPE
 70
     2
  0
LTYPE
  2
CONTINUOUS
 70
     0
  3
Solid line
 72
    65
 73
     0
 40
0.0
  0
LTYPE
  2
PHANTOM2
 70
     0
  3
___ _ _ ___ _ _ ___ _ _ ___ _ _
 72
    65
 73
     6
 40
1.25
 49
0.625
 49
-0.125
 49
0.125
 49
-0.125
 49
0.125
 49
-0.125
  0
ENDTAB
  0
TABLE
  2
LAYER
 70
     2
  0
LAYER
  2
0
 70
     0
 62
   255
  6
CONTINUOUS
  0
LAYER
  2
DEFPOINTS
 70
     0
 62
     7
  6
CONTINUOUS
  0
ENDTAB
  0
TABLE
  2
STYLE
 70
     1
  0
STYLE
  2
STANDARD
 70
     0
 40
0.0
 41
0.8
 50
0.0
 71
     0
 42
0.2
  3
txt
  4

  0
ENDTAB
  0
TABLE
  2
VIEW
 70
     0
  0
ENDTAB
  0
TABLE
  2
UCS
 70
     0
  0
ENDTAB
  0
TABLE
  2
APPID
 70
    11
  0
APPID
  2
ACAD
 70
     0
  0
APPID
  2
ACAD_MLEADERVER
 70
     0
  0
APPID
  2
ACAD_EXEMPT_FROM_CAD_STANDARDS
 70
     0
  0
APPID
  2
ACAD_DSTYLE_DIMJAG
 70
     0
  0
APPID
  2
ACAD_DSTYLE_DIMTALN
 70
     0
  0
APPID
  2
ACAD_NAV_VCDISPLAY
 70
     0
  0
APPID
  2
ACAECLAYERSTANDARD
 70
     0
  0
APPID
  2
ACCMTRANSPARENCY
 70
     0
  0
APPID
  2
DCO15
 70
     0
  0
APPID
  2
ACDBATTR
 70
     0
  0
APPID
  2
ACADANNOTATIVE
 70
     0
  0
ENDTAB
  0
TABLE
  2
DIMSTYLE
 70
     1
  0
DIMSTYLE
  2
STANDARD
 70
     0
  3

  4

  5

  6

  7

 40
1.0
 41
0.1875
 42
0.0625
 43
0.38
 44
0.125
 45
0.0
 46
0.0
 47
0.01
 48
0.01
140
0.15625
141
0.09
142
0.0
143
25.3999999999999986
144
1.0
145
0.0
146
1.0
147
0.09
 71
     1
 72
     0
 73
     1
 74
     1
 75
     0
 76
     0
 77
     0
 78
     4
170
     0
171
     2
172
     0
173
     0
174
     0
175
     0
176
     0
177
     0
178
     0
  0
ENDTAB
  0
ENDSEC
  0
SECTION
  2
BLOCKS
  0
BLOCK
  8
0
  2
$MODEL_SPACE
 70
     0
 10
0.0
 20
0.0
 30
0.0
  3
$MODEL_SPACE
  1

  0
ENDBLK
  5
21
  8
0
  0
BLOCK
 67
     1
  8
0
  2
$PAPER_SPACE
 70
     0
 10
0.0
 20
0.0
 30
0.0
  3
$PAPER_SPACE
  1

  0
ENDBLK
  5
1D
 67
     1
  8
0
  0
ENDSEC
  0
SECTION
  2
ENTITIES
  0
ATTDEF
  5
829
  8
DEFPOINTS
 10
663.2968987367369209
 20
118.1481120404714034
 30
0.0
 40
0.001
  1
K-73061IN-4ND
  3

  2
MODELNUMBER
 70
     0
1001
ACDBATTR
1070
     0
1070
     1
  0
ATTDEF
  5
82A
  8
DEFPOINTS
 10
663.2968987367369209
 20
118.1464453738047951
 30
0.0
 40
0.001
  1
COMPOSED
  3

  2
TRADENAME
 70
     0
1001
ACDBATTR
1070
     0
1070
     1
  0
ATTDEF
  5
82B
  8
DEFPOINTS
 10
663.2968987367369209
 20
118.1447787071381015
 30
0.0
 40
0.001
  1
BATHROOM SINK FAUCET
  3

  2
PRODUCT
 70
     0
1001
ACDBATTR
1070
     0
1070
     1
  0
LINE
  5
AD3F
  8
0
 10
669.8299574612397009
 20
119.696446471908402
 30
0.0
 11
669.8299574612397009
 21
116.6054448979083986
 31
0.0
  0
LINE
  5
AD40
  8
0
 10
660.7748393516396845
 20
119.696446471908402
 30
0.0
 11
660.7748393516396845
 21
116.6054448979083986
 31
0.0
  0
LINE
  5
AD41
  8
0
 10
669.7317574612395674
 20
119.7946464719083934
 30
0.0
 11
660.8730393516395907
 21
119.7946464719083934
 31
0.0
  0
LINE
  5
AD42
  8
0
 10
669.7317574612395674
 20
116.507244897908393
 30
0.0
 11
660.8730393516395907
 21
116.507244897908393
 31
0.0
  0
ARC
  5
AD43
  8
0
 10
660.8730393516395907
 20
119.696446471908402
 30
0.0
 40
0.0982
 50
90.0
 51
180.0
  0
ARC
  5
AD44
  8
0
 10
669.7317574612395674
 20
119.696446471908402
 30
0.0
 40
0.0982
 50
0.0
 51
90.0
  0
ARC
  5
AD45
  8
0
 10
669.7317574612395674
 20
116.6054448979083986
 30
0.0
 40
0.0982
 50
270.0
 51
359.9999999999992042
  0
ARC
  5
AD46
  8
0
 10
660.8730393516395907
 20
116.6054448979083986
 30
0.0
 40
0.0982
 50
180.0
 51
270.0
  0
LINE
  5
AD47
  8
0
 10
662.7630283277396757
 20
118.777428834908406
 30
0.0
 11
663.8417684851398235
 21
118.777428834908406
 31
0.0
  0
LINE
  5
AD48
  8
0
 10
663.9913747844396994
 20
117.9934397255082956
 30
0.0
 11
663.9913747844396994
 21
118.7409455632384976
 31
0.0
  0
LINE
  5
AD49
  8
0
 10
662.6134220284396861
 20
117.9934397255082956
 30
0.0
 11
662.6134220284396861
 21
118.7409455632384976
 31
0.0
  0
ARC
  5
AD4A
  8
0
 10
662.6334220284395542
 20
117.9934397255082956
 30
0.0
 40
0.02
 50
180.0
 51
270.0
  0
LINE
  5
AD4B
  8
0
 10
664.0113974307397484
 20
117.993457684308396
 30
0.0
 11
664.0113974307397484
 21
118.5052763935867972
 31
0.0
  0
LINE
  5
AD4C
  8
0
 10
663.7907786322002721
 20
117.9537576843083997
 30
0.0
 11
663.9716974307397095
 21
117.9537576843083997
 31
0.0
  0
LINE
  5
AD4D
  8
0
 10
662.8140181806272722
 20
117.9537576843083997
 30
0.0
 11
662.633099382139676
 21
117.9537576843083997
 31
0.0
  0
LINE
  5
AD4E
  8
0
 10
662.5933993821397507
 20
117.993457684308396
 30
0.0
 11
662.5933993821397507
 21
118.505276393603296
 31
0.0
  0
ARC
  5
AD4F
  8
0
 10
663.9716974307397095
 20
117.993457684308396
 30
0.0
 40
0.0397
 50
270.0
 51
359.9999999999959073
  0
ARC
  5
AD50
  8
0
 10
662.633099382139676
 20
117.993457684308396
 30
0.0
 40
0.0397
 50
180.0000000000023874
 51
270.0
  0
ARC
  5
AD51
  8
0
 10
663.3023984064137721
 20
118.1509456849559996
 30
0.0
 40
0.4629360321476405
 50
212.8950923140187115
 51
327.1049076859806064
  0
ARC
  5
AD52
  8
0
 10
662.8140181806272722
 20
117.8350576843082962
 30
0.0
 40
0.1187
 50
32.8950923140186973
 51
90.0
  0
ARC
  5
AD53
  8
0
 10
663.7907786322002721
 20
117.8350576843082962
 30
0.0
 40
0.1187
 50
90.0
 51
147.1049076859812885
  0
LINE
  5
AD54
  8
0
 10
663.8221730773368563
 20
117.9734397255082996
 30
0.0
 11
663.9713747844397176
 21
117.9734397255082996
 31
0.0
  0
ARC
  5
AD55
  8
0
 10
663.9713747844397176
 20
117.9934397255082956
 30
0.0
 40
0.02
 50
270.0
 51
0.0
  0
LINE
  5
AD56
  8
0
 10
662.7826315818427929
 20
117.9734397255082996
 30
0.0
 11
662.6334220284395542
 21
117.9734397255082996
 31
0.0
  0
ARC
  5
AD57
  8
0
 10
663.3024023295898814
 20
118.1310870118698944
 30
0.0
 40
0.4323220144158495
 50
214.2912518317037893
 51
325.7087481682962107
  0
ARC
  5
AD58
  8
0
 10
663.8221730773368563
 20
117.776639725508403
 30
0.0
 40
0.1968
 50
90.0
 51
145.708748168296097
  0
ARC
  5
AD59
  8
0
 10
662.7826315818427929
 20
117.776639725508403
 30
0.0
 40
0.1968
 50
34.2912518317038533
 51
90.0
  0
ARC
  5
AD5A
  8
0
 10
662.6331070678453443
 20
118.505276393603296
 30
0.0
 40
0.0397076857073852
 50
119.7191422833810037
 51
180.0
  0
ARC
  5
AD5B
  8
0
 10
663.9716897450114175
 20
118.5052763935867972
 30
0.0
 40
0.0397076857349598
 50
0.0
 51
60.2808577016414802
  0
ARC
  5
AD5C
  8
0
 10
662.7539368668158204
 20
116.4764133901517056
 30
0.0
 40
2.3010334051617418
 50
89.7736218454459021
 51
91.8047098408123645
  0
ARC
  5
AD5D
  8
0
 10
662.7015889956253432
 20
118.1377996405454951
 30
0.0
 40
0.638822656605557
 50
91.8047098408123645
 51
95.143661969864695
  0
ARC
  5
AD5E
  8
0
 10
662.6461417229813833
 20
118.7413781736731977
 30
0.0
 40
0.0327225543423468
 50
93.1976569151905068
 51
180.7575042562025089
  0
ARC
  5
AD5F
  8
0
 10
663.8508599460635651
 20
116.4764133901517056
 30
0.0
 40
2.3010334051617418
 50
88.1952901591876639
 51
90.2263781545540837
  0
ARC
  5
AD60
  8
0
 10
663.9032078172539286
 20
118.1377996405454951
 30
0.0
 40
0.638822656605557
 50
84.856338030135305
 51
88.1952901591876639
  0
ARC
  5
AD61
  8
0
 10
663.9586550898980022
 20
118.7413781736731977
 30
0.0
 40
0.0327225543423468
 50
359.2424957437974058
 51
86.8023430848094932
  0
LINE
  5
AD62
  8
0
 10
662.644922028439737
 20
118.2265643107083974
 30
0.0
 11
663.9598747844396485
 21
118.2265643107083974
 31
0.0
  0
ARC
  5
AD63
  8
0
 10
662.644922028439737
 20
118.2580643107083063
 30
0.0
 40
0.0315
 50
179.9999999999967031
 51
270.0
  0
ARC
  5
AD64
  8
0
 10
663.9598747844396485
 20
118.2580643107083063
 30
0.0
 40
0.0315
 50
270.0
 51
0.0000000000032569
  0
ARC
  5
AD65
  8
0
 10
663.2993802888156551
 20
105.4721823993406957
 30
0.0
 40
12.7447977006304303
 50
89.9864316870605734
 51
90.7267986174338574
  0
ARC
  5
AD66
  8
0
 10
663.2330208501659854
 20
110.7032212859398044
 30
0.0
 40
7.5133379226899146
 50
90.7267986174338574
 51
92.590195441289282
  0
ARC
  5
AD67
  8
0
 10
662.9239498494609961
 20
117.535292068885397
 30
0.0
 40
0.6742797955312037
 50
92.590195441289282
 51
97.3608385636841263
  0
ARC
  5
AD68
  8
0
 10
662.8420398568066503
 20
118.1693569106403032
 30
0.0
 40
0.0349461811745618
 50
97.3608385636841263
 51
117.2836956406242024
  0
ARC
  5
AD69
  8
0
 10
662.9407205881276468
 20
118.8301178002603962
 30
0.0
 40
0.6400635749839018
 50
259.6767842611994865
 51
269.6861822228077017
  0
LINE
  5
AD6A
  8
0
 10
662.9478406412971481
 20
118.1491450893882984
 30
0.0
 11
662.9346500664385076
 21
118.1999406609758978
 31
0.0
  0
ARC
  5
AD6B
  8
0
 10
663.0198755431867994
 20
117.7597209758320957
 30
0.0
 40
0.448393524791607
 50
94.1973578255811077
 51
100.9567807757231037
  0
ARC
  5
AD6C
  8
0
 10
663.2231152193088519
 20
113.3294221067413048
 30
0.0
 40
4.8831987251171718
 50
90.4930553394062542
 51
92.7708137227846805
  0
ARC
  5
AD6D
  8
0
 10
663.3011060114138218
 20
108.2120029202568929
 30
0.0
 40
10.0011571942560291
 50
89.9925959787236707
 51
90.6875570115351053
  0
ARC
  5
AD6E
  8
0
 10
662.965807398905099
 20
118.1081704987705052
 30
0.0
 40
0.044740601864984
 50
92.2494332520278704
 51
113.676746814861005
  0
ARC
  5
AD6F
  8
0
 10
663.0845720940562842
 20
116.8112885106796028
 30
0.0
 40
1.346990690853298
 50
91.7127296864515671
 51
95.1333523667889835
  0
ARC
  5
AD70
  8
0
 10
663.2651036376263392
 20
111.6016088565321951
 30
0.0
 40
6.559785337750907
 50
90.3512149888277065
 51
91.9288394377558404
  0
ARC
  5
AD71
  8
0
 10
663.3019769441418703
 20
108.2411601853351044
 30
0.0
 40
9.9204102490260428
 50
89.9975658253753181
 51
90.4452043492907336
  0
ARC
  5
AD72
  8
0
 10
663.3021505843087198
 20
109.1461338308036062
 30
0.0
 40
9.0143374069113005
 50
89.9984248246402672
 51
90.5755471003226944
  0
ARC
  5
AD73
  8
0
 10
663.2734875373535033
 20
111.9994474500209947
 30
0.0
 40
6.1608798235797524
 50
90.5755471003226944
 51
92.0179870495760071
  0
ARC
  5
AD74
  8
0
 10
663.0792291023202552
 20
117.5126571641200002
 30
0.0
 40
0.6442488144205667
 50
92.0179870495760071
 51
98.8990178805386932
  0
ARC
  5
AD75
  8
0
 10
663.1358727831885744
 20
118.1705064246350929
 30
0.0
 40
0.1577568913782114
 50
187.7800265489779861
 51
223.2780665569009955
  0
ARC
  5
AD76
  8
0
 10
663.3011843739071765
 20
125.4902150509046947
 30
0.0
 40
7.437396163481738
 50
268.971005605800201
 51
270.0093525931787894
  0
ARC
  5
AD77
  8
0
 10
663.2335690421116396
 20
121.7257080299277021
 30
0.0
 40
3.672281962812824
 50
267.5300330879391026
 51
268.971005605800201
  0
ARC
  5
AD78
  8
0
 10
663.0955173824561371
 20
118.5253100859247013
 30
0.0
 40
0.4689079196026599
 50
260.858467268964489
 51
267.5300330879391026
  0
ARC
  5
AD79
  8
0
 10
663.3020250086417491
 20
110.3588058987620997
 30
0.0
 40
7.713661238583807
 50
89.9972264638992243
 51
90.7860815480945433
  0
ARC
  5
AD7A
  8
0
 10
663.2648377998073101
 20
113.0691308464623006
 30
0.0
 40
5.003081187999344
 50
90.7860815480945433
 51
91.844677750098171
  0
ARC
  5
AD7B
  8
0
 10
663.1551400948693527
 20
116.4751694841493048
 30
0.0
 40
1.595276500537631
 50
91.844677750098171
 51
93.8749474092016811
  0
ARC
  5
AD7C
  8
0
 10
663.0564024096595404
 20
117.9328988889141954
 30
0.0
 40
0.1342069785789208
 50
93.8749474092016811
 51
105.2861018801890935
  0
ARC
  5
AD7D
  8
0
 10
662.9793334037647128
 20
118.2473464090000022
 30
0.0
 40
0.1031275582049494
 50
252.2191662021027128
 51
270.5485354330043037
  0
LINE
  5
AD7E
  8
0
 10
663.0513894343403081
 20
118.0647058226083033
 30
0.0
 11
663.1065639134400271
 21
118.0641898699084038
 31
0.0
  0
ARC
  5
AD7F
  8
0
 10
663.0453424167991443
 20
118.0623733535768025
 30
0.0
 40
0.0008869223637862
 50
111.7735948016945002
 51
152.6769607456251947
  0
ARC
  5
AD80
  8
0
 10
663.0532735291506015
 20
118.0425176246778989
 30
0.0
 40
0.0222680475268741
 50
94.8535866151777753
 51
111.7735948016945002
  0
ARC
  5
AD81
  8
0
 10
663.1030844549122776
 20
118.061437678444193
 30
0.0
 40
0.0019651573857424
 50
105.3018529199032969
 51
136.8984801708010082
  0
ARC
  5
AD82
  8
0
 10
663.1122085656918443
 20
118.0280897838916019
 30
0.0
 40
0.0365387234240997
 50
98.8868776918491932
 51
105.3018529199032969
  0
LINE
  5
AD83
  8
0
 10
663.1016496067391017
 20
118.062780457008401
 30
0.0
 11
663.1016496067391017
 21
118.0642358250284047
 31
0.0
  0
LINE
  5
AD84
  8
0
 10
663.1075562885389445
 20
118.062780457008401
 30
0.0
 11
663.1646593853381546
 21
118.062780457008401
 31
0.0
  0
ARC
  5
AD85
  8
0
 10
663.1093278098678638
 20
118.0608950210519055
 30
0.0
 40
0.0025871135579713
 50
102.6007441251520049
 51
133.2158069972799979
  0
ARC
  5
AD86
  8
0
 10
663.1274829201129251
 20
117.9796786814354022
 30
0.0
 40
0.0858079153367997
 50
99.9689668841097046
 51
102.6007441251520049
  0
ARC
  5
AD87
  8
0
 10
663.1463399061534574
 20
117.7990689389680057
 30
0.0
 40
0.2672568062181089
 50
93.1419308171976184
 51
97.2465570109220607
  0
ARC
  5
AD88
  8
0
 10
663.1658294383230441
 20
118.061395327141696
 30
0.0
 40
0.0018131764203405
 50
104.7998001073459022
 51
130.1885957124025879
  0
ARC
  5
AD89
  8
0
 10
663.17314779100343
 20
118.0336960827020931
 30
0.0
 40
0.0304628959387268
 50
94.4557043959387386
 51
104.7998001073459022
  0
ARC
  5
AD8A
  8
0
 10
663.091471088151593
 20
119.0818564472249932
 30
0.0
 40
1.020874934421059
 50
274.4557043959388238
 51
275.0393373310424749
  0
ARC
  5
AD8B
  8
0
 10
663.5861854048215491
 20
138.576220676592186
 30
0.0
 40
20.5152919262558306
 50
268.8226654704370731
 51
268.8687147368156047
  0
ARC
  5
AD8C
  8
0
 10
663.019262221653662
 20
111.667665897560596
 30
0.0
 40
6.3992458367634724
 50
88.6980714627291462
 51
88.9933087445186146
  0
LINE
  5
AD8D
  8
0
 10
663.0810674903397057
 20
118.0672613612082955
 30
0.0
 11
663.1305133500395641
 21
118.0662650650083947
 31
0.0
  0
LINE
  5
AD8E
  8
0
 10
663.1305133500395641
 20
118.0662650650083947
 30
0.0
 11
663.1549617172396438
 21
118.067399898908306
 31
0.0
  0
LINE
  5
AD8F
  8
0
 10
663.1549617172396438
 20
118.067399898908306
 30
0.0
 11
663.114571195239705
 21
118.0688095078083961
 31
0.0
  0
LINE
  5
AD90
  8
0
 10
663.114571195239705
 20
118.0688095078083961
 30
0.0
 11
663.0810674903397057
 21
118.0672613612082955
 31
0.0
  0
LINE
  5
AD91
  8
0
 10
663.1265763421397423
 20
118.0660270819084019
 30
0.0
 11
663.1106398039396481
 21
118.0647207412084043
 31
0.0
  0
LINE
  5
AD92
  8
0
 10
663.1106398039396481
 20
118.0647207412084043
 30
0.0
 11
663.055465324839588
 21
118.065236693808302
 31
0.0
  0
LINE
  5
AD93
  8
0
 10
663.055465324839588
 20
118.065236693808302
 30
0.0
 11
663.077130482539701
 21
118.0670233781084022
 31
0.0
  0
LINE
  5
AD94
  8
0
 10
663.077130482539701
 20
118.0670233781084022
 30
0.0
 11
663.1265763421397423
 21
118.0660270819084019
 31
0.0
  0
LINE
  5
AD95
  8
0
 10
663.1106398039396481
 20
118.0647207412084043
 30
0.0
 11
663.1106398039396481
 21
118.0663481909471955
 31
0.0
  0
LINE
  5
AD96
  8
0
 10
663.1646593853397462
 20
118.062780457008401
 30
0.0
 11
663.1646593853397462
 21
118.0652597377576996
 31
0.0
  0
LINE
  5
AD97
  8
0
 10
663.1257067351039041
 20
118.0691981326304045
 30
0.0
 11
663.170066877372733
 21
118.0703673950675068
 31
0.0
  0
LINE
  5
AD98
  8
0
 10
663.170066877372733
 20
118.0703673950675068
 30
0.0
 11
663.1986144576019342
 21
118.0686417594167068
 31
0.0
  0
LINE
  5
AD99
  8
0
 10
663.1986144576019342
 20
118.0686417594167068
 30
0.0
 11
663.1660972571352204
 21
118.0677885237085007
 31
0.0
  0
LINE
  5
AD9A
  8
0
 10
663.1660972571352204
 20
118.0677885237085007
 30
0.0
 11
663.1257067351039041
 21
118.0691981326304045
 31
0.0
  0
LINE
  5
AD9B
  8
0
 10
663.1768859752252183
 20
118.0705047945970989
 30
0.0
 11
663.1992131959409562
 21
118.0708893564471964
 31
0.0
  0
LINE
  5
AD9C
  8
0
 10
663.1992131959409562
 20
118.0708893564471964
 30
0.0
 11
663.2280811056408538
 21
118.0712608976923974
 31
0.0
  0
LINE
  5
AD9D
  8
0
 10
663.2280811056408538
 20
118.0712608976923974
 30
0.0
 11
663.2428650627928164
 21
118.0693353360887983
 31
0.0
  0
LINE
  5
AD9E
  8
0
 10
663.2428650627928164
 20
118.0693353360887983
 30
0.0
 11
663.2054335553771125
 21
118.0687791589268016
 31
0.0
  0
LINE
  5
AD9F
  8
0
 10
663.2054335553771125
 20
118.0687791589268016
 30
0.0
 11
663.1768859752252183
 21
118.0705047945970989
 31
0.0
  0
LINE
  5
ADA0
  8
0
 10
663.2984800328581514
 20
118.0674502541633046
 30
0.0
 11
663.2369384446695904
 21
118.0668747608359013
 31
0.0
  0
LINE
  5
ADA1
  8
0
 10
663.2369384446695904
 20
118.0668747608359013
 30
0.0
 11
663.2083868966645923
 21
118.0686006362887071
 31
0.0
  0
LINE
  5
ADA2
  8
0
 10
663.2083868966645923
 20
118.0686006362887071
 30
0.0
 11
663.2984613985854594
 21
118.0694429492509983
 31
0.0
  0
LINE
  5
ADA3
  8
0
 10
663.2984613985854594
 20
118.0694429492509983
 30
0.0
 11
663.2984800328581514
 21
118.0674502541633046
 31
0.0
  0
LINE
  5
ADA4
  8
0
 10
663.2984613985588567
 20
118.0696490895084025
 30
0.0
 11
663.2984613985967144
 21
118.071641681853194
 31
0.0
  0
LINE
  5
ADA5
  8
0
 10
663.2984613985967144
 20
118.071641681853194
 30
0.0
 11
663.2432925360443505
 21
118.0714031441983991
 31
0.0
  0
LINE
  5
ADA6
  8
0
 10
663.2432925360443505
 20
118.0714031441983991
 30
0.0
 11
663.258076493139697
 21
118.0694775827353027
 31
0.0
  0
LINE
  5
ADA7
  8
0
 10
663.258076493139697
 20
118.0694775827353027
 30
0.0
 11
663.2984613985588567
 21
118.0696490895084025
 31
0.0
  0
LINE
  5
ADA8
  8
0
 10
663.2336133465397552
 20
118.062780457008401
 30
0.0
 11
663.1705674170387965
 21
118.062780457008401
 31
0.0
  0
ARC
  5
ADA9
  8
0
 10
663.1714909599687644
 20
118.0618273154090048
 30
0.0
 40
0.0013271813931713
 50
99.6893776927099964
 51
134.0964180389914873
  0
ARC
  5
ADAA
  8
0
 10
663.1978658085171219
 20
117.9073556663624061
 30
0.0
 40
0.158034306295437
 50
96.749507811854059
 51
99.6893776927099964
  0
ARC
  5
ADAB
  8
0
 10
663.1941988074022447
 20
117.9383402826832992
 30
0.0
 40
0.1268334514075485
 50
91.0786410638016548
 51
96.749507811854059
  0
ARC
  5
ADAC
  8
0
 10
663.2479711056161022
 20
116.9682224449556998
 30
0.0
 40
1.0983654938201419
 50
91.5980817394360685
 51
92.9308359817015059
  0
ARC
  5
ADAD
  8
0
 10
663.2447865303421395
 20
117.2064094103711938
 30
0.0
 40
0.860189315172445
 50
90.7442481177115923
 51
91.828498073810664
  0
ARC
  5
ADAE
  8
0
 10
663.2283364501585083
 20
117.7220136160582058
 30
0.0
 40
0.3445529517059594
 50
83.959152184491245
 51
89.1224695341839066
  0
ARC
  5
ADAF
  8
0
 10
663.2638816614669395
 20
117.8192605345346067
 30
0.0
 40
0.2453938131456516
 50
89.8331359185613536
 51
97.0852422463357669
  0
ARC
  5
ADB0
  8
0
 10
663.240383970142716
 20
118.061141080278901
 30
0.0
 40
0.0018487268369717
 50
102.8720739943928066
 51
117.5311270040371028
  0
ARC
  5
ADB1
  8
0
 10
663.2544998515398902
 20
117.9617393784417061
 30
0.0
 40
0.1022413738148619
 50
91.7306439482807718
 51
98.168947831988234
  0
ARC
  5
ADB2
  8
0
 10
663.2813035549789902
 20
117.4079409698503014
 30
0.0
 40
0.656673820767708
 50
91.1957955600823169
 51
92.6089780571909671
  0
ARC
  5
ADB3
  8
0
 10
663.2514573344109294
 20
117.6500618965394978
 30
0.0
 40
0.4147241449512859
 50
85.3122747139689181
 51
87.7693473302484648
  0
ARC
  5
ADB4
  8
0
 10
663.2873076572544733
 20
117.946107194035406
 30
0.0
 40
0.1173078861453666
 50
90.9558842140408643
 51
95.9624942556873748
  0
LINE
  5
ADB5
  8
0
 10
663.2751220157398393
 20
118.062780457008401
 30
0.0
 11
663.2395294323416692
 21
118.062780457008401
 31
0.0
  0
LINE
  5
ADB6
  8
0
 10
663.1016496067391017
 20
118.062780457008401
 30
0.0
 11
663.0445544459375924
 21
118.062780457008401
 31
0.0
  0
LINE
  5
ADB7
  8
0
 10
663.0513894343403081
 20
118.0605802922083996
 30
0.0
 11
663.1065639134400271
 21
118.0610962449083985
 31
0.0
  0
ARC
  5
ADB8
  8
0
 10
663.0453424167991443
 20
118.0629127612399003
 30
0.0
 40
0.0008869223637862
 50
207.3230392543748053
 51
248.226405198305514
  0
ARC
  5
ADB9
  8
0
 10
663.0532735291506015
 20
118.0827684901388039
 30
0.0
 40
0.0222680475268741
 50
248.226405198305514
 51
265.1464133848222104
  0
ARC
  5
ADBA
  8
0
 10
663.1030844549122776
 20
118.0638484363724956
 30
0.0
 40
0.0019651573857424
 50
223.101519829198395
 51
254.6981470800965894
  0
ARC
  5
ADBB
  8
0
 10
663.1122085656918443
 20
118.0971963309251009
 30
0.0
 40
0.0365387234240997
 50
254.6981470800965894
 51
261.113122308150821
  0
LINE
  5
ADBC
  8
0
 10
663.1016496067391017
 20
118.0625056578084013
 30
0.0
 11
663.1016496067391017
 21
118.0610502897882981
 31
0.0
  0
LINE
  5
ADBD
  8
0
 10
663.1075562885389445
 20
118.0625056578084013
 30
0.0
 11
663.1646593853381546
 21
118.0625056578084013
 31
0.0
  0
ARC
  5
ADBE
  8
0
 10
663.1093278098678638
 20
118.0643910937647973
 30
0.0
 40
0.0025871135579713
 50
226.7841930027198885
 51
257.3992558748478814
  0
ARC
  5
ADBF
  8
0
 10
663.1274829201129251
 20
118.1456074333813007
 30
0.0
 40
0.0858079153367997
 50
257.3992558748478814
 51
260.0310331158902954
  0
ARC
  5
ADC0
  8
0
 10
663.1463399061534574
 20
118.3262171758486971
 30
0.0
 40
0.2672568062181089
 50
262.7534429890778824
 51
266.8580691828024101
  0
ARC
  5
ADC1
  8
0
 10
663.1658294383230441
 20
118.0638907876750068
 30
0.0
 40
0.0018131764203405
 50
229.8114042875974121
 51
255.2001998926540978
  0
ARC
  5
ADC2
  8
0
 10
663.17314779100343
 20
118.0915900321145955
 30
0.0
 40
0.0304628959387268
 50
255.2001998926540978
 51
265.5442956040611762
  0
ARC
  5
ADC3
  8
0
 10
663.091471088151593
 20
117.0434296675916954
 30
0.0
 40
1.020874934421059
 50
84.9606626689574682
 51
85.5442956040612472
  0
ARC
  5
ADC4
  8
0
 10
663.5861854048215491
 20
97.5490654382245026
 30
0.0
 40
20.5152919262558306
 50
91.1312852631844379
 51
91.1773345295629269
  0
ARC
  5
ADC5
  8
0
 10
663.019262221653662
 20
124.4576202172561068
 30
0.0
 40
6.3992458367634724
 50
271.006691255481428
 51
271.3019285372708964
  0
LINE
  5
ADC6
  8
0
 10
663.0810674903397057
 20
118.0580247536083931
 30
0.0
 11
663.1305133500395641
 21
118.0590210498083934
 31
0.0
  0
LINE
  5
ADC7
  8
0
 10
663.1305133500395641
 20
118.0590210498083934
 30
0.0
 11
663.1549617172396438
 21
118.0578862159083968
 31
0.0
  0
LINE
  5
ADC8
  8
0
 10
663.1549617172396438
 20
118.0578862159083968
 30
0.0
 11
663.114571195239705
 21
118.0564766070083067
 31
0.0
  0
LINE
  5
ADC9
  8
0
 10
663.114571195239705
 20
118.0564766070083067
 30
0.0
 11
663.0810674903397057
 21
118.0580247536083931
 31
0.0
  0
LINE
  5
ADCA
  8
0
 10
663.1265763421397423
 20
118.0592590329084004
 30
0.0
 11
663.1106398039396481
 21
118.060565373608398
 31
0.0
  0
LINE
  5
ADCB
  8
0
 10
663.1106398039396481
 20
118.060565373608398
 30
0.0
 11
663.055465324839588
 21
118.0600494210084008
 31
0.0
  0
LINE
  5
ADCC
  8
0
 10
663.055465324839588
 20
118.0600494210084008
 30
0.0
 11
663.077130482539701
 21
118.0582627367084001
 31
0.0
  0
LINE
  5
ADCD
  8
0
 10
663.077130482539701
 20
118.0582627367084001
 30
0.0
 11
663.1265763421397423
 21
118.0592590329084004
 31
0.0
  0
LINE
  5
ADCE
  8
0
 10
663.1106398039396481
 20
118.060565373608398
 30
0.0
 11
663.1106398039396481
 21
118.0589379238694931
 31
0.0
  0
LINE
  5
ADCF
  8
0
 10
663.1646593853397462
 20
118.0625056578084013
 30
0.0
 11
663.1646593853397462
 21
118.0600263770590033
 31
0.0
  0
LINE
  5
ADD0
  8
0
 10
663.1257067351039041
 20
118.0560879821862983
 30
0.0
 11
663.170066877372733
 21
118.054918719749196
 31
0.0
  0
LINE
  5
ADD1
  8
0
 10
663.170066877372733
 20
118.054918719749196
 30
0.0
 11
663.1986144576019342
 21
118.056644355399996
 31
0.0
  0
LINE
  5
ADD2
  8
0
 10
663.1986144576019342
 20
118.056644355399996
 30
0.0
 11
663.1660972571352204
 21
118.0574975911082021
 31
0.0
  0
LINE
  5
ADD3
  8
0
 10
663.1660972571352204
 20
118.0574975911082021
 30
0.0
 11
663.1257067351039041
 21
118.0560879821862983
 31
0.0
  0
LINE
  5
ADD4
  8
0
 10
663.1992131959409562
 20
118.0543967583695064
 30
0.0
 11
663.2280811056408538
 21
118.0540252171243054
 31
0.0
  0
LINE
  5
ADD5
  8
0
 10
663.2280811056408538
 20
118.0540252171243054
 30
0.0
 11
663.2428650627928164
 21
118.0559507787279045
 31
0.0
  0
LINE
  5
ADD6
  8
0
 10
663.2428650627928164
 20
118.0559507787279045
 30
0.0
 11
663.2054335553771125
 21
118.0565069558900007
 31
0.0
  0
LINE
  5
ADD7
  8
0
 10
663.2054335553771125
 20
118.0565069558900007
 30
0.0
 11
663.1768859752252183
 21
118.0547813202196039
 31
0.0
  0
LINE
  5
ADD8
  8
0
 10
663.2984800328581514
 20
118.0578358606533982
 30
0.0
 11
663.2369384446695904
 21
118.0584113539808016
 31
0.0
  0
LINE
  5
ADD9
  8
0
 10
663.2369384446695904
 20
118.0584113539808016
 30
0.0
 11
663.2083868966645923
 21
118.0566854785279958
 31
0.0
  0
LINE
  5
ADDA
  8
0
 10
663.2083868966645923
 20
118.0566854785279958
 30
0.0
 11
663.2984613985854594
 21
118.0558431655657046
 31
0.0
  0
LINE
  5
ADDB
  8
0
 10
663.2984613985854594
 20
118.0558431655657046
 30
0.0
 11
663.2984800328581514
 21
118.0578358606533982
 31
0.0
  0
LINE
  5
ADDC
  8
0
 10
663.2984613985588567
 20
118.0556370253083003
 30
0.0
 11
663.2984613985967144
 21
118.0536444329634946
 31
0.0
  0
LINE
  5
ADDD
  8
0
 10
663.2984613985967144
 20
118.0536444329634946
 30
0.0
 11
663.2432925360443505
 21
118.0538829706183037
 31
0.0
  0
LINE
  5
ADDE
  8
0
 10
663.2432925360443505
 20
118.0538829706183037
 30
0.0
 11
663.258076493139697
 21
118.0558085320814001
 31
0.0
  0
LINE
  5
ADDF
  8
0
 10
663.258076493139697
 20
118.0558085320814001
 30
0.0
 11
663.2984613985588567
 21
118.0556370253083003
 31
0.0
  0
LINE
  5
ADE0
  8
0
 10
663.2336133465397552
 20
118.0625056578084013
 30
0.0
 11
663.1705674170387965
 21
118.0625056578084013
 31
0.0
  0
ARC
  5
ADE1
  8
0
 10
663.1714909599687644
 20
118.0634587994076981
 30
0.0
 40
0.0013271813931713
 50
225.9035819610085127
 51
260.3106223072899752
  0
ARC
  5
ADE2
  8
0
 10
663.1978658085171219
 20
118.2179304484543962
 30
0.0
 40
0.158034306295437
 50
260.3106223072899752
 51
263.2504921881459268
  0
ARC
  5
ADE3
  8
0
 10
663.1941988074022447
 20
118.1869458321334037
 30
0.0
 40
0.1268334514075485
 50
263.2504921881459268
 51
268.9213589361983736
  0
ARC
  5
ADE4
  8
0
 10
663.2479711056161022
 20
119.1570636698611025
 30
0.0
 40
1.0983654938201419
 50
267.0691640182985225
 51
268.4019182605638889
  0
ARC
  5
ADE5
  8
0
 10
663.2447865303421395
 20
118.9188767044455943
 30
0.0
 40
0.860189315172445
 50
268.1715019261893076
 51
269.2557518822883935
  0
ARC
  5
ADE6
  8
0
 10
663.2283364501585083
 20
118.403272498758497
 30
0.0
 40
0.3445529517059594
 50
270.8775304658161076
 51
276.0408478155086982
  0
ARC
  5
ADE7
  8
0
 10
663.2638816614669395
 20
118.3060255802820961
 30
0.0
 40
0.2453938131456516
 50
262.9147577536642757
 51
270.1668640814385753
  0
ARC
  5
ADE8
  8
0
 10
663.240383970142716
 20
118.0641450345378018
 30
0.0
 40
0.0018487268369717
 50
242.4688729959628972
 51
257.1279260056070939
  0
ARC
  5
ADE9
  8
0
 10
663.2544998515398902
 20
118.1635467363749967
 30
0.0
 40
0.1022413738148619
 50
261.8310521680118086
 51
268.2693560517192282
  0
ARC
  5
ADEA
  8
0
 10
663.2813035549789902
 20
118.7173451449664014
 30
0.0
 40
0.656673820767708
 50
267.3910219428090045
 51
268.8042044399177257
  0
ARC
  5
ADEB
  8
0
 10
663.2514573344109294
 20
118.4752242182772051
 30
0.0
 40
0.4147241449512859
 50
272.230652669751521
 51
274.6877252860310819
  0
ARC
  5
ADEC
  8
0
 10
663.2873076572544733
 20
118.1791789207813963
 30
0.0
 40
0.1173078861453666
 50
264.0375057443126252
 51
269.044115785959093
  0
LINE
  5
ADED
  8
0
 10
663.2751220157398393
 20
118.0625056578084013
 30
0.0
 11
663.2395294323416692
 21
118.0625056578084013
 31
0.0
  0
LINE
  5
ADEE
  8
0
 10
663.1016496067391017
 20
118.0625056578084013
 30
0.0
 11
663.0445544459375924
 21
118.0625056578084013
 31
0.0
  0
LINE
  5
ADEF
  8
0
 10
663.1356286865396896
 20
118.0591241200084056
 30
0.0
 11
663.185081418939717
 21
118.0601205546083037
 31
0.0
  0
LINE
  5
ADF0
  8
0
 10
663.185081418939717
 20
118.0601205546083037
 30
0.0
 11
663.2301193470397038
 21
118.0585487536083065
 31
0.0
  0
LINE
  5
ADF1
  8
0
 10
663.2301193470397038
 20
118.0585487536083065
 30
0.0
 11
663.201567798639644
 21
118.0568228781083064
 31
0.0
  0
LINE
  5
ADF2
  8
0
 10
663.201567798639644
 20
118.0568228781083064
 30
0.0
 11
663.1356286865396896
 21
118.0591241200084056
 31
0.0
  0
LINE
  5
ADF3
  8
0
 10
663.1356286865396896
 20
118.0661619949083985
 30
0.0
 11
663.201567798639644
 21
118.0684632367083964
 31
0.0
  0
LINE
  5
ADF4
  8
0
 10
663.201567798639644
 20
118.0684632367083964
 30
0.0
 11
663.2282133194471498
 21
118.0668525761969931
 31
0.0
  0
LINE
  5
ADF5
  8
0
 10
663.2282133194471498
 20
118.0668525761969931
 30
0.0
 11
663.185081418939717
 21
118.065347294655993
 31
0.0
  0
LINE
  5
ADF6
  8
0
 10
663.185081418939717
 20
118.065347294655993
 30
0.0
 11
663.1356286865396896
 21
118.0661619949083985
 31
0.0
  0
ARC
  5
ADF7
  8
0
 10
663.3054165240636166
 20
105.4721823993406957
 30
0.0
 40
12.7447977006304303
 50
89.2732013825661284
 51
90.0135683129394266
  0
ARC
  5
ADF8
  8
0
 10
663.3717759627131727
 20
110.7032212859398044
 30
0.0
 40
7.5133379226899146
 50
87.409804558710718
 51
89.2732013825661284
  0
ARC
  5
ADF9
  8
0
 10
663.6808469634183894
 20
117.535292068885397
 30
0.0
 40
0.6742797955312037
 50
82.6391614363158737
 51
87.409804558710718
  0
ARC
  5
ADFA
  8
0
 10
663.7627569560728489
 20
118.1693569106403032
 30
0.0
 40
0.0349461811745618
 50
62.7163043593757905
 51
82.6391614363158737
  0
ARC
  5
ADFB
  8
0
 10
663.664076224751625
 20
118.8301178002603962
 30
0.0
 40
0.6400635749839018
 50
270.3138177771922983
 51
280.3232157387940902
  0
LINE
  5
ADFC
  8
0
 10
663.6569561715822374
 20
118.1491450893882984
 30
0.0
 11
663.6701467464407642
 21
118.1999406609758978
 31
0.0
  0
ARC
  5
ADFD
  8
0
 10
663.5849212696925861
 20
117.7597209758320957
 30
0.0
 40
0.448393524791607
 50
79.0432192242768537
 51
85.8026421744189065
  0
ARC
  5
ADFE
  8
0
 10
663.3816815935705336
 20
113.3294221067413048
 30
0.0
 40
4.8831987251171718
 50
87.2291862772153337
 51
89.5069446605937458
  0
ARC
  5
ADFF
  8
0
 10
663.3036908014655637
 20
108.2120029202568929
 30
0.0
 40
10.0011571942560291
 50
89.3124429884648947
 51
90.0074040212763151
  0
ARC
  5
AE00
  8
0
 10
663.6389894139742864
 20
118.1081704987705052
 30
0.0
 40
0.044740601864984
 50
66.3232531851389524
 51
87.7505667479721438
  0
ARC
  5
AE01
  8
0
 10
663.520224718823215
 20
116.8112885106796028
 30
0.0
 40
1.346990690853298
 50
84.8666476332110307
 51
88.2872703135484613
  0
ARC
  5
AE02
  8
0
 10
663.3396931752530463
 20
111.6016088565321951
 30
0.0
 40
6.559785337750907
 50
88.0711605622441738
 51
89.6487850111722935
  0
ARC
  5
AE03
  8
0
 10
663.3028198687374015
 20
108.2411601853351044
 30
0.0
 40
9.9204102490260428
 50
89.5547956507092522
 51
90.0024341746247103
  0
ARC
  5
AE04
  8
0
 10
663.3026462285706657
 20
109.1461338308036062
 30
0.0
 40
9.0143374069113005
 50
89.4244528996773198
 51
90.001575175359747
  0
ARC
  5
AE05
  8
0
 10
663.3313092755258822
 20
111.9994474500209947
 30
0.0
 40
6.1608798235797524
 50
87.9820129504239929
 51
89.4244528996773198
  0
ARC
  5
AE06
  8
0
 10
663.5255677105591303
 20
117.5126571641200002
 30
0.0
 40
0.6442488144205667
 50
81.1009821194613068
 51
87.9820129504239929
  0
ARC
  5
AE07
  8
0
 10
663.468924029690811
 20
118.1705064246350929
 30
0.0
 40
0.1577568913782114
 50
316.7219334430989761
 51
352.2199734510219855
  0
ARC
  5
AE08
  8
0
 10
663.303612438972209
 20
125.4902150509046947
 30
0.0
 40
7.437396163481738
 50
269.9906474068212106
 51
271.0289943941999127
  0
ARC
  5
AE09
  8
0
 10
663.3712277707678595
 20
121.7257080299277021
 30
0.0
 40
3.672281962812824
 50
271.0289943941999127
 51
272.4699669120607837
  0
ARC
  5
AE0A
  8
0
 10
663.5092794304233621
 20
118.5253100859247013
 30
0.0
 40
0.4689079196026599
 50
272.4699669120607837
 51
279.141532731035511
  0
ARC
  5
AE0B
  8
0
 10
663.3027718042376364
 20
110.3588058987620997
 30
0.0
 40
7.713661238583807
 50
89.2139184519054567
 51
90.0027735361007757
  0
ARC
  5
AE0C
  8
0
 10
663.3399590130720753
 20
113.0691308464623006
 30
0.0
 40
5.003081187999344
 50
88.155322249901829
 51
89.2139184519054567
  0
ARC
  5
AE0D
  8
0
 10
663.4496567180100328
 20
116.4751694841493048
 30
0.0
 40
1.595276500537631
 50
86.1250525907983047
 51
88.155322249901829
  0
ARC
  5
AE0E
  8
0
 10
663.5483944032198451
 20
117.9328988889141954
 30
0.0
 40
0.1342069785789208
 50
74.7138981198108922
 51
86.1250525907983047
  0
ARC
  5
AE0F
  8
0
 10
663.625463409114559
 20
118.2473464090000022
 30
0.0
 40
0.1031275582049494
 50
269.4514645669958099
 51
287.7808337978972872
  0
LINE
  5
AE10
  8
0
 10
663.5534073785390774
 20
118.0647058226083033
 30
0.0
 11
663.498232899439472
 21
118.0641898699084038
 31
0.0
  0
ARC
  5
AE11
  8
0
 10
663.5594543960802412
 20
118.0623733535768025
 30
0.0
 40
0.0008869223637862
 50
27.3230392543748692
 51
68.2264051983054856
  0
ARC
  5
AE12
  8
0
 10
663.5515232837286703
 20
118.0425176246778989
 30
0.0
 40
0.0222680475268741
 50
68.2264051983054856
 51
85.1464133848222531
  0
ARC
  5
AE13
  8
0
 10
663.5017123579671079
 20
118.061437678444193
 30
0.0
 40
0.0019651573857424
 50
43.1015198291989989
 51
74.6981470800966463
  0
ARC
  5
AE14
  8
0
 10
663.4925882471875411
 20
118.0280897838916019
 30
0.0
 40
0.0365387234240997
 50
74.6981470800966463
 51
81.1131223081508068
  0
LINE
  5
AE15
  8
0
 10
663.5031472061401701
 20
118.062780457008401
 30
0.0
 11
663.5031472061401701
 21
118.0642358250284047
 31
0.0
  0
LINE
  5
AE16
  8
0
 10
663.4972405243403273
 20
118.062780457008401
 30
0.0
 11
663.4401374275411172
 21
118.062780457008401
 31
0.0
  0
ARC
  5
AE17
  8
0
 10
663.4954690030116353
 20
118.0608950210519055
 30
0.0
 40
0.0025871135579713
 50
46.7841930027199595
 51
77.3992558748479951
  0
ARC
  5
AE18
  8
0
 10
663.4773138927664604
 20
117.9796786814354022
 30
0.0
 40
0.0858079153367997
 50
77.3992558748479951
 51
80.0310331158902954
  0
ARC
  5
AE19
  8
0
 10
663.4584569067258144
 20
117.7990689389680057
 30
0.0
 40
0.2672568062181089
 50
82.7534429890779393
 51
86.8580691828023816
  0
ARC
  5
AE1A
  8
0
 10
663.4389673745563414
 20
118.061395327141696
 30
0.0
 40
0.0018131764203405
 50
49.8114042875974405
 51
75.2001998926540551
  0
ARC
  5
AE1B
  8
0
 10
663.4316490218759554
 20
118.0336960827020931
 30
0.0
 40
0.0304628959387268
 50
75.2001998926540551
 51
85.5442956040612472
  0
ARC
  5
AE1C
  8
0
 10
663.5133257247279062
 20
119.0818564472249932
 30
0.0
 40
1.020874934421059
 50
264.9606626689575251
 51
265.5442956040611762
  0
ARC
  5
AE1D
  8
0
 10
663.0186114080578363
 20
138.576220676592186
 30
0.0
 40
20.5152919262558306
 50
271.1312852631843953
 51
271.1773345295629269
  0
ARC
  5
AE1E
  8
0
 10
663.5855345912257235
 20
111.667665897560596
 30
0.0
 40
6.3992458367634724
 50
91.0066912554813712
 51
91.3019285372708538
  0
LINE
  5
AE1F
  8
0
 10
663.5237293225395661
 20
118.0672613612082955
 30
0.0
 11
663.4742834628397077
 21
118.0662650650083947
 31
0.0
  0
LINE
  5
AE20
  8
0
 10
663.4742834628397077
 20
118.0662650650083947
 30
0.0
 11
663.4498350956397417
 21
118.067399898908306
 31
0.0
  0
LINE
  5
AE21
  8
0
 10
663.4498350956397417
 20
118.067399898908306
 30
0.0
 11
663.4902256176395667
 21
118.0688095078083961
 31
0.0
  0
LINE
  5
AE22
  8
0
 10
663.4902256176395667
 20
118.0688095078083961
 30
0.0
 11
663.5237293225395661
 21
118.0672613612082955
 31
0.0
  0
LINE
  5
AE23
  8
0
 10
663.4782204707397568
 20
118.0660270819084019
 30
0.0
 11
663.4941570089397374
 21
118.0647207412084043
 31
0.0
  0
LINE
  5
AE24
  8
0
 10
663.4941570089397374
 20
118.0647207412084043
 30
0.0
 11
663.5493314880395701
 21
118.065236693808302
 31
0.0
  0
LINE
  5
AE25
  8
0
 10
663.5493314880395701
 20
118.065236693808302
 30
0.0
 11
663.5276663303396845
 21
118.0670233781084022
 31
0.0
  0
LINE
  5
AE26
  8
0
 10
663.5276663303396845
 20
118.0670233781084022
 30
0.0
 11
663.4782204707397568
 21
118.0660270819084019
 31
0.0
  0
LINE
  5
AE27
  8
0
 10
663.4941570089397374
 20
118.0647207412084043
 30
0.0
 11
663.4941570089397374
 21
118.0663481909471955
 31
0.0
  0
LINE
  5
AE28
  8
0
 10
663.4401374275397529
 20
118.062780457008401
 30
0.0
 11
663.4401374275397529
 21
118.0652597377576996
 31
0.0
  0
LINE
  5
AE29
  8
0
 10
663.4790900777755951
 20
118.0691981326304045
 30
0.0
 11
663.4347299355066525
 21
118.0703673950675068
 31
0.0
  0
LINE
  5
AE2A
  8
0
 10
663.4347299355066525
 20
118.0703673950675068
 30
0.0
 11
663.4061823552774513
 21
118.0686417594167068
 31
0.0
  0
LINE
  5
AE2B
  8
0
 10
663.4061823552774513
 20
118.0686417594167068
 30
0.0
 11
663.4386995557441651
 21
118.0677885237085007
 31
0.0
  0
LINE
  5
AE2C
  8
0
 10
663.4386995557441651
 20
118.0677885237085007
 30
0.0
 11
663.4790900777755951
 21
118.0691981326304045
 31
0.0
  0
LINE
  5
AE2D
  8
0
 10
663.4279108376540535
 20
118.0705047945970989
 30
0.0
 11
663.4055836169384293
 21
118.0708893564471964
 31
0.0
  0
LINE
  5
AE2E
  8
0
 10
663.4055836169384293
 20
118.0708893564471964
 30
0.0
 11
663.3767157072385316
 21
118.0712608976923974
 31
0.0
  0
LINE
  5
AE2F
  8
0
 10
663.3767157072385316
 20
118.0712608976923974
 30
0.0
 11
663.3619317500865691
 21
118.0693353360887983
 31
0.0
  0
LINE
  5
AE30
  8
0
 10
663.3619317500865691
 20
118.0693353360887983
 30
0.0
 11
663.3993632575021593
 21
118.0687791589268016
 31
0.0
  0
LINE
  5
AE31
  8
0
 10
663.3993632575021593
 20
118.0687791589268016
 30
0.0
 11
663.4279108376540535
 21
118.0705047945970989
 31
0.0
  0
LINE
  5
AE32
  8
0
 10
663.3063167800213478
 20
118.0674502541633046
 30
0.0
 11
663.3678583682096814
 21
118.0668747608359013
 31
0.0
  0
LINE
  5
AE33
  8
0
 10
663.3678583682096814
 20
118.0668747608359013
 30
0.0
 11
663.3964099162147932
 21
118.0686006362887071
 31
0.0
  0
LINE
  5
AE34
  8
0
 10
663.3964099162147932
 20
118.0686006362887071
 30
0.0
 11
663.3063354142938124
 21
118.0694429492509983
 31
0.0
  0
LINE
  5
AE35
  8
0
 10
663.3063354142938124
 20
118.0694429492509983
 30
0.0
 11
663.3063167800213478
 21
118.0674502541633046
 31
0.0
  0
LINE
  5
AE36
  8
0
 10
663.3063354143205288
 20
118.0696490895084025
 30
0.0
 11
663.3063354142825574
 21
118.071641681853194
 31
0.0
  0
LINE
  5
AE37
  8
0
 10
663.3063354142825574
 20
118.071641681853194
 30
0.0
 11
663.3615042768351486
 21
118.0714031441983991
 31
0.0
  0
LINE
  5
AE38
  8
0
 10
663.3615042768351486
 20
118.0714031441983991
 30
0.0
 11
663.3467203197396884
 21
118.0694775827353027
 31
0.0
  0
LINE
  5
AE39
  8
0
 10
663.3467203197396884
 20
118.0694775827353027
 30
0.0
 11
663.3063354143205288
 21
118.0696490895084025
 31
0.0
  0
LINE
  5
AE3A
  8
0
 10
663.371183466339744
 20
118.062780457008401
 30
0.0
 11
663.4342293958407026
 21
118.062780457008401
 31
0.0
  0
ARC
  5
AE3B
  8
0
 10
663.4333058529106211
 20
118.0618273154090048
 30
0.0
 40
0.0013271813931713
 50
45.9035819610084772
 51
80.3106223072900178
  0
ARC
  5
AE3C
  8
0
 10
663.4069310043622636
 20
117.9073556663624061
 30
0.0
 40
0.158034306295437
 50
80.3106223072900178
 51
83.2504921881459552
  0
ARC
  5
AE3D
  8
0
 10
663.4105980054772544
 20
117.9383402826832992
 30
0.0
 40
0.1268334514075485
 50
83.2504921881459552
 51
88.9213589361983452
  0
ARC
  5
AE3E
  8
0
 10
663.3568257072631695
 20
116.9682224449556998
 30
0.0
 40
1.0983654938201419
 50
87.0691640182984941
 51
88.4019182605639173
  0
ARC
  5
AE3F
  8
0
 10
663.360010282537246
 20
117.2064094103711938
 30
0.0
 40
0.860189315172445
 50
88.1715019261892934
 51
89.2557518822884219
  0
ARC
  5
AE40
  8
0
 10
663.3764603627207634
 20
117.7220136160582058
 30
0.0
 40
0.3445529517059594
 50
90.8775304658160792
 51
96.040847815508755
  0
ARC
  5
AE41
  8
0
 10
663.3409151514125597
 20
117.8192605345346067
 30
0.0
 40
0.2453938131456516
 50
82.9147577536642757
 51
90.1668640814386464
  0
ARC
  5
AE42
  8
0
 10
663.3644128427366695
 20
118.061141080278901
 30
0.0
 40
0.0018487268369717
 50
62.4688729959628901
 51
77.1279260056071934
  0
ARC
  5
AE43
  8
0
 10
663.3502969613393816
 20
117.9617393784417061
 30
0.0
 40
0.1022413738148619
 50
81.8310521680117944
 51
88.2693560517192566
  0
ARC
  5
AE44
  8
0
 10
663.3234932579003953
 20
117.4079409698503014
 30
0.0
 40
0.656673820767708
 50
87.3910219428090329
 51
88.8042044399176831
  0
ARC
  5
AE45
  8
0
 10
663.353339478468456
 20
117.6500618965394978
 30
0.0
 40
0.4147241449512859
 50
92.2306526697515352
 51
94.6877252860310961
  0
ARC
  5
AE46
  8
0
 10
663.3174891556246848
 20
117.946107194035406
 30
0.0
 40
0.1173078861453666
 50
84.0375057443126536
 51
89.0441157859591215
  0
LINE
  5
AE47
  8
0
 10
663.3296747971395462
 20
118.062780457008401
 30
0.0
 11
663.3652673805377162
 21
118.062780457008401
 31
0.0
  0
LINE
  5
AE48
  8
0
 10
663.5031472061401701
 20
118.062780457008401
 30
0.0
 11
663.5602423669419068
 21
118.062780457008401
 31
0.0
  0
LINE
  5
AE49
  8
0
 10
663.5534073785390774
 20
118.0605802922083996
 30
0.0
 11
663.498232899439472
 21
118.0610962449083985
 31
0.0
  0
ARC
  5
AE4A
  8
0
 10
663.5594543960802412
 20
118.0629127612399003
 30
0.0
 40
0.0008869223637862
 50
291.7735948016945144
 51
332.6769607456251947
  0
ARC
  5
AE4B
  8
0
 10
663.5515232837286703
 20
118.0827684901388039
 30
0.0
 40
0.0222680475268741
 50
274.8535866151776759
 51
291.7735948016945144
  0
ARC
  5
AE4C
  8
0
 10
663.5017123579671079
 20
118.0638484363724956
 30
0.0
 40
0.0019651573857424
 50
285.3018529199032969
 51
316.8984801708010082
  0
ARC
  5
AE4D
  8
0
 10
663.4925882471875411
 20
118.0971963309251009
 30
0.0
 40
0.0365387234240997
 50
278.886877691849179
 51
285.3018529199032969
  0
LINE
  5
AE4E
  8
0
 10
663.5031472061401701
 20
118.0625056578084013
 30
0.0
 11
663.5031472061401701
 21
118.0610502897882981
 31
0.0
  0
LINE
  5
AE4F
  8
0
 10
663.4972405243403273
 20
118.0625056578084013
 30
0.0
 11
663.4401374275411172
 21
118.0625056578084013
 31
0.0
  0
ARC
  5
AE50
  8
0
 10
663.4954690030116353
 20
118.0643910937647973
 30
0.0
 40
0.0025871135579713
 50
282.6007441251520049
 51
313.2158069972800263
  0
ARC
  5
AE51
  8
0
 10
663.4773138927664604
 20
118.1456074333813007
 30
0.0
 40
0.0858079153367997
 50
279.9689668841097046
 51
282.6007441251520049
  0
ARC
  5
AE52
  8
0
 10
663.4584569067258144
 20
118.3262171758486971
 30
0.0
 40
0.2672568062181089
 50
273.1419308171977036
 51
277.2465570109220039
  0
ARC
  5
AE53
  8
0
 10
663.4389673745563414
 20
118.0638907876750068
 30
0.0
 40
0.0018131764203405
 50
284.7998001073459022
 51
310.1885957124026163
  0
ARC
  5
AE54
  8
0
 10
663.4316490218759554
 20
118.0915900321145955
 30
0.0
 40
0.0304628959387268
 50
274.4557043959388238
 51
284.7998001073459022
  0
ARC
  5
AE55
  8
0
 10
663.5133257247279062
 20
117.0434296675916954
 30
0.0
 40
1.020874934421059
 50
94.4557043959387386
 51
95.039337331042546
  0
ARC
  5
AE56
  8
0
 10
663.0186114080578363
 20
97.5490654382245026
 30
0.0
 40
20.5152919262558306
 50
88.8226654704370731
 51
88.8687147368155905
  0
ARC
  5
AE57
  8
0
 10
663.5855345912257235
 20
124.4576202172561068
 30
0.0
 40
6.3992458367634724
 50
268.6980714627292173
 51
268.993308744518572
  0
LINE
  5
AE58
  8
0
 10
663.5237293225395661
 20
118.0580247536083931
 30
0.0
 11
663.4742834628397077
 21
118.0590210498083934
 31
0.0
  0
LINE
  5
AE59
  8
0
 10
663.4742834628397077
 20
118.0590210498083934
 30
0.0
 11
663.4498350956397417
 21
118.0578862159083968
 31
0.0
  0
LINE
  5
AE5A
  8
0
 10
663.4498350956397417
 20
118.0578862159083968
 30
0.0
 11
663.4902256176395667
 21
118.0564766070083067
 31
0.0
  0
LINE
  5
AE5B
  8
0
 10
663.4902256176395667
 20
118.0564766070083067
 30
0.0
 11
663.5237293225395661
 21
118.0580247536083931
 31
0.0
  0
LINE
  5
AE5C
  8
0
 10
663.4782204707397568
 20
118.0592590329084004
 30
0.0
 11
663.4941570089397374
 21
118.060565373608398
 31
0.0
  0
LINE
  5
AE5D
  8
0
 10
663.4941570089397374
 20
118.060565373608398
 30
0.0
 11
663.5493314880395701
 21
118.0600494210084008
 31
0.0
  0
LINE
  5
AE5E
  8
0
 10
663.5493314880395701
 20
118.0600494210084008
 30
0.0
 11
663.5276663303396845
 21
118.0582627367084001
 31
0.0
  0
LINE
  5
AE5F
  8
0
 10
663.5276663303396845
 20
118.0582627367084001
 30
0.0
 11
663.4782204707397568
 21
118.0592590329084004
 31
0.0
  0
LINE
  5
AE60
  8
0
 10
663.4941570089397374
 20
118.060565373608398
 30
0.0
 11
663.4941570089397374
 21
118.0589379238694931
 31
0.0
  0
LINE
  5
AE61
  8
0
 10
663.4401374275397529
 20
118.0625056578084013
 30
0.0
 11
663.4401374275397529
 21
118.0600263770590033
 31
0.0
  0
LINE
  5
AE62
  8
0
 10
663.4790900777755951
 20
118.0560879821862983
 30
0.0
 11
663.4347299355066525
 21
118.054918719749196
 31
0.0
  0
LINE
  5
AE63
  8
0
 10
663.4347299355066525
 20
118.054918719749196
 30
0.0
 11
663.4061823552774513
 21
118.056644355399996
 31
0.0
  0
LINE
  5
AE64
  8
0
 10
663.4061823552774513
 20
118.056644355399996
 30
0.0
 11
663.4386995557441651
 21
118.0574975911082021
 31
0.0
  0
LINE
  5
AE65
  8
0
 10
663.4386995557441651
 20
118.0574975911082021
 30
0.0
 11
663.4790900777755951
 21
118.0560879821862983
 31
0.0
  0
LINE
  5
AE66
  8
0
 10
663.4055836169384293
 20
118.0543967583695064
 30
0.0
 11
663.3767157072385316
 21
118.0540252171243054
 31
0.0
  0
LINE
  5
AE67
  8
0
 10
663.3767157072385316
 20
118.0540252171243054
 30
0.0
 11
663.3619317500865691
 21
118.0559507787279045
 31
0.0
  0
LINE
  5
AE68
  8
0
 10
663.3619317500865691
 20
118.0559507787279045
 30
0.0
 11
663.3993632575021593
 21
118.0565069558900007
 31
0.0
  0
LINE
  5
AE69
  8
0
 10
663.3993632575021593
 20
118.0565069558900007
 30
0.0
 11
663.4279108376540535
 21
118.0547813202196039
 31
0.0
  0
LINE
  5
AE6A
  8
0
 10
663.3063167800213478
 20
118.0578358606533982
 30
0.0
 11
663.3678583682096814
 21
118.0584113539808016
 31
0.0
  0
LINE
  5
AE6B
  8
0
 10
663.3678583682096814
 20
118.0584113539808016
 30
0.0
 11
663.3964099162147932
 21
118.0566854785279958
 31
0.0
  0
LINE
  5
AE6C
  8
0
 10
663.3964099162147932
 20
118.0566854785279958
 30
0.0
 11
663.3063354142938124
 21
118.0558431655657046
 31
0.0
  0
LINE
  5
AE6D
  8
0
 10
663.3063354142938124
 20
118.0558431655657046
 30
0.0
 11
663.3063167800213478
 21
118.0578358606533982
 31
0.0
  0
LINE
  5
AE6E
  8
0
 10
663.3063354143205288
 20
118.0556370253083003
 30
0.0
 11
663.3063354142825574
 21
118.0536444329634946
 31
0.0
  0
LINE
  5
AE6F
  8
0
 10
663.3063354142825574
 20
118.0536444329634946
 30
0.0
 11
663.3615042768351486
 21
118.0538829706183037
 31
0.0
  0
LINE
  5
AE70
  8
0
 10
663.3615042768351486
 20
118.0538829706183037
 30
0.0
 11
663.3467203197396884
 21
118.0558085320814001
 31
0.0
  0
LINE
  5
AE71
  8
0
 10
663.3467203197396884
 20
118.0558085320814001
 30
0.0
 11
663.3063354143205288
 21
118.0556370253083003
 31
0.0
  0
LINE
  5
AE72
  8
0
 10
663.371183466339744
 20
118.0625056578084013
 30
0.0
 11
663.4342293958407026
 21
118.0625056578084013
 31
0.0
  0
ARC
  5
AE73
  8
0
 10
663.4333058529106211
 20
118.0634587994076981
 30
0.0
 40
0.0013271813931713
 50
279.6893776927100248
 51
314.0964180389914873
  0
ARC
  5
AE74
  8
0
 10
663.4069310043622636
 20
118.2179304484543962
 30
0.0
 40
0.158034306295437
 50
276.7495078118540164
 51
279.6893776927100248
  0
ARC
  5
AE75
  8
0
 10
663.4105980054772544
 20
118.1869458321334037
 30
0.0
 40
0.1268334514075485
 50
271.0786410638016264
 51
276.7495078118540164
  0
ARC
  5
AE76
  8
0
 10
663.3568257072631695
 20
119.1570636698611025
 30
0.0
 40
1.0983654938201419
 50
271.5980817394361111
 51
272.9308359817014775
  0
ARC
  5
AE77
  8
0
 10
663.360010282537246
 20
118.9188767044455943
 30
0.0
 40
0.860189315172445
 50
270.7442481177114928
 51
271.8284980738106924
  0
ARC
  5
AE78
  8
0
 10
663.3764603627207634
 20
118.403272498758497
 30
0.0
 40
0.3445529517059594
 50
263.9591521844911881
 51
269.1224695341838924
  0
ARC
  5
AE79
  8
0
 10
663.3409151514125597
 20
118.3060255802820961
 30
0.0
 40
0.2453938131456516
 50
269.8331359185614247
 51
277.0852422463357243
  0
ARC
  5
AE7A
  8
0
 10
663.3644128427366695
 20
118.0641450345378018
 30
0.0
 40
0.0018487268369717
 50
282.8720739943927924
 51
297.5311270040371028
  0
ARC
  5
AE7B
  8
0
 10
663.3502969613393816
 20
118.1635467363749967
 30
0.0
 40
0.1022413738148619
 50
271.7306439482807718
 51
278.1689478319881914
  0
ARC
  5
AE7C
  8
0
 10
663.3234932579003953
 20
118.7173451449664014
 30
0.0
 40
0.656673820767708
 50
271.1957955600822743
 51
272.6089780571909955
  0
ARC
  5
AE7D
  8
0
 10
663.353339478468456
 20
118.4752242182772051
 30
0.0
 40
0.4147241449512859
 50
265.3122747139689181
 51
267.769347330248479
  0
ARC
  5
AE7E
  8
0
 10
663.3174891556246848
 20
118.1791789207813963
 30
0.0
 40
0.1173078861453666
 50
270.955884214040907
 51
275.9624942556873748
  0
LINE
  5
AE7F
  8
0
 10
663.3296747971395462
 20
118.0625056578084013
 30
0.0
 11
663.3652673805377162
 21
118.0625056578084013
 31
0.0
  0
LINE
  5
AE80
  8
0
 10
663.5031472061401701
 20
118.0625056578084013
 30
0.0
 11
663.5602423669419068
 21
118.0625056578084013
 31
0.0
  0
LINE
  5
AE81
  8
0
 10
663.4691681263395822
 20
118.0591241200084056
 30
0.0
 11
663.4197153939395548
 21
118.0601205546083037
 31
0.0
  0
LINE
  5
AE82
  8
0
 10
663.4197153939395548
 20
118.0601205546083037
 30
0.0
 11
663.3746774658396816
 21
118.0585487536083065
 31
0.0
  0
LINE
  5
AE83
  8
0
 10
663.3746774658396816
 20
118.0585487536083065
 30
0.0
 11
663.4032290142397414
 21
118.0568228781083064
 31
0.0
  0
LINE
  5
AE84
  8
0
 10
663.4032290142397414
 20
118.0568228781083064
 30
0.0
 11
663.4691681263395822
 21
118.0591241200084056
 31
0.0
  0
LINE
  5
AE85
  8
0
 10
663.4691681263395822
 20
118.0661619949083985
 30
0.0
 11
663.4032290142397414
 21
118.0684632367083964
 31
0.0
  0
LINE
  5
AE86
  8
0
 10
663.4032290142397414
 20
118.0684632367083964
 30
0.0
 11
663.3765834934323493
 21
118.0668525761969931
 31
0.0
  0
LINE
  5
AE87
  8
0
 10
663.3765834934323493
 20
118.0668525761969931
 30
0.0
 11
663.4197153939395548
 21
118.065347294655993
 31
0.0
  0
LINE
  5
AE88
  8
0
 10
663.4197153939395548
 20
118.065347294655993
 30
0.0
 11
663.4691681263395822
 21
118.0661619949083985
 31
0.0
  0
LINE
  5
AE89
  8
0
 10
663.2706267601093941
 20
118.0648383795970062
 30
0.0
 11
663.3339245679272835
 21
118.0648235406059996
 31
0.0
  0
LINE
  5
AE8A
  8
0
 10
663.2706267601093941
 20
118.0648383795970062
 30
0.0
 11
663.2921697599031177
 21
118.0635361548106061
 31
0.0
  0
LINE
  5
AE8B
  8
0
 10
663.2921697599031177
 20
118.0635361548106061
 30
0.0
 11
663.312627052939547
 21
118.0635361548031028
 31
0.0
  0
LINE
  5
AE8C
  8
0
 10
663.312627052939547
 20
118.0635361548031028
 30
0.0
 11
663.3339245679272835
 21
118.0648235406059996
 31
0.0
  0
LINE
  5
AE8D
  8
0
 10
663.2743734695967532
 20
118.0606742151904029
 30
0.0
 11
663.2921697599484787
 21
118.0617499600135005
 31
0.0
  0
LINE
  5
AE8E
  8
0
 10
663.2921697599484787
 20
118.0617499600135005
 30
0.0
 11
663.3126270529761541
 21
118.0617499601060985
 31
0.0
  0
LINE
  5
AE8F
  8
0
 10
663.3126270529761541
 20
118.0617499601060985
 30
0.0
 11
663.3304233447041725
 21
118.0606742151904029
 31
0.0
  0
LINE
  5
AE90
  8
0
 10
663.3304233447041725
 20
118.0606742151904029
 30
0.0
 11
663.2743734695967532
 21
118.0606742151904029
 31
0.0
  0
LINE
  5
AE91
  8
0
 10
663.2398924609672122
 20
118.0585899175083995
 30
0.0
 11
663.3649043522884767
 21
118.0585899174857047
 31
0.0
  0
LINE
  5
AE92
  8
0
 10
663.3649043522884767
 20
118.0585899174857047
 30
0.0
 11
663.3333813875647138
 21
118.0604954082860019
 31
0.0
  0
LINE
  5
AE93
  8
0
 10
663.3333813875647138
 20
118.0604954082860019
 30
0.0
 11
663.2714154253395691
 21
118.0604954082082969
 31
0.0
  0
LINE
  5
AE94
  8
0
 10
663.2714154253395691
 20
118.0604954082082969
 30
0.0
 11
663.2398924609672122
 21
118.0585899175083995
 31
0.0
  0
ARC
  5
AE95
  8
0
 10
663.2497672758895533
 20
74.142953152802022
 30
0.0
 40
43.9041849713942369
 50
89.9313153774358938
 51
90.2618136641386286
  0
ARC
  5
AE96
  8
0
 10
663.0871157716463813
 20
109.737657087716201
 30
0.0
 40
8.3091094169579627
 50
90.2618136641386286
 51
91.5153909886488464
  0
ARC
  5
AE97
  8
0
 10
662.8912176031135459
 20
117.1426905341685938
 30
0.0
 40
0.9014852070298097
 50
91.5153909886488464
 51
96.9846652820428687
  0
ARC
  5
AE98
  8
0
 10
662.7815083745011862
 20
117.840307453031599
 30
0.0
 40
0.1971781445266222
 50
34.3151376448437517
 51
89.9752140562344351
  0
ARC
  5
AE99
  8
0
 10
663.3016394994133407
 20
118.1936573705350071
 30
0.0
 40
0.4316250130536475
 50
214.1330381282485007
 51
325.7977031657363796
  0
ARC
  5
AE9A
  8
0
 10
663.8246089128527956
 20
117.8349173235507976
 30
0.0
 40
0.2025731411441088
 50
90.3976289952197618
 51
145.0257849258163105
  0
ARC
  5
AE9B
  8
0
 10
663.3550295369897185
 20
74.142953152802022
 30
0.0
 40
43.9041849713942369
 50
89.7381863358613856
 51
90.0686846225641062
  0
ARC
  5
AE9C
  8
0
 10
663.5176810412327768
 20
109.737657087716201
 30
0.0
 40
8.3091094169579627
 50
88.4846090113511536
 51
89.7381863358613856
  0
ARC
  5
AE9D
  8
0
 10
663.7135792097658396
 20
117.1426905341685938
 30
0.0
 40
0.9014852070298097
 50
83.0153385706828288
 51
88.4846090113511536
  0
LINE
  5
AE9E
  8
0
 10
663.8232030796713161
 20
117.9734397255082996
 30
0.0
 11
663.8232030796713161
 21
118.0374855864798036
 31
0.0
  0
LINE
  5
AE9F
  8
0
 10
662.7815936730397652
 20
117.9734397255082996
 30
0.0
 11
662.7815936730397652
 21
118.0374855791084059
 31
0.0
  0
ARC
  5
AEA0
  8
0
 10
663.3019811724969941
 20
118.0109247818287059
 30
0.0
 40
0.2940298245519117
 50
257.3196269865663908
 51
282.8087828581544159
  0
ARC
  5
AEA1
  8
0
 10
663.3014318199070658
 20
118.5011608966693046
 30
0.0
 40
0.7797249814570606
 50
265.2923154489981812
 51
274.8360943957206928
  0
CIRCLE
  5
AEA2
  8
0
 10
667.302398406439579
 20
118.1509456849083932
 30
0.0
 40
0.6830708660999997
  0
CIRCLE
  5
AEA3
  8
0
 10
667.302398406439579
 20
118.1509456849083932
 30
0.0
 40
0.6692913385999995
  0
CIRCLE
  5
AEA4
  8
0
 10
667.302398406439579
 20
118.1509456849083932
 30
0.0
 40
0.5525436999999997
  0
CIRCLE
  5
AEA5
  8
0
 10
667.302398406439579
 20
118.1509456849083932
 30
0.0
 40
0.4332331051000003
  0
ENDSEC
  0
EOF
