  0
SECTION
  2
HEADER
  9
$ACADVER
  1
AC1009
  9
$INSBASE
 10
3797.8505381822969866
 20
434.4547636468681162
 30
0.0
  9
$EXTMIN
 10
3792.3544751901968084
 20
434.4493561709874143
 30
0.0
  9
$EXTMAX
 10
3803.3466011743980744
 20
439.0155748481681144
 30
0.0
  9
$LIMMIN
 10
0.0
 20
0.0
  9
$LIMMAX
 10
11.6929133858000007
 20
8.2677165353999982
  9
$ORTHOMODE
 70
     0
  9
$REGENMODE
 70
     1
  9
$FILLMODE
 70
     1
  9
$QTEXTMODE
 70
     0
  9
$MIRRTEXT
 70
     0
  9
$DRAGMODE
 70
     2
  9
$LTSCALE
 40
0.6431102362
  9
$OSMODE
 70
  4095
  9
$ATTMODE
 70
     1
  9
$TEXTSIZE
 40
0.2
  9
$TRACEWID
 40
0.05
  9
$TEXTSTYLE
  7
STANDARD
  9
$CLAYER
  8
0
  9
$CELTYPE
  6
BYLAYER
  9
$CECOLOR
 62
   256
  9
$DIMSCALE
 40
1.0
  9
$DIMASZ
 40
0.1875
  9
$DIMEXO
 40
0.0625
  9
$DIMDLI
 40
0.4443307087
  9
$DIMRND
 40
0.0
  9
$DIMDLE
 40
0.0
  9
$DIMEXE
 40
0.125
  9
$DIMTP
 40
0.01
  9
$DIMTM
 40
0.01
  9
$DIMTXT
 40
2.0
  9
$DIMCEN
 40
0.1052362205
  9
$DIMTSZ
 40
0.0
  9
$DIMTOL
 70
     1
  9
$DIMLIM
 70
     0
  9
$DIMTIH
 70
     1
  9
$DIMTOH
 70
     1
  9
$DIMSE1
 70
     0
  9
$DIMSE2
 70
     0
  9
$DIMTAD
 70
     0
  9
$DIMZIN
 70
     0
  9
$DIMBLK
  1

  9
$DIMASO
 70
     1
  9
$DIMSHO
 70
     1
  9
$DIMPOST
  1
\X
  9
$DIMAPOST
  1

  9
$DIMALT
 70
     1
  9
$DIMALTD
 70
     2
  9
$DIMALTF
 40
25.3999999999999986
  9
$DIMLFAC
 40
1.0
  9
$DIMTOFL
 70
     0
  9
$DIMTVP
 40
0.0
  9
$DIMTIX
 70
     0
  9
$DIMSOXD
 70
     0
  9
$DIMSAH
 70
     0
  9
$DIMBLK1
  1

  9
$DIMBLK2
  1

  9
$DIMSTYLE
  2
STANDARD
  9
$DIMCLRD
 70
     0
  9
$DIMCLRE
 70
     0
  9
$DIMCLRT
 70
     0
  9
$DIMTFAC
 40
1.0
  9
$DIMGAP
 40
0.09
  9
$LUNITS
 70
     2
  9
$LUPREC
 70
     4
  9
$SKETCHINC
 40
0.1
  9
$FILLETRAD
 40
0.0
  9
$AUNITS
 70
     0
  9
$AUPREC
 70
     0
  9
$MENU
  1
.
  9
$ELEVATION
 40
0.0
  9
$PELEVATION
 40
0.0
  9
$THICKNESS
 40
0.0
  9
$LIMCHECK
 70
     0
  9
$BLIPMODE
 70
     0
  9
$CHAMFERA
 40
0.0
  9
$CHAMFERB
 40
0.0
  9
$SKPOLY
 70
     0
  9
$TDCREATE
 40
2458060.468368056230247
  9
$TDUPDATE
 40
2459023.7042824081145227
  9
$TDINDWG
 40
0.5276459491
  9
$TDUSRTIMER
 40
0.5276459491
  9
$USRTIMER
 70
     1
  9
$ANGBASE
 50
0.0
  9
$ANGDIR
 70
     0
  9
$PDMODE
 70
     0
  9
$PDSIZE
 40
0.3125
  9
$PLINEWID
 40
0.0
  9
$COORDS
 70
     1
  9
$SPLFRAME
 70
     0
  9
$SPLINETYPE
 70
     6
  9
$SPLINESEGS
 70
     8
  9
$ATTDIA
 70
     1
  9
$ATTREQ
 70
     1
  9
$HANDLING
 70
     1
  9
$HANDSEED
  5
85CE
  9
$SURFTAB1
 70
     6
  9
$SURFTAB2
 70
     6
  9
$SURFTYPE
 70
     6
  9
$SURFU
 70
     6
  9
$SURFV
 70
     6
  9
$UCSNAME
  2

  9
$UCSORG
 10
0.0
 20
0.0
 30
0.0
  9
$UCSXDIR
 10
1.0
 20
0.0
 30
0.0
  9
$UCSYDIR
 10
0.0
 20
1.0
 30
0.0
  9
$PUCSNAME
  2

  9
$PUCSORG
 10
0.0
 20
0.0
 30
0.0
  9
$PUCSXDIR
 10
1.0
 20
0.0
 30
0.0
  9
$PUCSYDIR
 10
0.0
 20
1.0
 30
0.0
  9
$USERI1
 70
     0
  9
$USERI2
 70
     0
  9
$USERI3
 70
     0
  9
$USERI4
 70
     0
  9
$USERI5
 70
     0
  9
$USERR1
 40
0.0
  9
$USERR2
 40
0.0
  9
$USERR3
 40
0.0
  9
$USERR4
 40
0.0
  9
$USERR5
 40
0.0
  9
$WORLDVIEW
 70
     1
  9
$SHADEDGE
 70
     3
  9
$SHADEDIF
 70
    70
  9
$TILEMODE
 70
     1
  9
$MAXACTVP
 70
    64
  9
$PLIMCHECK
 70
     0
  9
$PEXTMIN
 10
1.0000000000000000E+20
 20
1.0000000000000000E+20
 30
1.0000000000000000E+20
  9
$PEXTMAX
 10
-1.0000000000000000E+20
 20
-1.0000000000000000E+20
 30
-1.0000000000000000E+20
  9
$PLIMMIN
 10
0.0
 20
0.0
  9
$PLIMMAX
 10
12.0
 20
9.0
  9
$UNITMODE
 70
     0
  9
$VISRETAIN
 70
     1
  9
$PLINEGEN
 70
     0
  9
$PSLTSCALE
 70
     1
  0
ENDSEC
  0
SECTION
  2
TABLES
  0
TABLE
  2
VPORT
 70
     1
  0
VPORT
  2
*ACTIVE
 70
     0
 10
0.0
 20
0.0
 11
1.0
 21
1.0
 12
0.0
 22
0.0
 13
0.0
 23
0.0
 14
1.0
 24
1.0
 15
0.0
 25
0.0
 16
0.0
 26
0.0
 36
45.1444231266216391
 17
3797.8505859375
 27
436.7324600679157243
 37
0.0
 40
11.9028752682631094
 41
2.9955849889624719
 42
50.0
 43
0.0
 44
0.0
 50
0.0
 51
0.0
 71
     0
 72
   100
 73
     1
 74
     1
 75
     0
 76
     0
 77
     0
 78
     0
  0
ENDTAB
  0
TABLE
  2
LTYPE
 70
     2
  0
LTYPE
  2
CONTINUOUS
 70
     0
  3
Solid line
 72
    65
 73
     0
 40
0.0
  0
LTYPE
  2
PHANTOM2
 70
     0
  3
___ _ _ ___ _ _ ___ _ _ ___ _ _
 72
    65
 73
     6
 40
1.25
 49
0.625
 49
-0.125
 49
0.125
 49
-0.125
 49
0.125
 49
-0.125
  0
ENDTAB
  0
TABLE
  2
LAYER
 70
     2
  0
LAYER
  2
0
 70
     0
 62
   255
  6
CONTINUOUS
  0
LAYER
  2
DEFPOINTS
 70
     0
 62
     7
  6
CONTINUOUS
  0
ENDTAB
  0
TABLE
  2
STYLE
 70
     1
  0
STYLE
  2
STANDARD
 70
     0
 40
0.0
 41
0.8
 50
0.0
 71
     0
 42
0.2
  3
txt
  4

  0
ENDTAB
  0
TABLE
  2
VIEW
 70
     0
  0
ENDTAB
  0
TABLE
  2
UCS
 70
     0
  0
ENDTAB
  0
TABLE
  2
APPID
 70
     9
  0
APPID
  2
ACAD
 70
     0
  0
APPID
  2
ACAD_MLEADERVER
 70
     0
  0
APPID
  2
ACAD_EXEMPT_FROM_CAD_STANDARDS
 70
     0
  0
APPID
  2
ACAD_NAV_VCDISPLAY
 70
     0
  0
APPID
  2
ACAECLAYERSTANDARD
 70
     0
  0
APPID
  2
ACCMTRANSPARENCY
 70
     0
  0
APPID
  2
ACAD_DSTYLE_DIMJAG
 70
     0
  0
APPID
  2
ACAD_DSTYLE_DIMTALN
 70
     0
  0
APPID
  2
ACDBATTR
 70
     0
  0
ENDTAB
  0
TABLE
  2
DIMSTYLE
 70
     1
  0
DIMSTYLE
  2
STANDARD
 70
     0
  3

  4

  5

  6

  7

 40
1.0
 41
0.1875
 42
0.0625
 43
0.38
 44
0.125
 45
0.0
 46
0.0
 47
0.01
 48
0.01
140
0.15625
141
0.09
142
0.0
143
25.3999999999999986
144
1.0
145
0.0
146
1.0
147
0.09
 71
     1
 72
     0
 73
     1
 74
     1
 75
     0
 76
     0
 77
     0
 78
     4
170
     0
171
     2
172
     0
173
     0
174
     0
175
     0
176
     0
177
     0
178
     0
  0
ENDTAB
  0
ENDSEC
  0
SECTION
  2
BLOCKS
  0
BLOCK
  8
0
  2
$MODEL_SPACE
 70
     0
 10
0.0
 20
0.0
 30
0.0
  3
$MODEL_SPACE
  1

  0
ENDBLK
  5
21
  8
0
  0
BLOCK
 67
     1
  8
0
  2
$PAPER_SPACE
 70
     0
 10
0.0
 20
0.0
 30
0.0
  3
$PAPER_SPACE
  1

  0
ENDBLK
  5
1D
 67
     1
  8
0
  0
BLOCK
  8
0
  2
A$C3A671683
 70
     0
 10
0.0
 20
0.0
 30
0.0
  3
A$C3A671683
  1

  0
LINE
  5
64AD
  8
0
 10
19.7242805827151813
 20
17.186593760681049
 30
0.0
 11
17.9919971181151794
 21
17.186593760681049
 31
0.0
  0
LINE
  5
64AE
  8
0
 10
17.9919971181151794
 20
17.186593760681049
 30
0.0
 11
17.9919971181151794
 21
17.3243890362810511
 31
0.0
  0
ARC
  5
64AF
  8
0
 10
18.0116821575151818
 20
17.3243890362810511
 30
0.0
 40
0.0196850394000006
 50
90.0
 51
180.0000000000001137
  0
LINE
  5
64B0
  8
0
 10
18.0116821575151818
 20
17.3440740756810392
 30
0.0
 11
19.7045955433151789
 21
17.3440740756810392
 31
0.0
  0
LINE
  5
64B1
  8
0
 10
18.2956388817670685
 20
17.3440740756810392
 30
0.0
 11
18.2956388817670685
 21
20.2196336419188505
 31
0.0
  0
ARC
  5
64B2
  8
0
 10
18.3250044745555485
 20
20.2203861248934196
 30
0.0
 40
0.0293752322619933
 50
103.3931210179136997
 51
181.4678629531381091
  0
ARC
  5
64B3
  8
0
 10
18.3524956441739988
 20
20.0575827250337184
 30
0.0
 40
0.1944283320560142
 50
90.3572060212433001
 51
100.1596096926020039
  0
ARC
  5
64B4
  8
0
 10
18.4301884864185404
 20
17.4679263725625695
 30
0.0
 40
2.7851988236965202
 50
89.6777915155863639
 51
91.623412808093974
  0
LINE
  5
64B5
  8
0
 10
18.4458512449900205
 20
20.25308115560685
 30
0.0
 11
18.8581388504151803
 21
20.2531462157714195
 31
0.0
  0
LINE
  5
64B6
  8
0
 10
18.5825482992151798
 20
19.7394040924810383
 30
0.0
 11
18.5825482992151798
 21
19.7353486181810389
 31
0.0
  0
ARC
  5
64B7
  8
0
 10
18.5829207314853484
 20
19.7353486181810389
 30
0.0
 40
0.0003724322701721
 50
180.0000000001230944
 51
216.6495548276951126
  0
LINE
  5
64B8
  8
0
 10
18.5826219285151808
 20
19.7351263062810389
 30
0.0
 11
18.7500976734151799
 21
19.4823706713810409
 31
0.0
  0
ARC
  5
64B9
  8
0
 10
18.7569350533351518
 20
19.4869923168469299
 30
0.0
 40
0.0082528401767107
 50
214.0562583524256013
 51
264.5475790829518132
  0
ARC
  5
64BA
  8
0
 10
18.8581388504151484
 20
21.1754368430929993
 30
0.0
 40
1.6997225629050901
 50
266.5600311822514072
 51
273.4399688177508096
  0
ARC
  5
64BB
  8
0
 10
18.8581404643989714
 20
17.2486399579505516
 30
0.0
 40
2.2342150727920349
 50
87.7808100175880099
 51
92.2192433637510049
  0
ARC
  5
64BC
  8
0
 10
18.8581384996158405
 20
21.4674066674564017
 30
0.0
 40
1.9881106424789281
 50
267.5059333389526728
 51
272.494120020041521
  0
ARC
  5
64BD
  8
0
 10
18.5825391158227617
 20
19.741761079252349
 30
0.0
 40
0.0055827622209994
 50
225.303642260348397
 51
270.0942490193702952
  0
ARC
  5
64BE
  8
0
 10
18.5838249764580716
 20
19.7306739344601993
 30
0.0
 40
0.0088230133090339
 50
98.3198233499394689
 51
126.2126520955261952
  0
ARC
  5
64BF
  8
0
 10
18.7407229511753712
 20
18.1326798039934616
 30
0.0
 40
1.614491300607918
 50
89.1409621279035349
 51
95.6223908089581727
  0
ARC
  5
64C0
  8
0
 10
18.7950696496019987
 20
22.4958364459219489
 30
0.0
 40
2.749012047345798
 50
269.3717692705130275
 51
271.3146235973587181
  0
ARC
  5
64C1
  8
0
 10
18.5745595370528989
 20
38.2455076295901719
 30
0.0
 40
18.5745595528637288
 50
269.6694244810611849
 51
270.1559017409766739
  0
ARC
  5
64C2
  8
0
 10
18.4718657689205799
 20
20.4466874816682491
 30
0.0
 40
0.7754431515340197
 50
266.1924087295838035
 51
269.6694244810611849
  0
ARC
  5
64C3
  8
0
 10
18.420670491416189
 20
19.697305235251541
 30
0.0
 40
0.0243510872039879
 50
237.574552116457113
 51
269.2967489079658208
  0
ARC
  5
64C4
  8
0
 10
18.4153747727721786
 20
19.6858507639934004
 30
0.0
 40
0.0119603343623452
 50
180.0370851075628025
 51
229.5392928551794967
  0
LINE
  5
64C5
  8
0
 10
18.4034144409151814
 20
19.6858430225810395
 30
0.0
 11
18.4034144409151814
 21
19.7490506882810415
 31
0.0
  0
ARC
  5
64C6
  8
0
 10
18.4795767070448598
 20
18.4649179682395115
 30
0.0
 40
1.286389339765875
 50
89.0083595863617063
 51
93.3942522298393243
  0
ARC
  5
64C7
  8
0
 10
18.67998924409018
 20
274.3849054994178118
 30
0.0
 40
254.6338531722921914
 50
269.959914122701889
 51
270.0400858772978836
  0
LINE
  5
64C8
  8
0
 10
19.7242805827151813
 20
17.186593760681049
 30
0.0
 11
19.7242805827151813
 21
17.3243890362810511
 31
0.0
  0
ARC
  5
64C9
  8
0
 10
19.7045955433151789
 20
17.3243890362810511
 30
0.0
 40
0.0196850394000006
 50
359.9999999999997726
 51
90.0
  0
LINE
  5
64CA
  8
0
 10
19.4206388190632993
 20
17.3440740756810392
 30
0.0
 11
19.4206388190632993
 21
20.2196336419188505
 31
0.0
  0
ARC
  5
64CB
  8
0
 10
19.3912732262748193
 20
20.2203861248934196
 30
0.0
 40
0.0293752322619933
 50
358.5321370468619193
 51
76.6068789820861866
  0
ARC
  5
64CC
  8
0
 10
19.363782056656369
 20
20.0575827250337184
 30
0.0
 40
0.1944283320560142
 50
79.8403903073980672
 51
89.6427939787568135
  0
ARC
  5
64CD
  8
0
 10
19.2738764523260606
 20
16.3924462453898698
 30
0.0
 40
3.8606364517145049
 50
88.6475942299276056
 51
90.0512011371418453
  0
LINE
  5
64CE
  8
0
 10
19.2704264783176704
 20
20.25308115560685
 30
0.0
 11
18.8581388504151803
 21
20.2531462157714195
 31
0.0
  0
LINE
  5
64CF
  8
0
 10
19.1337294016151809
 20
19.7394040924810383
 30
0.0
 11
19.1337294016151809
 21
19.7353486181810389
 31
0.0
  0
ARC
  5
64D0
  8
0
 10
19.1333569693450087
 20
19.7353486181810389
 30
0.0
 40
0.0003724322701721
 50
323.3504451723047737
 51
359.9999999998768203
  0
LINE
  5
64D1
  8
0
 10
19.1336557723151905
 20
19.7351263062810389
 30
0.0
 11
18.9661800274151808
 21
19.4823706713810409
 31
0.0
  0
ARC
  5
64D2
  8
0
 10
18.9593426474952089
 20
19.4869923168469299
 30
0.0
 40
0.0082528401767107
 50
275.4524209170483005
 51
325.9437416475743134
  0
ARC
  5
64D3
  8
0
 10
19.1337385850075989
 20
19.741761079252349
 30
0.0
 40
0.0055827622209994
 50
269.9057509806297048
 51
314.6963577396517167
  0
ARC
  5
64D4
  8
0
 10
19.1324527243722891
 20
19.7306739344601993
 30
0.0
 40
0.0088230133090339
 50
53.78734790447389
 51
81.6801766500604174
  0
ARC
  5
64D5
  8
0
 10
18.9755547496550001
 20
18.1326798039934616
 30
0.0
 40
1.614491300607918
 50
84.377609191041941
 51
90.8590378720963656
  0
ARC
  5
64D6
  8
0
 10
18.9212080512283585
 20
22.4958364459219489
 30
0.0
 40
2.749012047345798
 50
268.685376402641225
 51
270.6282307294869725
  0
ARC
  5
64D7
  8
0
 10
19.1417181637774689
 20
38.2455076295901719
 30
0.0
 40
18.5745595528637288
 50
269.8440982590233261
 51
270.3305755189388151
  0
ARC
  5
64D8
  8
0
 10
19.2444119319097808
 20
20.4466874816682491
 30
0.0
 40
0.7754431515340197
 50
270.3305755189388151
 51
273.8075912704164239
  0
ARC
  5
64D9
  8
0
 10
19.2956072094141788
 20
19.697305235251541
 30
0.0
 40
0.0243510872039879
 50
270.7032510920341792
 51
302.4254478835429154
  0
ARC
  5
64DA
  8
0
 10
19.3009029280581785
 20
19.6858507639934004
 30
0.0
 40
0.0119603343623452
 50
310.4607071448205033
 51
359.9629148924371975
  0
LINE
  5
64DB
  8
0
 10
19.3128632599151793
 20
19.6858430225810395
 30
0.0
 11
19.3128632599151793
 21
19.7490506882810415
 31
0.0
  0
ARC
  5
64DC
  8
0
 10
19.2367009937855009
 20
18.4649179682395115
 30
0.0
 40
1.286389339765875
 50
86.6057477701606899
 51
90.9916404136383932
  0
ARC
  5
64DD
  8
0
 10
19.0362884567401913
 20
274.3849054994178118
 30
0.0
 40
254.6338531722921914
 50
269.959914122701889
 51
270.0400858772979973
  0
LINE
  5
64DE
  8
0
 10
18.8581388504151803
 20
19.7826446988810396
 30
0.0
 11
18.4465124539118897
 21
19.7825738496418886
 31
0.0
  0
ARC
  5
64DF
  8
0
 10
18.4482149446979484
 20
9.8912870029448516
 30
0.0
 40
9.89128699321361
 50
90.0098617639189769
 51
90.5083211738065927
  0
ARC
  5
64E0
  8
0
 10
18.3681834782528384
 20
18.9118534942383505
 30
0.0
 40
0.8703654848826323
 50
90.508321173806479
 51
94.7811258880082903
  0
LINE
  5
64E1
  8
0
 10
18.8581388504151803
 20
19.7826446988810396
 30
0.0
 11
19.269765246918471
 21
19.7825738496418886
 31
0.0
  0
ARC
  5
64E2
  8
0
 10
19.2680627561324087
 20
9.8912870029448516
 30
0.0
 40
9.89128699321361
 50
89.4916788261933931
 51
89.9901382360810231
  0
ARC
  5
64E3
  8
0
 10
19.3480942225775188
 20
18.9118534942383505
 30
0.0
 40
0.8703654848826323
 50
85.2188741119917239
 51
89.4916788261933931
  0
LINE
  5
64E4
  8
0
 10
17.9919971181151794
 20
17.24564887878104
 30
0.0
 11
19.7242805827151813
 21
17.2456488787810507
 31
0.0
  0
LINE
  5
64E5
  8
0
 10
18.8581388504151803
 20
17.186593760681049
 30
0.0
 11
20.1357999530772389
 21
16.0890186315406503
 31
0.0
  0
ENDBLK
  5
64E7
  8
0
  0
BLOCK
  8
0
  2
_FILLED
 70
     0
 10
0.0
 20
0.0
 30
0.0
  3
_FILLED
  1

  0
SOLID
  5
6DD4
  8
0
  6
BYBLOCK
 62
     0
 10
0.0
 20
0.0
 30
0.0
 11
-1.0
 21
0.1666666667
 31
0.0
 12
-1.0
 22
-0.1666666667
 32
0.0
 13
-1.0
 23
-0.1666666667
 33
0.0
  0
ENDBLK
  5
6DD5
  8
0
  6
BYBLOCK
 62
     0
  0
ENDSEC
  0
SECTION
  2
ENTITIES
  0
ATTDEF
  5
3930
  8
DEFPOINTS
 10
3797.8473837561041364
 20
434.4526895043208015
 30
0.0
 40
0.001
  1
K-73060W-3
  3

  2
MODELNUMBER
 70
     0
1001
ACDBATTR
1070
     0
1070
     1
  0
ATTDEF
  5
3931
  8
DEFPOINTS
 10
3797.8473837561041364
 20
434.4510228376541932
 30
0.0
 40
0.001
  1
COMPOSED
  3

  2
TRADENAME
 70
     0
1001
ACDBATTR
1070
     0
1070
     1
  0
ATTDEF
  5
3932
  8
DEFPOINTS
 10
3797.8473837561041364
 20
434.4493561709874143
 30
0.0
 40
0.001
  1
BATHROOM SINK FAUCET
  3

  2
PRODUCT
 70
     0
1001
ACDBATTR
1070
     0
1070
     1
  0
LINE
  5
8450
  8
0
 10
3796.8466011743971649
 20
434.4547636468681162
 30
0.0
 11
3798.8544751901968084
 21
434.4547636468681162
 31
0.0
  0
LINE
  5
8451
  8
0
 10
3798.8347901508968789
 20
434.6122439618682165
 30
0.0
 11
3796.8662862137980483
 21
434.6122439618682165
 31
0.0
  0
LINE
  5
8452
  8
0
 10
3796.8466011743971649
 20
434.4547636468681162
 30
0.0
 11
3796.8466011744972093
 21
434.5925589224680721
 31
0.0
  0
LINE
  5
8453
  8
0
 10
3797.1615618043970244
 20
434.6437400247680785
 30
0.0
 11
3797.1615618043970244
 21
438.2027761609680852
 31
0.0
  0
LINE
  5
8454
  8
0
 10
3797.1615618043970244
 20
438.2658073397681164
 30
0.0
 11
3797.1615618043970244
 21
438.9799567977681249
 31
0.0
  0
LINE
  5
8455
  8
0
 10
3797.3111681035970832
 20
439.0155748481681144
 30
0.0
 11
3798.3899082610969344
 21
439.0155748481681144
 31
0.0
  0
ARC
  5
8456
  8
0
 10
3797.1930578673968739
 20
434.6437400247680785
 30
0.0
 40
0.031496063
 50
180.0
 51
270.0
  0
ARC
  5
8457
  8
0
 10
3796.8662862137980483
 20
434.5925589224680721
 30
0.0
 40
0.0196850394
 50
90.0
 51
180.0
  0
ARC
  5
8458
  8
0
 10
3797.1946725928701198
 20
438.9793055040934178
 30
0.0
 40
0.03311719336196
 50
90.5416338532920548
 51
178.8731303008123064
  0
ARC
  5
8459
  8
0
 10
3797.314637383472018
 20
436.7222384087713181
 30
0.0
 40
2.29333906349851
 50
90.0866750031942445
 51
93.006348538432448
  0
ARC
  5
845A
  8
0
 10
3797.1993023444661048
 20
438.2004413226860038
 30
0.0
 40
0.0378114528814805
 50
88.8995636736126613
 51
176.4574630353361897
  0
ARC
  5
845B
  8
0
 10
3797.8505381823470088
 20
427.1043827761562284
 30
0.0
 40
11.1528502501119693
 50
86.6562248205760568
 51
93.3437751794239432
  0
ARC
  5
845C
  8
0
 10
3797.195285969323777
 20
438.2663088202256176
 30
0.0
 40
0.0337303220894707
 50
180.8993007273639932
 51
249.3581274937959904
  0
LINE
  5
845D
  8
0
 10
3794.8347901508968789
 20
434.4547636468681162
 30
0.0
 11
3792.8662862138971832
 21
434.4547636468681162
 31
0.0
  0
LINE
  5
845E
  8
0
 10
3794.8032940878970294
 20
434.6122439618682165
 30
0.0
 11
3792.8977822768979422
 21
434.6122439618682165
 31
0.0
  0
LINE
  5
845F
  8
0
 10
3794.2717915318971791
 20
435.5374408122680734
 30
0.0
 11
3793.429284832896883
 21
435.5374408122680734
 31
0.0
  0
LINE
  5
8460
  8
0
 10
3795.315105111496905
 20
435.5492518358681764
 30
0.0
 11
3792.3859712531980222
 21
435.5492518358681764
 31
0.0
  0
LINE
  5
8461
  8
0
 10
3795.315105111496905
 20
435.9035825011682164
 30
0.0
 11
3792.3859712531980222
 21
435.9035825011682164
 31
0.0
  0
LINE
  5
8462
  8
0
 10
3795.3466011743980744
 20
435.5807478986341152
 30
0.0
 11
3795.3466011743980744
 21
435.8720864383940921
 31
0.0
  0
LINE
  5
8463
  8
0
 10
3794.8347901508968789
 20
434.4547636468681162
 30
0.0
 11
3794.8347901508968789
 21
434.5807478988681964
 31
0.0
  0
LINE
  5
8464
  8
0
 10
3794.3032940878979389
 20
434.6437400248681797
 30
0.0
 11
3794.3032940878979389
 21
435.5059447492681102
 31
0.0
  0
LINE
  5
8465
  8
0
 10
3794.2355381823967946
 20
435.5492518358681764
 30
0.0
 11
3794.2355381823967946
 21
435.5374408122680734
 31
0.0
  0
LINE
  5
8466
  8
0
 10
3794.1654988122982104
 20
435.5807478988681964
 30
0.0
 11
3794.1654988122982104
 21
435.8720864381680826
 31
0.0
  0
LINE
  5
8467
  8
0
 10
3793.5355775524981254
 20
435.8720864381680826
 30
0.0
 11
3793.5355775524981254
 21
435.5807478988681964
 31
0.0
  0
LINE
  5
8468
  8
0
 10
3793.465538182398177
 20
435.5492518358681764
 30
0.0
 11
3793.465538182398177
 21
435.5374408122680734
 31
0.0
  0
LINE
  5
8469
  8
0
 10
3793.3977822768979422
 20
434.6437400248681797
 30
0.0
 11
3793.3977822768979422
 21
435.5059447492681102
 31
0.0
  0
LINE
  5
846A
  8
0
 10
3792.8662862138971832
 20
434.4547636468681162
 30
0.0
 11
3792.8662862138971832
 21
434.5807478988681964
 31
0.0
  0
LINE
  5
846B
  8
0
 10
3792.3544751901968084
 20
435.8720864381680826
 30
0.0
 11
3792.3544751901968084
 21
435.5807478988681964
 31
0.0
  0
ARC
  5
846C
  8
0
 10
3792.3859712531980222
 20
435.5807478988681964
 30
0.0
 40
0.031496063
 50
180.0
 51
270.0
  0
ARC
  5
846D
  8
0
 10
3793.5670736153979306
 20
435.5807478988681964
 30
0.0
 40
0.031496063
 50
180.0
 51
270.0
  0
ARC
  5
846E
  8
0
 10
3794.1340027492979061
 20
435.5807478988681964
 30
0.0
 40
0.031496063
 50
270.0
 51
0.0
  0
ARC
  5
846F
  8
0
 10
3795.3151051115678456
 20
435.580747898697382
 30
0.0
 40
0.0314960628292989
 50
269.9999998713660148
 51
359.9999998848430209
  0
ARC
  5
8470
  8
0
 10
3792.3859712531980222
 20
435.8720864381680826
 30
0.0
 40
0.031496063
 50
90.0
 51
180.0
  0
ARC
  5
8471
  8
0
 10
3795.3151051115678456
 20
435.8720864383387834
 30
0.0
 40
0.0314960628292957
 50
0.0000001005303617
 51
90.0000001286340421
  0
ARC
  5
8472
  8
0
 10
3793.5670736153979306
 20
435.8720864381680826
 30
0.0
 40
0.031496063
 50
90.0
 51
180.0
  0
ARC
  5
8473
  8
0
 10
3794.1340027492979061
 20
435.8720864381680826
 30
0.0
 40
0.031496063
 50
0.0
 51
90.0
  0
ARC
  5
8474
  8
0
 10
3793.4292783398968822
 20
435.5059447492681102
 30
0.0
 40
0.031496063
 50
90.0
 51
180.0
  0
ARC
  5
8475
  8
0
 10
3794.2717980248971799
 20
435.5059447492681102
 30
0.0
 40
0.031496063
 50
0.0
 51
90.0
  0
ARC
  5
8476
  8
0
 10
3794.3347901508968789
 20
434.6437400248681797
 30
0.0
 40
0.031496063
 50
180.0
 51
270.0
  0
ARC
  5
8477
  8
0
 10
3793.3662862138980927
 20
434.6437400248681797
 30
0.0
 40
0.031496063
 50
270.0
 51
0.0
  0
ARC
  5
8478
  8
0
 10
3792.8977822768979422
 20
434.5807478988681964
 30
0.0
 40
0.031496063
 50
90.0
 51
180.0
  0
ARC
  5
8479
  8
0
 10
3794.8032940878970294
 20
434.5807478988681964
 30
0.0
 40
0.031496063
 50
0.0
 51
90.0
  0
LINE
  5
847A
  8
0
 10
3798.3899082610469122
 20
438.4972863971681818
 30
0.0
 11
3797.3111681036471055
 21
438.4972863971681818
 31
0.0
  0
ARC
  5
847B
  8
0
 10
3797.3111681036471055
 20
434.8219655137220911
 30
0.0
 40
3.6753208834460658
 50
90.0
 51
91.632407078302947
  0
ARC
  5
847C
  8
0
 10
3797.2182800187179055
 20
438.081357849887695
 30
0.0
 40
0.4146052262050705
 50
91.632407078302947
 51
97.8627486754580644
  0
LINE
  5
847D
  8
0
 10
3798.8544751901968084
 20
434.4547636468681162
 30
0.0
 11
3798.8544751901968084
 21
434.5925589224680721
 31
0.0
  0
LINE
  5
847E
  8
0
 10
3798.5395145602969933
 20
434.6437400247680785
 30
0.0
 11
3798.5395145602969933
 21
438.2027761609680852
 31
0.0
  0
LINE
  5
847F
  8
0
 10
3798.5395145602969933
 20
438.2658073397681164
 30
0.0
 11
3798.5395145602969933
 21
438.9799567977681249
 31
0.0
  0
ARC
  5
8480
  8
0
 10
3798.5080184972971438
 20
434.6437400247680785
 30
0.0
 40
0.031496063
 50
270.0
 51
0.0
  0
ARC
  5
8481
  8
0
 10
3798.8347901509678195
 20
434.5925589226387729
 30
0.0
 40
0.0196850392292909
 50
359.9999995031291746
 51
90.0000002058092718
  0
ARC
  5
8482
  8
0
 10
3798.5064037718248073
 20
438.9793055040934178
 30
0.0
 40
0.03311719336196
 50
1.126869699187669
 51
89.4583661467079452
  0
ARC
  5
8483
  8
0
 10
3798.3683927826127729
 20
436.0538180818650176
 30
0.0
 40
2.9618349141295122
 50
87.3231903896688664
 51
89.5837860686963552
  0
ARC
  5
8484
  8
0
 10
3798.5017740202288223
 20
438.2004413226860038
 30
0.0
 40
0.0378114528814805
 50
3.542536964663801
 51
91.1004363263873529
  0
ARC
  5
8485
  8
0
 10
3798.505790395369786
 20
438.2663088202256176
 30
0.0
 40
0.0337303220894707
 50
290.6418725062040949
 51
359.1006992726358931
  0
LINE
  5
8486
  8
0
 10
3800.8662862136970944
 20
434.4547636468681162
 30
0.0
 11
3802.8347901506967901
 21
434.4547636468681162
 31
0.0
  0
LINE
  5
8487
  8
0
 10
3800.8977822766969439
 20
434.6122439618682165
 30
0.0
 11
3802.8032940876969406
 21
434.6122439618682165
 31
0.0
  0
LINE
  5
8488
  8
0
 10
3801.4292848326967942
 20
435.5374408122680734
 30
0.0
 11
3802.2717915316979997
 21
435.5374408122680734
 31
0.0
  0
LINE
  5
8489
  8
0
 10
3800.3859712530979778
 20
435.5492518358681764
 30
0.0
 11
3803.3151051113968606
 21
435.5492518358681764
 31
0.0
  0
LINE
  5
848A
  8
0
 10
3800.3859712530979778
 20
435.9035825011682164
 30
0.0
 11
3803.3151051113968606
 21
435.9035825011682164
 31
0.0
  0
LINE
  5
848B
  8
0
 10
3800.3544751901968084
 20
435.5807478986341152
 30
0.0
 11
3800.3544751901968084
 21
435.8720864383940921
 31
0.0
  0
LINE
  5
848C
  8
0
 10
3800.8662862136970944
 20
434.4547636468681162
 30
0.0
 11
3800.8662862136970944
 21
434.5807478988681964
 31
0.0
  0
LINE
  5
848D
  8
0
 10
3801.3977822766969439
 20
434.6437400248681797
 30
0.0
 11
3801.3977822766969439
 21
435.5059447492681102
 31
0.0
  0
LINE
  5
848E
  8
0
 10
3801.4655381821980882
 20
435.5492518358681764
 30
0.0
 11
3801.4655381821980882
 21
435.5374408122680734
 31
0.0
  0
LINE
  5
848F
  8
0
 10
3801.5355775522971271
 20
435.5807478988681964
 30
0.0
 11
3801.5355775522971271
 21
435.8720864381680826
 31
0.0
  0
LINE
  5
8490
  8
0
 10
3802.1654988120972121
 20
435.8720864381680826
 30
0.0
 11
3802.1654988120972121
 21
435.5807478988681964
 31
0.0
  0
LINE
  5
8491
  8
0
 10
3802.2355381821971605
 20
435.5492518358681764
 30
0.0
 11
3802.2355381821971605
 21
435.5374408122680734
 31
0.0
  0
LINE
  5
8492
  8
0
 10
3802.30329408769785
 20
434.6437400248681797
 30
0.0
 11
3802.30329408769785
 21
435.5059447492681102
 31
0.0
  0
LINE
  5
8493
  8
0
 10
3802.8347901506967901
 20
434.4547636468681162
 30
0.0
 11
3802.8347901506967901
 21
434.5807478988681964
 31
0.0
  0
LINE
  5
8494
  8
0
 10
3803.3466011743980744
 20
435.8720864381680826
 30
0.0
 11
3803.3466011743980744
 21
435.5807478988681964
 31
0.0
  0
ARC
  5
8495
  8
0
 10
3803.3151051113968606
 20
435.5807478988681964
 30
0.0
 40
0.031496063
 50
270.0
 51
0.0
  0
ARC
  5
8496
  8
0
 10
3802.1340027491969522
 20
435.5807478988681964
 30
0.0
 40
0.031496063
 50
270.0
 51
0.0
  0
ARC
  5
8497
  8
0
 10
3801.5670736152969766
 20
435.5807478988681964
 30
0.0
 40
0.031496063
 50
180.0
 51
270.0
  0
ARC
  5
8498
  8
0
 10
3800.3859712530270372
 20
435.580747898697382
 30
0.0
 40
0.0314960628292989
 50
180.0000001151570075
 51
270.0000001286339852
  0
ARC
  5
8499
  8
0
 10
3803.3151051113968606
 20
435.8720864381680826
 30
0.0
 40
0.031496063
 50
0.0
 51
90.0
  0
ARC
  5
849A
  8
0
 10
3800.3859712530270372
 20
435.8720864383387834
 30
0.0
 40
0.0314960628292957
 50
89.9999998713659437
 51
179.9999998994696
  0
ARC
  5
849B
  8
0
 10
3802.1340027491969522
 20
435.8720864381680826
 30
0.0
 40
0.031496063
 50
0.0
 51
90.0
  0
ARC
  5
849C
  8
0
 10
3801.5670736152969766
 20
435.8720864381680826
 30
0.0
 40
0.031496063
 50
90.0
 51
180.0
  0
ARC
  5
849D
  8
0
 10
3802.2717980246980005
 20
435.5059447492681102
 30
0.0
 40
0.031496063
 50
0.0
 51
90.0
  0
ARC
  5
849E
  8
0
 10
3801.4292783396967934
 20
435.5059447492681102
 30
0.0
 40
0.031496063
 50
90.0
 51
180.0
  0
ARC
  5
849F
  8
0
 10
3801.3662862136980038
 20
434.6437400248681797
 30
0.0
 40
0.031496063
 50
270.0
 51
0.0
  0
ARC
  5
84A0
  8
0
 10
3802.3347901506967901
 20
434.6437400248681797
 30
0.0
 40
0.031496063
 50
180.0
 51
270.0
  0
ARC
  5
84A1
  8
0
 10
3802.8032940876969406
 20
434.5807478988681964
 30
0.0
 40
0.031496063
 50
0.0
 51
90.0
  0
ARC
  5
84A2
  8
0
 10
3800.8977822766969439
 20
434.5807478988681964
 30
0.0
 40
0.031496063
 50
90.0
 51
180.0
  0
ARC
  5
84A3
  8
0
 10
3798.3899082610469122
 20
434.8219655137220911
 30
0.0
 40
3.6753208834460658
 50
88.3675929216970388
 51
90.0
  0
ARC
  5
84A4
  8
0
 10
3798.4827963459770217
 20
438.081357849887695
 30
0.0
 40
0.4146052262050705
 50
82.1372513245419071
 51
88.3675929216970388
  0
ARC
  5
84A5
  8
0
 10
3797.8145480774819589
 20
429.9494347368677154
 30
0.0
 40
8.5095809120290742
 50
89.7576746400153098
 51
92.5132926741655268
  0
ARC
  5
84A6
  8
0
 10
3797.4673200506781541
 20
437.8601492514794131
 30
0.0
 40
0.5912495578682186
 50
92.5132963872545844
 51
98.4286272707801544
  0
LINE
  5
84A7
  8
0
 10
3797.3806562924969512
 20
438.4450128532681106
 30
0.0
 11
3797.3806562924969512
 21
438.4174968866681183
 31
0.0
  0
LINE
  5
84A8
  8
0
 10
3797.3806562924969512
 20
438.4174968866681183
 30
0.0
 11
3797.4184515680972254
 21
438.3892453922372283
 31
0.0
  0
LINE
  5
84A9
  8
0
 10
3797.4184515680972254
 20
438.3892453922372283
 30
0.0
 11
3797.4184515680972254
 21
438.2823055286680756
 31
0.0
  0
ARC
  5
84AA
  8
0
 10
3797.849302905507102
 20
426.7267587350715985
 30
0.0
 40
11.5656625620903508
 50
89.9938804935335384
 51
90.7057339778383351
  0
ARC
  5
84AB
  8
0
 10
3797.7844078713760609
 20
431.9950661174403876
 30
0.0
 40
6.2969555062201561
 50
90.7057339778122866
 51
92.8391045819277565
  0
ARC
  5
84AC
  8
0
 10
3797.4819525877451269
 20
438.0938994047498909
 30
0.0
 40
0.1906270950560193
 50
92.8391045819277565
 51
106.4140918543797056
  0
ARC
  5
84AD
  8
0
 10
3797.4634693346911263
 20
438.4073796029708205
 30
0.0
 40
0.1353298319543083
 50
254.8431502645098874
 51
267.3798369376560231
  0
LINE
  5
84AE
  8
0
 10
3797.4280856805980875
 20
438.2767573979680833
 30
0.0
 11
3797.4184515680972254
 21
438.2823055286680756
 31
0.0
  0
ARC
  5
84AF
  8
0
 10
3797.7439832598061002
 20
443.0293959183986203
 30
0.0
 40
4.7658360642469031
 50
266.5511506421045738
 51
269.6727308501039033
  0
ARC
  5
84B0
  8
0
 10
3805.1625516623580552
 20
1741.8014683576220705
 30
0.0
 40
1303.5590957115321089
 50
269.672730846404022
 51
269.6786108811465965
  0
ARC
  5
84B1
  8
0
 10
3797.841185962714917
 20
445.9825782186900938
 30
0.0
 40
7.7145289485034061
 50
268.5591382243470093
 51
270.0694589191372188
  0
ARC
  5
84B2
  8
0
 10
3797.7026002427078311
 20
440.4728873792851118
 30
0.0
 40
2.2030954555169511
 50
265.6127649945822782
 51
268.5591382243470093
  0
ARC
  5
84B3
  8
0
 10
3797.5410577170928264
 20
438.3673223895463025
 30
0.0
 40
0.0913426495295574
 50
254.9820371163663992
 51
265.6127649945822782
  0
ARC
  5
84B4
  8
0
 10
3797.5234583122751246
 20
438.3017227884026283
 30
0.0
 40
0.0234232361031078
 50
222.5827804515706134
 51
254.9820371163663992
  0
ARC
  5
84B5
  8
0
 10
3797.8865282871129239
 20
429.9494347368698755
 30
0.0
 40
8.5095809120268626
 50
87.486707325834459
 51
90.242325359984676
  0
ARC
  5
84B6
  8
0
 10
3798.2337563139158192
 20
437.8601492514794131
 30
0.0
 40
0.5912495578682186
 50
81.5713727292198456
 51
87.486703612745444
  0
LINE
  5
84B7
  8
0
 10
3798.3204200720970221
 20
438.4450128532681106
 30
0.0
 11
3798.3204200720970221
 21
438.4174968866681183
 31
0.0
  0
LINE
  5
84B8
  8
0
 10
3798.3204200720970221
 20
438.4174968866681183
 30
0.0
 11
3798.2826247964981121
 21
438.3892453922372283
 31
0.0
  0
LINE
  5
84B9
  8
0
 10
3798.2826247964981121
 20
438.3892453922372283
 30
0.0
 11
3798.2826247964981121
 21
438.2823055286680756
 31
0.0
  0
ARC
  5
84BA
  8
0
 10
3797.8517734590877808
 20
426.7267587350715985
 30
0.0
 40
11.5656625620903508
 50
89.2942660221616649
 51
90.0061195064664759
  0
ARC
  5
84BB
  8
0
 10
3797.9166684932179123
 20
431.9950661174403876
 30
0.0
 40
6.2969555062201561
 50
87.1608954180722151
 51
89.2942660221616649
  0
ARC
  5
84BC
  8
0
 10
3798.2191237768488463
 20
438.0938994047498909
 30
0.0
 40
0.1906270950560193
 50
73.5859081456202233
 51
87.1608954180722151
  0
ARC
  5
84BD
  8
0
 10
3798.2376070299042112
 20
438.4073796029708205
 30
0.0
 40
0.1353298319543083
 50
272.6201630623439769
 51
285.1568497354901979
  0
LINE
  5
84BE
  8
0
 10
3798.2729906839967953
 20
438.2767573979680833
 30
0.0
 11
3798.2826247964981121
 21
438.2823055286680756
 31
0.0
  0
ARC
  5
84BF
  8
0
 10
3797.957093104787873
 20
443.0293959183986203
 30
0.0
 40
4.7658360642469031
 50
270.3272691498962104
 51
273.4488493578954262
  0
ARC
  5
84C0
  8
0
 10
3790.5385247022250041
 20
1741.8014683595270071
 30
0.0
 40
1303.5590957134370456
 50
270.3213891188532898
 51
270.327269153595978
  0
ARC
  5
84C1
  8
0
 10
3797.8598904018799658
 20
445.9825782186900938
 30
0.0
 40
7.7145289485034061
 50
269.9305410808627812
 51
271.440861775652877
  0
ARC
  5
84C2
  8
0
 10
3797.9984761218870517
 20
440.4728873792851118
 30
0.0
 40
2.2030954555169511
 50
271.440861775652877
 51
274.3872350054177218
  0
ARC
  5
84C3
  8
0
 10
3798.1600186475011469
 20
438.3673223895463025
 30
0.0
 40
0.0913426495295574
 50
274.3872350054177218
 51
285.0179628836335723
  0
ARC
  5
84C4
  8
0
 10
3798.1776180523202129
 20
438.3017227884026283
 30
0.0
 40
0.0234232361031078
 50
285.0179628836335723
 51
317.4172195484292729
  0
ENDSEC
  0
EOF
