  0
SECTION
  2
HEADER
  9
$ACADVER
  1
AC1009
  9
$INSBASE
 10
476.4146998599683798
 20
29.3978392787178215
 30
0.0
  9
$EXTMIN
 10
452.7542877261041099
 20
24.2678225853210705
 30
0.0
  9
$EXTMAX
 10
480.8038156948314281
 20
36.5453993105486319
 30
0.0
  9
$LIMMIN
 10
0.0
 20
0.0
  9
$LIMMAX
 10
11.6929133858000007
 20
8.2677165353999982
  9
$ORTHOMODE
 70
     0
  9
$REGENMODE
 70
     1
  9
$FILLMODE
 70
     1
  9
$QTEXTMODE
 70
     0
  9
$MIRRTEXT
 70
     0
  9
$DRAGMODE
 70
     2
  9
$LTSCALE
 40
0.6431102362
  9
$OSMODE
 70
  4095
  9
$ATTMODE
 70
     1
  9
$TEXTSIZE
 40
0.2
  9
$TRACEWID
 40
0.05
  9
$TEXTSTYLE
  7
STANDARD
  9
$CLAYER
  8
0
  9
$CELTYPE
  6
BYLAYER
  9
$CECOLOR
 62
   256
  9
$DIMSCALE
 40
1.0
  9
$DIMASZ
 40
0.1875
  9
$DIMEXO
 40
0.0625
  9
$DIMDLI
 40
0.4443307087
  9
$DIMRND
 40
0.0
  9
$DIMDLE
 40
0.0
  9
$DIMEXE
 40
0.125
  9
$DIMTP
 40
0.01
  9
$DIMTM
 40
0.01
  9
$DIMTXT
 40
1.0
  9
$DIMCEN
 40
0.1052362205
  9
$DIMTSZ
 40
0.0
  9
$DIMTOL
 70
     1
  9
$DIMLIM
 70
     0
  9
$DIMTIH
 70
     0
  9
$DIMTOH
 70
     1
  9
$DIMSE1
 70
     0
  9
$DIMSE2
 70
     0
  9
$DIMTAD
 70
     0
  9
$DIMZIN
 70
     0
  9
$DIMBLK
  1

  9
$DIMASO
 70
     1
  9
$DIMSHO
 70
     1
  9
$DIMPOST
  1
\X
  9
$DIMAPOST
  1

  9
$DIMALT
 70
     1
  9
$DIMALTD
 70
     2
  9
$DIMALTF
 40
25.3999999999999986
  9
$DIMLFAC
 40
1.0
  9
$DIMTOFL
 70
     0
  9
$DIMTVP
 40
0.0
  9
$DIMTIX
 70
     0
  9
$DIMSOXD
 70
     0
  9
$DIMSAH
 70
     0
  9
$DIMBLK1
  1

  9
$DIMBLK2
  1

  9
$DIMSTYLE
  2
STANDARD
  9
$DIMCLRD
 70
     0
  9
$DIMCLRE
 70
     0
  9
$DIMCLRT
 70
     0
  9
$DIMTFAC
 40
1.0
  9
$DIMGAP
 40
0.09
  9
$LUNITS
 70
     2
  9
$LUPREC
 70
     4
  9
$SKETCHINC
 40
0.1
  9
$FILLETRAD
 40
0.0
  9
$AUNITS
 70
     0
  9
$AUPREC
 70
     0
  9
$MENU
  1
.
  9
$ELEVATION
 40
0.0
  9
$PELEVATION
 40
0.0
  9
$THICKNESS
 40
0.0
  9
$LIMCHECK
 70
     0
  9
$BLIPMODE
 70
     0
  9
$CHAMFERA
 40
0.0
  9
$CHAMFERB
 40
0.0
  9
$SKPOLY
 70
     0
  9
$TDCREATE
 40
2458172.5207638889551163
  9
$TDUPDATE
 40
2459115.600891204085201
  9
$TDINDWG
 40
0.2736198843
  9
$TDUSRTIMER
 40
0.2736198843
  9
$USRTIMER
 70
     1
  9
$ANGBASE
 50
0.0
  9
$ANGDIR
 70
     0
  9
$PDMODE
 70
     0
  9
$PDSIZE
 40
0.3125
  9
$PLINEWID
 40
0.0
  9
$COORDS
 70
     1
  9
$SPLFRAME
 70
     0
  9
$SPLINETYPE
 70
     6
  9
$SPLINESEGS
 70
     8
  9
$ATTDIA
 70
     1
  9
$ATTREQ
 70
     1
  9
$HANDLING
 70
     1
  9
$HANDSEED
  5
FD9E
  9
$SURFTAB1
 70
     6
  9
$SURFTAB2
 70
     6
  9
$SURFTYPE
 70
     6
  9
$SURFU
 70
     6
  9
$SURFV
 70
     6
  9
$UCSNAME
  2

  9
$UCSORG
 10
0.0
 20
0.0
 30
0.0
  9
$UCSXDIR
 10
1.0
 20
0.0
 30
0.0
  9
$UCSYDIR
 10
0.0
 20
1.0
 30
0.0
  9
$PUCSNAME
  2

  9
$PUCSORG
 10
0.0
 20
0.0
 30
0.0
  9
$PUCSXDIR
 10
1.0
 20
0.0
 30
0.0
  9
$PUCSYDIR
 10
0.0
 20
1.0
 30
0.0
  9
$USERI1
 70
     0
  9
$USERI2
 70
     0
  9
$USERI3
 70
     0
  9
$USERI4
 70
     0
  9
$USERI5
 70
     0
  9
$USERR1
 40
0.0
  9
$USERR2
 40
0.0
  9
$USERR3
 40
0.0
  9
$USERR4
 40
0.0
  9
$USERR5
 40
0.0
  9
$WORLDVIEW
 70
     1
  9
$SHADEDGE
 70
     3
  9
$SHADEDIF
 70
    70
  9
$TILEMODE
 70
     1
  9
$MAXACTVP
 70
    64
  9
$PLIMCHECK
 70
     0
  9
$PEXTMIN
 10
1.0000000000000000E+20
 20
1.0000000000000000E+20
 30
1.0000000000000000E+20
  9
$PEXTMAX
 10
-1.0000000000000000E+20
 20
-1.0000000000000000E+20
 30
-1.0000000000000000E+20
  9
$PLIMMIN
 10
0.0
 20
0.0
  9
$PLIMMAX
 10
12.0
 20
9.0
  9
$UNITMODE
 70
     0
  9
$VISRETAIN
 70
     1
  9
$PLINEGEN
 70
     0
  9
$PSLTSCALE
 70
     1
  0
ENDSEC
  0
SECTION
  2
TABLES
  0
TABLE
  2
VPORT
 70
     1
  0
VPORT
  2
*ACTIVE
 70
     0
 10
0.0
 20
0.0
 11
1.0
 21
1.0
 12
52.3213551619068795
 22
-44.4312753998318328
 13
0.0
 23
0.0
 14
1.0
 24
1.0
 15
0.0
 25
0.0
 16
0.0
 26
0.0
 36
14.6338572656650907
 17
429.6292891080536833
 27
69.7025415122186871
 37
0.0
 40
49.0265343273924827
 41
2.005224660397074
 42
50.0
 43
0.0
 44
0.0
 50
0.0
 51
0.0
 71
     0
 72
   100
 73
     1
 74
     1
 75
     0
 76
     0
 77
     0
 78
     0
  0
ENDTAB
  0
TABLE
  2
LTYPE
 70
     2
  0
LTYPE
  2
CONTINUOUS
 70
     0
  3
Solid line
 72
    65
 73
     0
 40
0.0
  0
LTYPE
  2
PHANTOM2
 70
     0
  3
___ _ _ ___ _ _ ___ _ _ ___ _ _
 72
    65
 73
     6
 40
1.25
 49
0.625
 49
-0.125
 49
0.125
 49
-0.125
 49
0.125
 49
-0.125
  0
ENDTAB
  0
TABLE
  2
LAYER
 70
     2
  0
LAYER
  2
0
 70
     0
 62
   255
  6
CONTINUOUS
  0
LAYER
  2
DEFPOINTS
 70
     0
 62
     7
  6
CONTINUOUS
  0
ENDTAB
  0
TABLE
  2
STYLE
 70
     1
  0
STYLE
  2
STANDARD
 70
     0
 40
0.0
 41
0.8
 50
0.0
 71
     0
 42
0.2
  3
txt
  4

  0
ENDTAB
  0
TABLE
  2
VIEW
 70
     0
  0
ENDTAB
  0
TABLE
  2
UCS
 70
     0
  0
ENDTAB
  0
TABLE
  2
APPID
 70
    10
  0
APPID
  2
ACAD
 70
     0
  0
APPID
  2
ACAD_MLEADERVER
 70
     0
  0
APPID
  2
ACAD_EXEMPT_FROM_CAD_STANDARDS
 70
     0
  0
APPID
  2
ACAD_DSTYLE_DIMJAG
 70
     0
  0
APPID
  2
ACAD_DSTYLE_DIMTALN
 70
     0
  0
APPID
  2
ACAD_NAV_VCDISPLAY
 70
     0
  0
APPID
  2
ACAECLAYERSTANDARD
 70
     0
  0
APPID
  2
ACCMTRANSPARENCY
 70
     0
  0
APPID
  2
DCO15
 70
     0
  0
APPID
  2
ACDBATTR
 70
     0
  0
ENDTAB
  0
TABLE
  2
DIMSTYLE
 70
     1
  0
DIMSTYLE
  2
STANDARD
 70
     0
  3

  4

  5

  6

  7

 40
1.0
 41
0.1875
 42
0.0625
 43
0.38
 44
0.125
 45
0.0
 46
0.0
 47
0.01
 48
0.01
140
0.15625
141
0.09
142
0.0
143
25.3999999999999986
144
1.0
145
0.0
146
1.0
147
0.09
 71
     1
 72
     0
 73
     1
 74
     1
 75
     0
 76
     0
 77
     0
 78
     4
170
     0
171
     2
172
     0
173
     0
174
     0
175
     0
176
     0
177
     0
178
     0
  0
ENDTAB
  0
ENDSEC
  0
SECTION
  2
BLOCKS
  0
BLOCK
  8
0
  2
$MODEL_SPACE
 70
     0
 10
0.0
 20
0.0
 30
0.0
  3
$MODEL_SPACE
  1

  0
ENDBLK
  5
21
  8
0
  0
BLOCK
 67
     1
  8
0
  2
$PAPER_SPACE
 70
     0
 10
0.0
 20
0.0
 30
0.0
  3
$PAPER_SPACE
  1

  0
ENDBLK
  5
1D
 67
     1
  8
0
  0
BLOCK
  8
0
  2
_FILLED
 70
     0
 10
0.0
 20
0.0
 30
0.0
  3
_FILLED
  1

  0
SOLID
  5
87E2
  8
0
  6
BYBLOCK
 62
     0
 10
0.0
 20
0.0
 30
0.0
 11
-1.0
 21
0.1666666667
 31
0.0
 12
-1.0
 22
-0.1666666667
 32
0.0
 13
-1.0
 23
-0.1666666667
 33
0.0
  0
ENDBLK
  5
87E3
  8
0
  6
BYBLOCK
 62
     0
  0
ENDSEC
  0
SECTION
  2
ENTITIES
  0
ATTDEF
  5
C848
  8
DEFPOINTS
 10
476.4174139689719141
 20
29.4018280701487704
 30
0.0
 40
0.001
  1
K-73060T-9ACH
  3

  2
MODELNUMBER
 70
     0
1001
ACDBATTR
1070
     0
1070
     1
  0
ATTDEF
  5
C849
  8
DEFPOINTS
 10
476.4174139689719141
 20
29.4001614034821017
 30
0.0
 40
0.001
  1
COMPOSED
  3

  2
TRADENAME
 70
     0
1001
ACDBATTR
1070
     0
1070
     1
  0
ATTDEF
  5
C84A
  8
DEFPOINTS
 10
476.4174139689719141
 20
29.3984947368154401
 30
0.0
 40
0.001
  1
BATHROOM SINK FAUCET
  3

  2
PRODUCT
 70
     0
1001
ACDBATTR
1070
     0
1070
     1
  0
LINE
  5
FCB9
  8
0
 10
478.0338366262682825
 20
31.359574323117819
 30
0.0
 11
477.5810807207682842
 21
31.359574323117819
 31
0.0
  0
LINE
  5
FCBA
  8
0
 10
478.0338366262682825
 20
31.5761097562178215
 30
0.0
 11
477.5810807207682842
 21
31.5761097562178215
 31
0.0
  0
LINE
  5
FCBB
  8
0
 10
478.053521665668427
 20
31.3792593625178213
 30
0.0
 11
478.053521665668427
 21
31.5564247168178191
 31
0.0
  0
ARC
  5
FCBC
  8
0
 10
477.5810807207682842
 20
31.0741412523178298
 30
0.0
 40
0.5019685039000001
 50
90.0
 51
116.1843461462297
  0
ARC
  5
FCBD
  8
0
 10
477.5810807207682842
 20
31.0741412523178298
 30
0.0
 40
0.2854330709
 50
90.0
 51
140.8967096748895074
  0
ARC
  5
FCBE
  8
0
 10
478.0338366262682825
 20
31.5564247168178191
 30
0.0
 40
0.0196850394
 50
0.0
 51
90.0
  0
ARC
  5
FCBF
  8
0
 10
478.0338366262682825
 20
31.3792593625178213
 30
0.0
 40
0.0196850394
 50
270.0
 51
0.0
  0
ARC
  5
FCC0
  8
0
 10
475.7571543844700841
 20
33.1688795460122066
 30
0.0
 40
0.0314309765077399
 50
87.9774723172138948
 51
180.1244186726675025
  0
ARC
  5
FCC1
  8
0
 10
477.0716735463063856
 20
33.1861016348088711
 30
0.0
 40
0.0316565669414119
 50
272.5342532781349973
 51
359.7491319787832253
  0
ARC
  5
FCC2
  8
0
 10
477.0722454892708129
 20
33.12295604479052
 30
0.0
 40
0.031430819071749
 50
359.8787542752667719
 51
88.4971735506684638
  0
LINE
  5
FCC3
  8
0
 10
469.7859819561663244
 20
33.440362028767197
 30
0.0
 11
469.803019505766315
 21
33.9282536136672022
 31
0.0
  0
LINE
  5
FCC4
  8
0
 10
477.1033298092194741
 20
33.1859636269177827
 30
0.0
 11
477.1028533143075947
 21
33.6744618966353926
 31
0.0
  0
LINE
  5
FCC5
  8
0
 10
470.1715665557367743
 20
33.2575035491270228
 30
0.0
 11
470.7342165908083871
 21
33.2378551768671073
 31
0.0
  0
LINE
  5
FCC6
  8
0
 10
470.101799938668421
 20
33.3466022788543484
 30
0.0
 11
470.8100296586683839
 21
33.3218739345918209
 31
0.0
  0
LINE
  5
FCC7
  8
0
 10
469.8163596287424753
 20
33.4077859558683983
 30
0.0
 11
477.0706369139194862
 21
33.1544620451177821
 31
0.0
  0
LINE
  5
FCC8
  8
0
 10
469.8355955789663199
 20
33.9586312933671977
 30
0.0
 11
477.072447945407589
 21
33.705913762735392
 31
0.0
  0
ARC
  5
FCC9
  8
0
 10
470.2117129881576716
 20
33.5188968175370974
 30
0.0
 40
0.6299213082718698
 50
341.7735275174143226
 51
346.569170687025121
  0
ARC
  5
FCCA
  8
0
 10
470.7128930046732194
 20
33.5015041670412188
 30
0.0
 40
0.6304199634236345
 50
189.4317574926562031
 51
194.2239275603346016
  0
ARC
  5
FCCB
  8
0
 10
470.6233631796895907
 20
33.3497023203974621
 30
0.0
 40
0.1574746400935108
 50
314.744336984932886
 51
350.2275029690500219
  0
ARC
  5
FCCC
  8
0
 10
470.2899584745683796
 20
33.3613467152918304
 30
0.0
 40
0.1574803150000041
 50
185.7740755777346919
 51
221.2544422555403116
  0
ARC
  5
FCCD
  8
0
 10
469.8174588326663184
 20
33.4392628320672003
 30
0.0
 40
0.0314960630000054
 50
178.0000000000073044
 51
267.999986936030723
  0
ARC
  5
FCCE
  8
0
 10
469.8344963821663214
 20
33.9271544168671966
 30
0.0
 40
0.031496063
 50
87.9999999999996163
 51
178.0
  0
ARC
  5
FCCF
  8
0
 10
477.071340786351584
 20
33.674420663218271
 30
0.0
 40
0.0315125549324413
 50
0.0749701652274195
 51
87.9865612528374754
  0
LINE
  5
FCD0
  8
0
 10
475.410762852118296
 20
29.3978392787178215
 30
0.0
 11
477.4186368678184067
 21
29.3978392787178215
 31
0.0
  0
LINE
  5
FCD1
  8
0
 10
475.430447891418396
 20
29.5553195937178188
 30
0.0
 11
475.4895030095684092
 21
29.5553195937178188
 31
0.0
  0
LINE
  5
FCD2
  8
0
 10
475.410762852118296
 20
29.3978392787178215
 30
0.0
 11
475.410762852118296
 21
29.53563455431782
 31
0.0
  0
LINE
  5
FCD3
  8
0
 10
475.7257234820683038
 20
33.1688112932135297
 30
0.0
 11
475.7257234820683038
 21
31.7206739243178184
 31
0.0
  0
LINE
  5
FCD4
  8
0
 10
477.1036762379683864
 20
31.7206739243178184
 30
0.0
 11
477.1036762379683864
 21
33.1228895329178172
 31
0.0
  0
LINE
  5
FCD5
  8
0
 10
477.4186368678184067
 20
29.3978392787178215
 30
0.0
 11
477.4186368678184067
 21
29.53563455431782
 31
0.0
  0
ARC
  5
FCD6
  8
0
 10
477.3989518284183191
 20
29.53563455431782
 30
0.0
 40
0.0196850394
 50
0.0
 51
90.0
  0
ARC
  5
FCD7
  8
0
 10
475.430447891418396
 20
29.53563455431782
 30
0.0
 40
0.0196850394
 50
90.0
 51
180.0
  0
ARC
  5
FCD8
  8
0
 10
477.1274248022098163
 20
34.726640012307449
 30
0.0
 40
1.5732032369573601
 50
267.9313458954715088
 51
268.0200065891160079
  0
ARC
  5
FCD9
  8
0
 10
477.0717361744282243
 20
33.1859139203004005
 30
0.0
 40
0.0314710792024843
 50
267.9982954686057042
 51
272.4214007658932815
  0
LINE
  5
FCDA
  8
0
 10
475.4895030095684092
 20
31.7206739243178184
 30
0.0
 11
475.4698179702684229
 21
31.7009888850178214
 31
0.0
  0
LINE
  5
FCDB
  8
0
 10
475.4698179702684229
 20
31.7009888850178214
 30
0.0
 11
475.4698179702684229
 21
29.8505951842178199
 31
0.0
  0
LINE
  5
FCDC
  8
0
 10
475.4698179702684229
 20
29.8505951842178199
 30
0.0
 11
475.4895030095684092
 21
29.8309101448178211
 31
0.0
  0
ARC
  5
FCDD
  8
0
 10
475.4688043212976822
 20
29.8719861428261417
 30
0.0
 40
0.0111015471689757
 50
61.8744840718044173
 51
74.90135687912381
  0
ARC
  5
FCDE
  8
0
 10
475.4709788948223945
 20
29.8804516363582415
 30
0.0
 40
0.0023642157333625
 50
72.3413081348226257
 51
102.7398775042934034
  0
ARC
  5
FCDF
  8
0
 10
475.4706298473116135
 20
29.8820096975714584
 30
0.0
 40
0.000767544630504
 50
102.9739627704516067
 51
154.7673200107581977
  0
ARC
  5
FCE0
  8
0
 10
475.4714270599814085
 20
29.8816797548436206
 30
0.0
 40
0.0016298690895027
 50
156.2223820913777104
 51
170.8411697108388125
  0
ARC
  5
FCE1
  8
0
 10
475.5964081398682879
 20
30.1063269999640291
 30
0.0
 40
0.2557290306220981
 50
241.4114591310984963
 51
298.5885408689013047
  0
ARC
  5
FCE2
  8
0
 10
475.7245428167684054
 20
29.866094216358011
 30
0.0
 40
0.0167083441390343
 50
69.8189317427737421
 51
110.1810682580035063
  0
ARC
  5
FCE3
  8
0
 10
475.9422589151186003
 20
30.5866062449861289
 30
0.0
 40
0.7360082756390831
 50
253.2632442411639033
 51
286.736755760295182
  0
ARC
  5
FCE4
  8
0
 10
476.1620848496182248
 20
29.852430058796191
 30
0.0
 40
0.0303847088910445
 50
74.9807223325827579
 51
105.0192776667527994
  0
ARC
  5
FCE5
  8
0
 10
475.4688043212976822
 20
31.6795979263095013
 30
0.0
 40
0.0111015471689757
 50
285.0986431208760905
 51
298.1255159281956821
  0
ARC
  5
FCE6
  8
0
 10
475.4709788948223945
 20
31.6711324327774015
 30
0.0
 40
0.0023642157333625
 50
257.2601224957065256
 51
287.6586918651773885
  0
ARC
  5
FCE7
  8
0
 10
475.4706298473116135
 20
31.6695743715641811
 30
0.0
 40
0.000767544630504
 50
205.2326799892418023
 51
257.026037229548308
  0
ARC
  5
FCE8
  8
0
 10
475.4714270599814085
 20
31.6699043142920189
 30
0.0
 40
0.0016298690895027
 50
189.1588302891611022
 51
203.7776179086220054
  0
ARC
  5
FCE9
  8
0
 10
475.5964081398682879
 20
31.4452570691716105
 30
0.0
 40
0.2557290306220981
 50
61.4114591310986881
 51
118.5885408689015037
  0
ARC
  5
FCEA
  8
0
 10
475.7245428167684054
 20
31.6854898527776285
 30
0.0
 40
0.0167083441390343
 50
249.8189317419964084
 51
290.1810682572262863
  0
ARC
  5
FCEB
  8
0
 10
475.9422589151186003
 20
30.9649778241495213
 30
0.0
 40
0.7360082756390831
 50
73.2632442397047754
 51
106.7367557588360967
  0
ARC
  5
FCEC
  8
0
 10
476.1620848496182248
 20
31.6991540103394485
 30
0.0
 40
0.0303847088910445
 50
254.9807223332472006
 51
285.0192776674172137
  0
LINE
  5
FCED
  8
0
 10
475.474037642568419
 20
29.8817767862178201
 30
0.0
 11
475.4740376425683053
 21
31.669807282917791
 31
0.0
  0
LINE
  5
FCEE
  8
0
 10
475.7245428167684054
 20
31.6687815086385989
 30
0.0
 11
475.7245428167684054
 21
29.8828025604970513
 31
0.0
  0
LINE
  5
FCEF
  8
0
 10
476.1620848496183953
 20
29.8828147676872291
 30
0.0
 11
476.1620848496183953
 21
31.6687693014484104
 31
0.0
  0
LINE
  5
FCF0
  8
0
 10
475.5485581276682865
 20
29.8309101448178211
 30
0.0
 11
475.5485581276682865
 21
29.7718550267178195
 31
0.0
  0
LINE
  5
FCF1
  8
0
 10
475.7257234820683038
 20
29.7718550267178195
 30
0.0
 11
475.7257234820683038
 21
29.7127999086178214
 31
0.0
  0
LINE
  5
FCF2
  8
0
 10
476.0013140332682724
 20
29.7718550267178195
 30
0.0
 11
476.0013140332682724
 21
29.7442959716178201
 31
0.0
  0
ARC
  5
FCF3
  8
0
 10
475.9698179702684229
 20
29.7442959716178201
 30
0.0
 40
0.0314960629999954
 50
269.9999999999935199
 51
0.0000000000085493
  0
ARC
  5
FCF4
  8
0
 10
475.5209990725683156
 20
29.6813038456178191
 30
0.0
 40
0.0314960630000023
 50
90.0000000000065086
 51
180.0000000000032117
  0
LINE
  5
FCF5
  8
0
 10
475.4895030095684092
 20
29.3978392787178215
 30
0.0
 11
475.4895030095684092
 21
29.6813038456178191
 31
0.0
  0
LINE
  5
FCF6
  8
0
 10
477.3989518284183191
 20
29.5553195937178188
 30
0.0
 11
477.3398967103684072
 21
29.5553195937178188
 31
0.0
  0
LINE
  5
FCF7
  8
0
 10
477.3398967103684072
 20
31.7206739243178184
 30
0.0
 11
477.3595817496682798
 21
31.7009888850178214
 31
0.0
  0
LINE
  5
FCF8
  8
0
 10
477.3595817496682798
 20
31.7009888850178214
 30
0.0
 11
477.3595817496682798
 21
29.8505951842178199
 31
0.0
  0
LINE
  5
FCF9
  8
0
 10
477.3595817496682798
 20
29.8505951842178199
 30
0.0
 11
477.3398967103684072
 21
29.8309101448178211
 31
0.0
  0
ARC
  5
FCFA
  8
0
 10
477.3605953986390773
 20
29.8719861428261417
 30
0.0
 40
0.0111015471689757
 50
105.0986431208762042
 51
118.1255159281955969
  0
ARC
  5
FCFB
  8
0
 10
477.3584208251143082
 20
29.8804516363582415
 30
0.0
 40
0.0023642157333625
 50
77.2601224957065256
 51
107.6586918651774027
  0
ARC
  5
FCFC
  8
0
 10
477.3587698726250892
 20
29.8820096975714584
 30
0.0
 40
0.000767544630504
 50
25.2326799892417988
 51
77.0260372295515054
  0
ARC
  5
FCFD
  8
0
 10
477.3579726599552941
 20
29.8816797548436206
 30
0.0
 40
0.0016298690895027
 50
9.1588302891613793
 51
23.7776179086222506
  0
ARC
  5
FCFE
  8
0
 10
477.2329915800684148
 20
30.1063269999640291
 30
0.0
 40
0.2557290306220981
 50
241.4114591310986953
 51
298.5885408689014753
  0
ARC
  5
FCFF
  8
0
 10
477.1048569031682973
 20
29.866094216358011
 30
0.0
 40
0.0167083441390343
 50
69.8189317419965079
 51
110.1810682572263005
  0
ARC
  5
FD00
  8
0
 10
476.8871408048182161
 20
30.5866062449861289
 30
0.0
 40
0.7360082756390831
 50
253.2632442397047043
 51
286.736755758832885
  0
ARC
  5
FD01
  8
0
 10
476.6673148703184779
 20
29.852430058796191
 30
0.0
 40
0.0303847088910445
 50
74.9807223332471864
 51
105.0192776674171995
  0
ARC
  5
FD02
  8
0
 10
477.3605953986390773
 20
31.6795979263095013
 30
0.0
 40
0.0111015471689757
 50
241.8744840718044031
 51
254.9013568791237958
  0
ARC
  5
FD03
  8
0
 10
477.3584208251143082
 20
31.6711324327774015
 30
0.0
 40
0.0023642157333625
 50
252.3413081348226115
 51
282.7398775042934744
  0
ARC
  5
FD04
  8
0
 10
477.3587698726250892
 20
31.6695743715641811
 30
0.0
 40
0.000767544630504
 50
282.9739627704485088
 51
334.7673200107582261
  0
ARC
  5
FD05
  8
0
 10
477.3579726599552941
 20
31.6699043142920189
 30
0.0
 40
0.0016298690895027
 50
336.2223820913778241
 51
350.8411697108388125
  0
ARC
  5
FD06
  8
0
 10
477.2329915800684148
 20
31.4452570691716105
 30
0.0
 40
0.2557290306220981
 50
61.4114591310984892
 51
118.5885408689013047
  0
ARC
  5
FD07
  8
0
 10
477.1048569031682973
 20
31.6854898527776285
 30
0.0
 40
0.0167083441390343
 50
249.8189317427736
 51
290.18106825800362
  0
ARC
  5
FD08
  8
0
 10
476.8871408048182161
 20
30.9649778241495213
 30
0.0
 40
0.7360082756390831
 50
73.2632442411639033
 51
106.7367557602951962
  0
ARC
  5
FD09
  8
0
 10
476.6673148703184779
 20
31.6991540103394485
 30
0.0
 40
0.0303847088910445
 50
254.980722332582701
 51
285.0192776667528278
  0
LINE
  5
FD0A
  8
0
 10
477.3553620773682837
 20
29.8817767862178201
 30
0.0
 11
477.3553620773683974
 21
31.669807282917791
 31
0.0
  0
LINE
  5
FD0B
  8
0
 10
477.1048569031682973
 20
31.6687815086385989
 30
0.0
 11
477.1048569031682973
 21
29.8828025604970513
 31
0.0
  0
LINE
  5
FD0C
  8
0
 10
476.6673148703183074
 20
29.8828147676872291
 30
0.0
 11
476.6673148703183074
 21
31.6687693014484104
 31
0.0
  0
LINE
  5
FD0D
  8
0
 10
477.2808415922684162
 20
29.8309101448178211
 30
0.0
 11
477.2808415922684162
 21
29.7718550267178195
 31
0.0
  0
LINE
  5
FD0E
  8
0
 10
477.1036762378683989
 20
29.7718550267178195
 30
0.0
 11
477.1036762378683989
 21
29.7127999086178214
 31
0.0
  0
LINE
  5
FD0F
  8
0
 10
476.8280856866683735
 20
29.7718550267178195
 30
0.0
 11
476.8280856866683735
 21
29.7442959716178201
 31
0.0
  0
ARC
  5
FD10
  8
0
 10
476.8595817496683935
 20
29.7442959716178201
 30
0.0
 40
0.0314960629999954
 50
179.9999999999913882
 51
270.0000000000064801
  0
ARC
  5
FD11
  8
0
 10
477.3084006473682734
 20
29.6813038456178191
 30
0.0
 40
0.0314960630000023
 50
359.9999999999968168
 51
89.9999999999934914
  0
LINE
  5
FD12
  8
0
 10
477.3398967103684072
 20
29.3978392787178215
 30
0.0
 11
477.3398967103684072
 21
29.6813038456178191
 31
0.0
  0
LINE
  5
FD13
  8
0
 10
475.4895030095684092
 20
31.7206739243178184
 30
0.0
 11
477.3398967103684072
 21
31.7206739243178184
 31
0.0
  0
LINE
  5
FD14
  8
0
 10
475.4895030095684092
 20
29.8309101448178211
 30
0.0
 11
477.3398967103684072
 21
29.8309101448178211
 31
0.0
  0
LINE
  5
FD15
  8
0
 10
475.5485581276682865
 20
29.7718550267178195
 30
0.0
 11
477.2808415922684162
 21
29.7718550267178195
 31
0.0
  0
LINE
  5
FD16
  8
0
 10
475.5209990725683156
 20
29.7127999086178214
 30
0.0
 11
477.3084006473682734
 21
29.7127999086178214
 31
0.0
  0
ARC
  5
FD17
  8
0
 10
476.4146998599683798
 20
30.7248382034219389
 30
0.0
 40
0.9761478963974163
 50
75.4798054479755791
 51
104.5201945520210955
  0
ARC
  5
FD18
  8
0
 10
476.414699860018402
 20
30.8267458661061191
 30
0.0
 40
0.9761478967898307
 50
255.4798054509093959
 51
284.5201945490907178
  0
ENDSEC
  0
EOF
