  0
SECTION
  2
HEADER
  9
$ACADVER
  1
AC1009
  9
$INSBASE
 10
3495.386288875747141
 20
200.7249034363053966
 30
0.0
  9
$EXTMIN
 10
3487.4273150588810495
 20
200.7183421128885925
 30
-0.0015258207003583
  9
$EXTMAX
 10
3496.496926735947909
 20
212.0935570408587125
 30
0.0000000349246037
  9
$LIMMIN
 10
0.0
 20
0.0
  9
$LIMMAX
 10
11.6929133858000007
 20
8.2677165353999982
  9
$ORTHOMODE
 70
     0
  9
$REGENMODE
 70
     1
  9
$FILLMODE
 70
     1
  9
$QTEXTMODE
 70
     0
  9
$MIRRTEXT
 70
     0
  9
$DRAGMODE
 70
     2
  9
$LTSCALE
 40
0.6431102362
  9
$OSMODE
 70
  2047
  9
$ATTMODE
 70
     1
  9
$TEXTSIZE
 40
0.2
  9
$TRACEWID
 40
0.05
  9
$TEXTSTYLE
  7
STANDARD
  9
$CLAYER
  8
0
  9
$CELTYPE
  6
BYLAYER
  9
$CECOLOR
 62
   256
  9
$DIMSCALE
 40
1.0
  9
$DIMASZ
 40
0.1875
  9
$DIMEXO
 40
0.0625
  9
$DIMDLI
 40
0.4443307087
  9
$DIMRND
 40
0.0
  9
$DIMDLE
 40
0.0
  9
$DIMEXE
 40
0.125
  9
$DIMTP
 40
0.01
  9
$DIMTM
 40
0.01
  9
$DIMTXT
 40
2.0
  9
$DIMCEN
 40
0.1052362205
  9
$DIMTSZ
 40
0.0
  9
$DIMTOL
 70
     1
  9
$DIMLIM
 70
     0
  9
$DIMTIH
 70
     1
  9
$DIMTOH
 70
     1
  9
$DIMSE1
 70
     0
  9
$DIMSE2
 70
     0
  9
$DIMTAD
 70
     0
  9
$DIMZIN
 70
     0
  9
$DIMBLK
  1

  9
$DIMASO
 70
     1
  9
$DIMSHO
 70
     1
  9
$DIMPOST
  1
\X
  9
$DIMAPOST
  1

  9
$DIMALT
 70
     1
  9
$DIMALTD
 70
     2
  9
$DIMALTF
 40
25.3999999999999986
  9
$DIMLFAC
 40
1.0
  9
$DIMTOFL
 70
     0
  9
$DIMTVP
 40
0.0
  9
$DIMTIX
 70
     0
  9
$DIMSOXD
 70
     0
  9
$DIMSAH
 70
     0
  9
$DIMBLK1
  1

  9
$DIMBLK2
  1

  9
$DIMSTYLE
  2
STANDARD
  9
$DIMCLRD
 70
     0
  9
$DIMCLRE
 70
     0
  9
$DIMCLRT
 70
     0
  9
$DIMTFAC
 40
1.0
  9
$DIMGAP
 40
0.09
  9
$LUNITS
 70
     2
  9
$LUPREC
 70
     4
  9
$SKETCHINC
 40
0.1
  9
$FILLETRAD
 40
0.0
  9
$AUNITS
 70
     0
  9
$AUPREC
 70
     0
  9
$MENU
  1
.
  9
$ELEVATION
 40
0.0
  9
$PELEVATION
 40
0.0
  9
$THICKNESS
 40
0.0
  9
$LIMCHECK
 70
     0
  9
$BLIPMODE
 70
     0
  9
$CHAMFERA
 40
0.0
  9
$CHAMFERB
 40
0.0
  9
$SKPOLY
 70
     0
  9
$TDCREATE
 40
2458060.468368056230247
  9
$TDUPDATE
 40
2459031.4477083329111338
  9
$TDINDWG
 40
0.6902616898
  9
$TDUSRTIMER
 40
0.6902616898
  9
$USRTIMER
 70
     1
  9
$ANGBASE
 50
0.0
  9
$ANGDIR
 70
     0
  9
$PDMODE
 70
     0
  9
$PDSIZE
 40
0.3125
  9
$PLINEWID
 40
0.0
  9
$COORDS
 70
     1
  9
$SPLFRAME
 70
     0
  9
$SPLINETYPE
 70
     6
  9
$SPLINESEGS
 70
     8
  9
$ATTDIA
 70
     1
  9
$ATTREQ
 70
     1
  9
$HANDLING
 70
     1
  9
$HANDSEED
  5
A4E8
  9
$SURFTAB1
 70
     6
  9
$SURFTAB2
 70
     6
  9
$SURFTYPE
 70
     6
  9
$SURFU
 70
     6
  9
$SURFV
 70
     6
  9
$UCSNAME
  2

  9
$UCSORG
 10
0.0
 20
0.0
 30
0.0
  9
$UCSXDIR
 10
1.0
 20
0.0
 30
0.0
  9
$UCSYDIR
 10
0.0
 20
1.0
 30
0.0
  9
$PUCSNAME
  2

  9
$PUCSORG
 10
0.0
 20
0.0
 30
0.0
  9
$PUCSXDIR
 10
1.0
 20
0.0
 30
0.0
  9
$PUCSYDIR
 10
0.0
 20
1.0
 30
0.0
  9
$USERI1
 70
     0
  9
$USERI2
 70
     0
  9
$USERI3
 70
     0
  9
$USERI4
 70
     0
  9
$USERI5
 70
     0
  9
$USERR1
 40
0.0
  9
$USERR2
 40
0.0
  9
$USERR3
 40
0.0
  9
$USERR4
 40
0.0
  9
$USERR5
 40
0.0
  9
$WORLDVIEW
 70
     1
  9
$SHADEDGE
 70
     3
  9
$SHADEDIF
 70
    70
  9
$TILEMODE
 70
     1
  9
$MAXACTVP
 70
    64
  9
$PLIMCHECK
 70
     0
  9
$PEXTMIN
 10
1.0000000000000000E+20
 20
1.0000000000000000E+20
 30
1.0000000000000000E+20
  9
$PEXTMAX
 10
-1.0000000000000000E+20
 20
-1.0000000000000000E+20
 30
-1.0000000000000000E+20
  9
$PLIMMIN
 10
0.0
 20
0.0
  9
$PLIMMAX
 10
12.0
 20
9.0
  9
$UNITMODE
 70
     0
  9
$VISRETAIN
 70
     1
  9
$PLINEGEN
 70
     0
  9
$PSLTSCALE
 70
     1
  0
ENDSEC
  0
SECTION
  2
TABLES
  0
TABLE
  2
VPORT
 70
     1
  0
VPORT
  2
*ACTIVE
 70
     0
 10
0.0
 20
0.0
 11
1.0
 21
1.0
 12
221.9343937429312064
 22
13.3633622966002008
 13
0.0
 23
0.0
 14
1.0
 24
1.0
 15
0.0
 25
0.0
 16
0.0
 26
0.0
 36
116.782910842256598
 17
3270.0277271544828182
 27
193.0425872802734091
 37
0.0
 40
11.4698769107271197
 41
2.6486111111111108
 42
50.0
 43
0.0
 44
0.0
 50
0.0
 51
0.0
 71
     0
 72
   100
 73
     1
 74
     1
 75
     0
 76
     0
 77
     0
 78
     0
  0
ENDTAB
  0
TABLE
  2
LTYPE
 70
     2
  0
LTYPE
  2
CONTINUOUS
 70
     0
  3
Solid line
 72
    65
 73
     0
 40
0.0
  0
LTYPE
  2
PHANTOM2
 70
     0
  3
___ _ _ ___ _ _ ___ _ _ ___ _ _
 72
    65
 73
     6
 40
1.25
 49
0.625
 49
-0.125
 49
0.125
 49
-0.125
 49
0.125
 49
-0.125
  0
ENDTAB
  0
TABLE
  2
LAYER
 70
     2
  0
LAYER
  2
0
 70
     0
 62
   255
  6
CONTINUOUS
  0
LAYER
  2
DEFPOINTS
 70
     0
 62
     7
  6
CONTINUOUS
  0
ENDTAB
  0
TABLE
  2
STYLE
 70
     1
  0
STYLE
  2
STANDARD
 70
     0
 40
0.0
 41
0.8
 50
0.0
 71
     0
 42
0.2
  3
txt
  4

  0
ENDTAB
  0
TABLE
  2
VIEW
 70
     0
  0
ENDTAB
  0
TABLE
  2
UCS
 70
     0
  0
ENDTAB
  0
TABLE
  2
APPID
 70
     9
  0
APPID
  2
ACAD
 70
     0
  0
APPID
  2
ACAD_MLEADERVER
 70
     0
  0
APPID
  2
ACAD_EXEMPT_FROM_CAD_STANDARDS
 70
     0
  0
APPID
  2
ACAD_NAV_VCDISPLAY
 70
     0
  0
APPID
  2
ACAECLAYERSTANDARD
 70
     0
  0
APPID
  2
ACCMTRANSPARENCY
 70
     0
  0
APPID
  2
ACAD_DSTYLE_DIMJAG
 70
     0
  0
APPID
  2
ACAD_DSTYLE_DIMTALN
 70
     0
  0
APPID
  2
ACDBATTR
 70
     0
  0
ENDTAB
  0
TABLE
  2
DIMSTYLE
 70
     1
  0
DIMSTYLE
  2
STANDARD
 70
     0
  3

  4

  5

  6

  7

 40
1.0
 41
0.1875
 42
0.0625
 43
0.38
 44
0.125
 45
0.0
 46
0.0
 47
0.01
 48
0.01
140
0.15625
141
0.09
142
0.0
143
25.3999999999999986
144
1.0
145
0.0
146
1.0
147
0.09
 71
     1
 72
     0
 73
     1
 74
     1
 75
     0
 76
     0
 77
     0
 78
     4
170
     0
171
     2
172
     0
173
     0
174
     0
175
     0
176
     0
177
     0
178
     0
  0
ENDTAB
  0
ENDSEC
  0
SECTION
  2
BLOCKS
  0
BLOCK
  8
0
  2
$MODEL_SPACE
 70
     0
 10
0.0
 20
0.0
 30
0.0
  3
$MODEL_SPACE
  1

  0
ENDBLK
  5
21
  8
0
  0
BLOCK
 67
     1
  8
0
  2
$PAPER_SPACE
 70
     0
 10
0.0
 20
0.0
 30
0.0
  3
$PAPER_SPACE
  1

  0
ENDBLK
  5
1D
 67
     1
  8
0
  0
BLOCK
  8
0
  2
_FILLED
 70
     0
 10
0.0
 20
0.0
 30
0.0
  3
_FILLED
  1

  0
SOLID
  5
A24B
  8
0
  6
BYBLOCK
 62
     0
 10
0.0
 20
0.0
 30
0.0
 11
-1.0
 21
0.1666666667
 31
0.0
 12
-1.0
 22
-0.1666666667
 32
0.0
 13
-1.0
 23
-0.1666666667
 33
0.0
  0
ENDBLK
  5
A24C
  8
0
  6
BYBLOCK
 62
     0
  0
ENDSEC
  0
SECTION
  2
ENTITIES
  0
ATTDEF
  5
A0B4
  8
DEFPOINTS
 10
3495.3863476671840544
 20
200.7236998953302134
 30
0.0
 40
0.001
  1
K-73053W
  3

  2
MODELNUMBER
 70
     0
1001
ACDBATTR
1070
     0
1070
     1
  0
ATTDEF
  5
A0B5
  8
DEFPOINTS
 10
3495.3863476671840544
 20
200.7220332286634914
 30
0.0
 40
0.001
  1
COMPOSED
  3

  2
TRADENAME
 70
     0
1001
ACDBATTR
1070
     0
1070
     1
  0
ATTDEF
  5
A0B6
  8
DEFPOINTS
 10
3495.3863476671840544
 20
200.7203665619967978
 30
0.0
 40
0.001
  1
BATHROOM SINK FAUCET
  3

  2
PRODUCT
 70
     0
1001
ACDBATTR
1070
     0
1070
     1
  0
LINE
  5
A295
  8
0
 10
3496.2022974507372055
 20
208.9369015121457096
 30
0.0
 11
3487.6266829955497997
 21
209.2362227413694029
 31
0.0
  0
ARC
  5
A296
  8
0
 10
3487.6268797614661707
 20
209.2049268963685051
 30
0.0
 40
0.0312964635565476
 50
90.3602301844216953
 51
178.1477145360443046
  0
LINE
  5
A297
  8
0
 10
3487.5955996509319448
 20
209.2059384872368071
 30
0.0
 11
3487.5785621021150291
 21
208.7180469024534943
 31
0.0
  0
ARC
  5
A298
  8
0
 10
3487.6100389786629421
 20
208.7169477057518066
 30
0.0
 40
0.0314960630964571
 50
178.0000000883040059
 51
267.9999983073116141
  0
LINE
  5
A299
  8
0
 10
3487.608939780982837
 20
208.6854708292385112
 30
0.0
 11
3496.2001287457319449
 21
208.3854596456233139
 31
0.0
  0
ARC
  5
A29A
  8
0
 10
3488.5012622298499991
 20
208.7792271369877994
 30
0.0
 40
0.6299212598025493
 50
189.4308291950569014
 51
194.2264727569830995
  0
LINE
  5
A29B
  8
0
 10
3487.8906595377088706
 20
208.6244203351299973
 30
0.0
 11
3488.5988890692069617
 21
208.5996884148565016
 31
0.0
  0
ARC
  5
A29C
  8
0
 10
3488.0005725511477976
 20
208.7967116057870101
 30
0.0
 40
0.629921259799214
 50
341.7734965723964251
 51
346.5691483341063872
  0
ARC
  5
A29D
  8
0
 10
3488.4122172546490219
 20
208.6275189566493111
 30
0.0
 40
0.1574803139554941
 50
314.7450782645092886
 51
350.227061890707887
  0
LINE
  5
A29E
  8
0
 10
3488.5230761069469736
 20
208.5156692174871864
 30
0.0
 11
3487.9604269404790102
 21
208.5353173592235976
 31
0.0
  0
ARC
  5
A29F
  8
0
 10
3488.0788179906471669
 20
208.6391615157872934
 30
0.0
 40
0.1574803150000228
 50
185.7729381452327004
 51
221.254921578492997
  0
LINE
  5
A2A0
  8
0
 10
3494.3823605179482001
 20
200.7249034363053966
 30
0.0
 11
3494.3823605179482001
 21
200.8621152050122021
 31
0.0
  0
ARC
  5
A2A1
  8
0
 10
3494.4026379746628663
 20
200.8621152050122021
 30
0.0
 40
0.0202774567161894
 50
91.6986189105399347
 51
179.9999999999984084
  0
ARC
  5
A2A2
  8
0
 10
3494.5713282458477806
 20
200.9138798143054032
 30
0.0
 40
0.0314960629999996
 50
179.9999999999984084
 51
270.0
  0
LINE
  5
A2A3
  8
0
 10
3494.5398321828470216
 20
200.9138798143054032
 30
0.0
 11
3494.5397813531790234
 21
208.4108264667762
 31
0.0
  0
ARC
  5
A2A4
  8
0
 10
3494.5712776135837885
 20
208.4108249927784868
 30
0.0
 40
0.0314962604396193
 50
88.0690564195968904
 51
179.9973186070660915
  0
LINE
  5
A2A5
  8
0
 10
3495.2288085629488705
 20
209.1875194455872986
 30
0.0
 11
3495.2288085607469839
 21
209.238658965563701
 31
0.0
  0
ARC
  5
A2A6
  8
0
 10
3495.2386510823921526
 20
209.2386589659872982
 30
0.0
 40
0.0098425216441704
 50
89.963987673511113
 51
180.0000024658110078
  0
ARC
  5
A2A7
  8
0
 10
3495.2780211621238777
 20
209.2681865238957926
 30
0.0
 40
0.0196850365236252
 50
269.9999916279480203
 51
0.0000034678203447
  0
LINE
  5
A2A8
  8
0
 10
3495.2977061986471199
 20
209.2681865250872875
 30
0.0
 11
3495.2977061986471199
 21
209.5673991234872915
 31
0.0
  0
ARC
  5
A2A9
  8
0
 10
3495.2780211592480555
 20
209.5673991234872915
 30
0.0
 40
0.0196850393999988
 50
359.9999999999951115
 51
90.0000000000781455
  0
ARC
  5
A2AA
  8
0
 10
3495.2406195844478134
 20
209.6067692022872961
 30
0.0
 40
0.0196850393999988
 50
180.0
 51
270.0
  0
LINE
  5
A2AB
  8
0
 10
3495.22093454504693
 20
209.6067692022872961
 30
0.0
 11
3495.22093454504693
 21
212.0555880998873022
 31
0.0
  0
ARC
  5
A2AC
  8
0
 10
3495.2524306080467795
 20
212.0555880998873022
 30
0.0
 40
0.0314960629999988
 50
90.0
 51
179.9999999999967031
  0
LINE
  5
A2AD
  8
0
 10
3496.3902172335469913
 20
200.7249034363053966
 30
0.0
 11
3496.3902172335469913
 21
200.8621152050122021
 31
0.0
  0
ARC
  5
A2AE
  8
0
 10
3496.3699397768309609
 20
200.8621152050122021
 30
0.0
 40
0.0202774567161894
 50
0.0000000000016284
 51
88.3013810894600653
  0
ARC
  5
A2AF
  8
0
 10
3496.2012495056469561
 20
200.9138798143054032
 30
0.0
 40
0.0314960629999996
 50
270.0
 51
0.0000000000016284
  0
LINE
  5
A2B0
  8
0
 10
3496.2327455686468056
 20
200.9138798143054032
 30
0.0
 11
3496.2327963193320102
 21
208.3539026402210936
 31
0.0
  0
LINE
  5
A2B1
  8
0
 10
3496.2327455686468056
 20
208.9054243052873119
 30
0.0
 11
3496.2326983988477878
 21
208.4169373950873023
 31
0.0
  0
LINE
  5
A2B2
  8
0
 10
3495.5437691885467757
 20
209.1875194455872986
 30
0.0
 11
3495.5437691907482076
 21
209.238658965563701
 31
0.0
  0
ARC
  5
A2B3
  8
0
 10
3495.5339266691039484
 20
209.2386589659872982
 30
0.0
 40
0.0098425216441704
 50
359.9999975341888785
 51
90.0360123264889012
  0
ARC
  5
A2B4
  8
0
 10
3495.4945565918042121
 20
209.2681865249039959
 30
0.0
 40
0.0196850389575367
 50
179.9999994665591885
 51
270.0000014491067191
  0
LINE
  5
A2B5
  8
0
 10
3495.4748715528471621
 20
209.2681865250872875
 30
0.0
 11
3495.4748715528471621
 21
209.5673991234872915
 31
0.0
  0
ARC
  5
A2B6
  8
0
 10
3495.494556592247136
 20
209.5673991234872915
 30
0.0
 40
0.0196850393999988
 50
89.9999999999218403
 51
180.0000000000048885
  0
ARC
  5
A2B7
  8
0
 10
3495.5319581670478328
 20
209.6067692022872961
 30
0.0
 40
0.0196850393999988
 50
270.0
 51
0.0
  0
LINE
  5
A2B8
  8
0
 10
3495.5516432064478067
 20
209.6067692022872961
 30
0.0
 11
3495.5516432064478067
 21
212.0555880998873022
 31
0.0
  0
ARC
  5
A2B9
  8
0
 10
3495.5201471434470477
 20
212.0555880998873022
 30
0.0
 40
0.0314960629999988
 50
0.0000000000032569
 51
90.0
  0
LINE
  5
A2BA
  8
0
 10
3494.3823605179482001
 20
200.7249034363053966
 30
0.0
 11
3496.3902172335469913
 21
200.7249034363053966
 31
0.0
  0
LINE
  5
A2BB
  8
0
 10
3494.4020369072482026
 20
200.8823837513054116
 30
0.0
 11
3496.3705408442469889
 21
200.8823837513054116
 31
0.0
  0
LINE
  5
A2BC
  8
0
 10
3495.2386510823921526
 20
209.2485014876313869
 30
0.0
 11
3495.5339204827469075
 21
209.2485014856873136
 31
0.0
  0
LINE
  5
A2BD
  8
0
 10
3495.2406195844478134
 20
209.5870841628872938
 30
0.0
 11
3495.5319581670478328
 21
209.5870841628872938
 31
0.0
  0
LINE
  5
A2BE
  8
0
 10
3495.2524306080467795
 20
212.0870841628872938
 30
0.0
 11
3495.5201471434470477
 21
212.0870841628872938
 31
0.0
  0
ARC
  5
A2BF
  8
0
 10
3496.2023472486198443
 20
208.9064847419913917
 30
0.0
 40
0.0304168109184697
 50
358.0020633065694824
 51
90.0938037135983905
  0
ARC
  5
A2C0
  8
0
 10
3496.2001570184729644
 20
208.4180189833064958
 30
0.0
 40
0.0325593499584259
 50
269.9502475033702922
 51
358.0963427318329764
  0
ARC
  5
A2C1
  8
0
 10
3496.1930645823999839
 20
208.3454597617023012
 30
0.0
 40
0.040618876366581
 50
11.9967398362761202
 51
79.9845741891123225
  0
LINE
  5
A2C2
  8
0
 10
3494.8720585453370404
 20
208.9833339886801866
 30
0.0
 11
3494.8728174529660464
 21
209.0007158295281897
 31
0.0
  0
ARC
  5
A2C3
  8
0
 10
3494.880683974377007
 20
209.000372369755695
 30
0.0
 40
0.0078740157305203
 50
88.0000002201658447
 51
177.4999997798300058
  0
ARC
  5
A2C4
  8
0
 10
3494.8810814071439381
 20
209.016117299707588
 30
0.0
 40
0.0078766655712471
 50
180.0078954737718107
 51
269.1079128344405831
  0
LINE
  5
A2C5
  8
0
 10
3494.8732047416469868
 20
209.0161162142873081
 30
0.0
 11
3494.8737591366411834
 21
209.032129451754912
 31
0.0
  0
ARC
  5
A2C6
  8
0
 10
3494.8934321843371436
 20
209.0314424538377125
 30
0.0
 40
0.0196850392877205
 50
87.9976708157247884
 51
178.0000001353735115
  0
ARC
  5
A2C7
  8
0
 10
3495.1537653448931451
 20
209.0439884571883056
 30
0.0
 40
0.0079037024648936
 50
87.9803953186788448
 51
192.1998585061137135
  0
ARC
  5
A2C8
  8
0
 10
3495.3860101878108253
 20
209.0438340486196012
 30
0.0
 40
0.2201919391916684
 50
139.7435176914158887
 51
178.0122848573629994
  0
ARC
  5
A2C9
  8
0
 10
3495.220978528636806
 20
209.1835757163242988
 30
0.0
 40
0.0039439745252791
 50
90.6389813903948465
 51
139.7435176914084138
  0
ARC
  5
A2CA
  8
0
 10
3495.5516432064291621
 20
209.1835824376013022
 30
0.0
 40
0.003937007985968
 50
40.2141719873539571
 51
89.9999997237377301
  0
ARC
  5
A2CB
  8
0
 10
3495.3862888857329381
 20
209.0437770798139923
 30
0.0
 40
0.2204724310431628
 50
357.9999989836076111
 51
40.2141719873539571
  0
ARC
  5
A2CC
  8
0
 10
3495.6182515985201462
 20
209.027761303725498
 30
0.0
 40
0.0079106362971783
 50
343.8646289308591122
 51
87.9551176002845239
  0
ARC
  5
A2CD
  8
0
 10
3495.8770845732478847
 20
208.9970925553872974
 30
0.0
 40
0.0196850394000023
 50
358.0000000000090949
 51
87.9999999930614933
  0
LINE
  5
A2CE
  8
0
 10
3495.8967576210538937
 20
208.9964055574195925
 30
0.0
 11
3495.8962080226838225
 21
208.9806671192860108
 31
0.0
  0
ARC
  5
A2CF
  8
0
 10
3495.8883373099902201
 20
208.9809419706296865
 30
0.0
 40
0.0078755102407317
 50
266.8838055373201996
 51
358.0000000000172236
  0
ARC
  5
A2D0
  8
0
 10
3495.8876343898468804
 20
208.9652088864872894
 30
0.0
 40
0.0078740156999966
 50
358.499999999972772
 51
88.0000000000224247
  0
LINE
  5
A2D1
  8
0
 10
3495.8955057073458192
 20
208.9650027687551983
 30
0.0
 11
3495.8948990679327835
 21
208.9476308729726952
 31
0.0
  0
LINE
  5
A2D2
  8
0
 10
3494.8809587735331661
 20
209.0082415888496996
 30
0.0
 11
3495.8879091890321433
 21
208.9730781055496891
 31
0.0
  0
LINE
  5
A2D3
  8
0
 10
3494.8941199820469592
 20
209.0511154735872879
 30
0.0
 11
3495.8777715712180907
 21
209.0167656031931074
 31
0.0
  0
LINE
  5
A2D4
  8
0
 10
3495.1540438828469632
 20
209.0518872500873044
 30
0.0
 11
3495.618533868646864
 21
209.0356669023873053
 31
0.0
  0
LINE
  5
A2D5
  8
0
 10
3495.22093454504693
 20
209.1875194455872986
 30
0.0
 11
3495.5516432064478067
 21
209.1875194455872986
 31
0.0
  0
ENDSEC
  0
EOF
