  0
SECTION
  2
HEADER
  9
$ACADVER
  1
AC1009
  9
$INSBASE
 10
3520.332365170659159
 20
202.4407306648136
 30
0.0
  9
$EXTMIN
 10
3512.462593081444993
 20
202.4332378626401123
 30
-0.0000000000112498
  9
$EXTMAX
 10
3521.5638973653040011
 20
213.8089955387156067
 30
0.0000000000002956
  9
$LIMMIN
 10
0.0
 20
0.0
  9
$LIMMAX
 10
11.6929133858000007
 20
8.2677165353999982
  9
$ORTHOMODE
 70
     0
  9
$REGENMODE
 70
     1
  9
$FILLMODE
 70
     1
  9
$QTEXTMODE
 70
     0
  9
$MIRRTEXT
 70
     0
  9
$DRAGMODE
 70
     2
  9
$LTSCALE
 40
0.6431102362
  9
$OSMODE
 70
  4095
  9
$ATTMODE
 70
     1
  9
$TEXTSIZE
 40
0.2
  9
$TRACEWID
 40
0.05
  9
$TEXTSTYLE
  7
STANDARD
  9
$CLAYER
  8
0
  9
$CELTYPE
  6
BYLAYER
  9
$CECOLOR
 62
   256
  9
$DIMSCALE
 40
1.0
  9
$DIMASZ
 40
0.1875
  9
$DIMEXO
 40
0.0625
  9
$DIMDLI
 40
0.4443307087
  9
$DIMRND
 40
0.0
  9
$DIMDLE
 40
0.0
  9
$DIMEXE
 40
0.125
  9
$DIMTP
 40
0.01
  9
$DIMTM
 40
0.01
  9
$DIMTXT
 40
2.0
  9
$DIMCEN
 40
0.1052362205
  9
$DIMTSZ
 40
0.0
  9
$DIMTOL
 70
     1
  9
$DIMLIM
 70
     0
  9
$DIMTIH
 70
     1
  9
$DIMTOH
 70
     1
  9
$DIMSE1
 70
     0
  9
$DIMSE2
 70
     0
  9
$DIMTAD
 70
     0
  9
$DIMZIN
 70
     0
  9
$DIMBLK
  1

  9
$DIMASO
 70
     1
  9
$DIMSHO
 70
     1
  9
$DIMPOST
  1
\X
  9
$DIMAPOST
  1

  9
$DIMALT
 70
     1
  9
$DIMALTD
 70
     2
  9
$DIMALTF
 40
25.3999999999999986
  9
$DIMLFAC
 40
1.0
  9
$DIMTOFL
 70
     0
  9
$DIMTVP
 40
0.0
  9
$DIMTIX
 70
     0
  9
$DIMSOXD
 70
     0
  9
$DIMSAH
 70
     0
  9
$DIMBLK1
  1

  9
$DIMBLK2
  1

  9
$DIMSTYLE
  2
STANDARD
  9
$DIMCLRD
 70
     0
  9
$DIMCLRE
 70
     0
  9
$DIMCLRT
 70
     0
  9
$DIMTFAC
 40
1.0
  9
$DIMGAP
 40
0.09
  9
$LUNITS
 70
     2
  9
$LUPREC
 70
     4
  9
$SKETCHINC
 40
0.1
  9
$FILLETRAD
 40
0.0
  9
$AUNITS
 70
     0
  9
$AUPREC
 70
     0
  9
$MENU
  1
.
  9
$ELEVATION
 40
0.0
  9
$PELEVATION
 40
0.0
  9
$THICKNESS
 40
0.0
  9
$LIMCHECK
 70
     0
  9
$BLIPMODE
 70
     0
  9
$CHAMFERA
 40
0.0
  9
$CHAMFERB
 40
0.0
  9
$SKPOLY
 70
     0
  9
$TDCREATE
 40
2458060.468368056230247
  9
$TDUPDATE
 40
2459864.9413541671819985
  9
$TDINDWG
 40
0.6915695602
  9
$TDUSRTIMER
 40
0.6915695602
  9
$USRTIMER
 70
     1
  9
$ANGBASE
 50
0.0
  9
$ANGDIR
 70
     0
  9
$PDMODE
 70
     0
  9
$PDSIZE
 40
0.3125
  9
$PLINEWID
 40
0.0
  9
$COORDS
 70
     1
  9
$SPLFRAME
 70
     0
  9
$SPLINETYPE
 70
     6
  9
$SPLINESEGS
 70
     8
  9
$ATTDIA
 70
     1
  9
$ATTREQ
 70
     1
  9
$HANDLING
 70
     1
  9
$HANDSEED
  5
A66E
  9
$SURFTAB1
 70
     6
  9
$SURFTAB2
 70
     6
  9
$SURFTYPE
 70
     6
  9
$SURFU
 70
     6
  9
$SURFV
 70
     6
  9
$UCSNAME
  2

  9
$UCSORG
 10
0.0
 20
0.0
 30
0.0
  9
$UCSXDIR
 10
1.0
 20
0.0
 30
0.0
  9
$UCSYDIR
 10
0.0
 20
1.0
 30
0.0
  9
$PUCSNAME
  2

  9
$PUCSORG
 10
0.0
 20
0.0
 30
0.0
  9
$PUCSXDIR
 10
1.0
 20
0.0
 30
0.0
  9
$PUCSYDIR
 10
0.0
 20
1.0
 30
0.0
  9
$USERI1
 70
     0
  9
$USERI2
 70
     0
  9
$USERI3
 70
     0
  9
$USERI4
 70
     0
  9
$USERI5
 70
     0
  9
$USERR1
 40
0.0
  9
$USERR2
 40
0.0
  9
$USERR3
 40
0.0
  9
$USERR4
 40
0.0
  9
$USERR5
 40
0.0
  9
$WORLDVIEW
 70
     1
  9
$SHADEDGE
 70
     3
  9
$SHADEDIF
 70
    70
  9
$TILEMODE
 70
     1
  9
$MAXACTVP
 70
    64
  9
$PLIMCHECK
 70
     0
  9
$PEXTMIN
 10
1.0000000000000000E+20
 20
1.0000000000000000E+20
 30
1.0000000000000000E+20
  9
$PEXTMAX
 10
-1.0000000000000000E+20
 20
-1.0000000000000000E+20
 30
-1.0000000000000000E+20
  9
$PLIMMIN
 10
0.0
 20
0.0
  9
$PLIMMAX
 10
12.0
 20
9.0
  9
$UNITMODE
 70
     0
  9
$VISRETAIN
 70
     1
  9
$PLINEGEN
 70
     0
  9
$PSLTSCALE
 70
     1
  0
ENDSEC
  0
SECTION
  2
TABLES
  0
TABLE
  2
VPORT
 70
     1
  0
VPORT
  2
*ACTIVE
 70
     0
 10
0.0
 20
0.0
 11
1.0
 21
1.0
 12
246.9855180688919063
 22
15.0785294204044291
 13
0.0
 23
0.0
 14
1.0
 24
1.0
 15
0.0
 25
0.0
 16
0.0
 26
0.0
 36
116.782910842256598
 17
3270.0277271544828182
 27
193.0425872802734091
 37
0.0
 40
11.4645152132100492
 41
2.1471354166666661
 42
50.0
 43
0.0
 44
0.0
 50
0.0
 51
0.0
 71
     0
 72
   100
 73
     1
 74
     1
 75
     0
 76
     0
 77
     0
 78
     0
  0
ENDTAB
  0
TABLE
  2
LTYPE
 70
     2
  0
LTYPE
  2
CONTINUOUS
 70
     0
  3
Solid line
 72
    65
 73
     0
 40
0.0
  0
LTYPE
  2
PHANTOM2
 70
     0
  3
___ _ _ ___ _ _ ___ _ _ ___ _ _
 72
    65
 73
     6
 40
1.25
 49
0.625
 49
-0.125
 49
0.125
 49
-0.125
 49
0.125
 49
-0.125
  0
ENDTAB
  0
TABLE
  2
LAYER
 70
     2
  0
LAYER
  2
0
 70
     0
 62
   255
  6
CONTINUOUS
  0
LAYER
  2
DEFPOINTS
 70
     0
 62
     7
  6
CONTINUOUS
  0
ENDTAB
  0
TABLE
  2
STYLE
 70
     1
  0
STYLE
  2
STANDARD
 70
     0
 40
0.0
 41
0.8
 50
0.0
 71
     0
 42
0.2
  3
txt
  4

  0
ENDTAB
  0
TABLE
  2
VIEW
 70
     0
  0
ENDTAB
  0
TABLE
  2
UCS
 70
     0
  0
ENDTAB
  0
TABLE
  2
APPID
 70
     9
  0
APPID
  2
ACAD
 70
     0
  0
APPID
  2
ACAD_MLEADERVER
 70
     0
  0
APPID
  2
ACAD_EXEMPT_FROM_CAD_STANDARDS
 70
     0
  0
APPID
  2
ACAD_NAV_VCDISPLAY
 70
     0
  0
APPID
  2
ACAECLAYERSTANDARD
 70
     0
  0
APPID
  2
ACCMTRANSPARENCY
 70
     0
  0
APPID
  2
ACAD_DSTYLE_DIMJAG
 70
     0
  0
APPID
  2
ACAD_DSTYLE_DIMTALN
 70
     0
  0
APPID
  2
ACDBATTR
 70
     0
  0
ENDTAB
  0
TABLE
  2
DIMSTYLE
 70
     1
  0
DIMSTYLE
  2
STANDARD
 70
     0
  3

  4

  5

  6

  7

 40
1.0
 41
0.1875
 42
0.0625
 43
0.38
 44
0.125
 45
0.0
 46
0.0
 47
0.01
 48
0.01
140
0.15625
141
0.09
142
0.0
143
25.3999999999999986
144
1.0
145
0.0
146
1.0
147
0.09
 71
     1
 72
     0
 73
     1
 74
     1
 75
     0
 76
     0
 77
     0
 78
     4
170
     0
171
     2
172
     0
173
     0
174
     0
175
     0
176
     0
177
     0
178
     0
  0
ENDTAB
  0
ENDSEC
  0
SECTION
  2
BLOCKS
  0
BLOCK
  8
0
  2
$MODEL_SPACE
 70
     0
 10
0.0
 20
0.0
 30
0.0
  3
$MODEL_SPACE
  1

  0
ENDBLK
  5
21
  8
0
  0
BLOCK
 67
     1
  8
0
  2
$PAPER_SPACE
 70
     0
 10
0.0
 20
0.0
 30
0.0
  3
$PAPER_SPACE
  1

  0
ENDBLK
  5
1D
 67
     1
  8
0
  0
ENDSEC
  0
SECTION
  2
ENTITIES
  0
ATTDEF
  5
A0B4
  8
DEFPOINTS
 10
3520.3277611222129053
 20
202.4389085444198884
 30
0.0
 40
0.001
  1
K-73053W-ND
  3

  2
MODELNUMBER
 70
     0
1001
ACDBATTR
1070
     0
1070
     1
  0
ATTDEF
  5
A0B5
  8
DEFPOINTS
 10
3520.3277611222129053
 20
202.4372418777531948
 30
0.0
 40
0.001
  1
COMPOSED
  3

  2
TRADENAME
 70
     0
1001
ACDBATTR
1070
     0
1070
     1
  0
ATTDEF
  5
A0B6
  8
DEFPOINTS
 10
3520.3277611222129053
 20
202.4355752110865012
 30
0.0
 40
0.001
  1
BATHROOM SINK FAUCET
  3

  2
PRODUCT
 70
     0
1001
ACDBATTR
1070
     0
1070
     1
  0
LINE
  5
A59D
  8
0
 10
3521.1483737456492236
 20
210.6527287406539131
 30
0.0
 11
3512.5727592904618177
 21
210.9520499698776064
 31
0.0
  0
ARC
  5
A59E
  8
0
 10
3512.5729560563781888
 20
210.9207541248767086
 30
0.0
 40
0.0312964635565476
 50
90.3602301844216953
 51
178.1477145360443046
  0
LINE
  5
A59F
  8
0
 10
3512.5416759458430533
 20
210.9217657157448969
 30
0.0
 11
3512.5246383970270472
 21
210.4338741309616978
 31
0.0
  0
ARC
  5
A5A0
  8
0
 10
3512.5561152735740507
 20
210.43277493426001
 30
0.0
 40
0.0314960630964571
 50
178.0000000883040059
 51
267.9999983073116141
  0
LINE
  5
A5A1
  8
0
 10
3512.5550160758939455
 20
210.401298057746601
 30
0.0
 11
3521.146205040643963
 21
210.101286874131489
 31
0.0
  0
LINE
  5
A5A2
  8
0
 10
3519.328436812858854
 20
202.4407306648136
 30
0.0
 11
3519.328436812858854
 21
202.5779424335204055
 31
0.0
  0
ARC
  5
A5A3
  8
0
 10
3519.3487142695748844
 20
202.5779424335204055
 30
0.0
 40
0.0202774567161894
 50
91.6986189105399347
 51
179.9999999999984084
  0
ARC
  5
A5A4
  8
0
 10
3519.5174045407588892
 20
202.6297070428136067
 30
0.0
 40
0.0314960629999996
 50
179.9999999999984084
 51
270.0
  0
LINE
  5
A5A5
  8
0
 10
3519.4859084777581302
 20
202.6297070428136067
 30
0.0
 11
3519.485857648090132
 21
210.1266536952844035
 31
0.0
  0
ARC
  5
A5A6
  8
0
 10
3519.517353908494897
 20
210.1266522212866903
 30
0.0
 40
0.0314962604396193
 50
88.0690564195968904
 51
179.9973186070660915
  0
LINE
  5
A5A7
  8
0
 10
3520.1748848559959697
 20
210.9466537607135024
 30
0.0
 11
3520.1748848556580924
 21
210.9544861940717908
 31
0.0
  0
ARC
  5
A5A8
  8
0
 10
3520.1847273773028064
 20
210.954486194495388
 30
0.0
 40
0.0098425216441704
 50
89.963987673511113
 51
180.0000024658110078
  0
ARC
  5
A5A9
  8
0
 10
3520.2240974570349863
 20
210.984013752403996
 30
0.0
 40
0.0196850365236252
 50
269.9999916279480203
 51
0.0000034678203447
  0
LINE
  5
A5AA
  8
0
 10
3520.2437824935591379
 20
210.9840137535954057
 30
0.0
 11
3520.2437824935591379
 21
211.2832263519954097
 31
0.0
  0
ARC
  5
A5AB
  8
0
 10
3520.224097454159164
 20
211.2832263519954097
 30
0.0
 40
0.0196850393999988
 50
359.9999999999951115
 51
90.0000000000781455
  0
ARC
  5
A5AC
  8
0
 10
3520.186695879358922
 20
211.3225964307953859
 30
0.0
 40
0.0196850393999988
 50
180.0
 51
270.0
  0
LINE
  5
A5AD
  8
0
 10
3520.1670108399580386
 20
211.3225964307953859
 30
0.0
 11
3520.1670108399580386
 21
213.771415328395392
 31
0.0
  0
ARC
  5
A5AE
  8
0
 10
3520.1985069029587976
 20
213.771415328395392
 30
0.0
 40
0.0314960629999988
 50
90.0
 51
179.9999999999967031
  0
LINE
  5
A5AF
  8
0
 10
3521.3362935284590094
 20
202.4407306648136
 30
0.0
 11
3521.3362935284590094
 21
202.5779424335204055
 31
0.0
  0
ARC
  5
A5B0
  8
0
 10
3521.316016071742979
 20
202.5779424335204055
 30
0.0
 40
0.0202774567161894
 50
0.0000000000016284
 51
88.3013810894600653
  0
ARC
  5
A5B1
  8
0
 10
3521.1473258005589742
 20
202.6297070428136067
 30
0.0
 40
0.0314960629999996
 50
270.0
 51
0.0000000000016284
  0
LINE
  5
A5B2
  8
0
 10
3521.1788218635588237
 20
202.6297070428136067
 30
0.0
 11
3521.1788726142431187
 21
210.0697298687292118
 31
0.0
  0
LINE
  5
A5B3
  8
0
 10
3521.1788218635588237
 20
210.6212515337954017
 30
0.0
 11
3521.1787746937588963
 21
210.1327646235953921
 31
0.0
  0
ARC
  5
A5B4
  8
0
 10
3520.4406328867171396
 20
210.9840137534121993
 30
0.0
 40
0.0196850389575367
 50
179.9999994665591885
 51
270.0000014491067191
  0
LINE
  5
A5B5
  8
0
 10
3520.4209478477591801
 20
210.9840137535954057
 30
0.0
 11
3520.4209478477591801
 21
211.2832263519954097
 31
0.0
  0
ARC
  5
A5B6
  8
0
 10
3520.4406328871577898
 20
211.2832263519954097
 30
0.0
 40
0.0196850393999988
 50
89.9999999999218403
 51
180.0000000000048885
  0
ARC
  5
A5B7
  8
0
 10
3520.4780344619589414
 20
211.3225964307953859
 30
0.0
 40
0.0196850393999988
 50
270.0
 51
0.0
  0
LINE
  5
A5B8
  8
0
 10
3520.4977195013589153
 20
211.3225964307953859
 30
0.0
 11
3520.4977195013589153
 21
213.771415328395392
 31
0.0
  0
ARC
  5
A5B9
  8
0
 10
3520.4662234383581563
 20
213.771415328395392
 30
0.0
 40
0.0314960629999988
 50
0.0000000000032569
 51
90.0
  0
LINE
  5
A5BA
  8
0
 10
3519.328436812858854
 20
202.4407306648136
 30
0.0
 11
3521.3362935284590094
 21
202.4407306648136
 31
0.0
  0
LINE
  5
A5BB
  8
0
 10
3519.3481132021588564
 20
202.5982109798135014
 30
0.0
 11
3521.3166171391580974
 21
202.5982109798135014
 31
0.0
  0
LINE
  5
A5BC
  8
0
 10
3520.1847273773028064
 20
210.9643287161395904
 30
0.0
 11
3520.4799967776589256
 21
210.9643287141954033
 31
0.0
  0
LINE
  5
A5BD
  8
0
 10
3520.186695879358922
 20
211.302911391395412
 30
0.0
 11
3520.4780344619589414
 21
211.302911391395412
 31
0.0
  0
LINE
  5
A5BE
  8
0
 10
3520.1985069029587976
 20
213.8029113913954973
 30
0.0
 11
3520.4662234383581563
 21
213.8029113913954973
 31
0.0
  0
ARC
  5
A5BF
  8
0
 10
3521.1484235435318624
 20
210.6223119704995952
 30
0.0
 40
0.0304168109184697
 50
358.0020633065694824
 51
90.0938037135983905
  0
ARC
  5
A5C0
  8
0
 10
3521.1462333133849825
 20
210.1338462118146992
 30
0.0
 40
0.0325593499584259
 50
269.9502475033702922
 51
358.0963427318329764
  0
ARC
  5
A5C1
  8
0
 10
3521.1457551365510881
 20
210.0681340214084969
 30
0.0
 40
0.0331559053166111
 50
2.758804387421093
 51
89.2225096379801244
  0
LINE
  5
A5C2
  8
0
 10
3519.8169220066188245
 20
210.7042733911075061
 30
0.0
 11
3519.817680914246921
 21
210.7216552319555944
 31
0.0
  0
ARC
  5
A5C3
  8
0
 10
3519.8255474356587911
 20
210.721311772182986
 30
0.0
 40
0.0078740157305203
 50
88.0000002201658447
 51
177.4999997798300058
  0
ARC
  5
A5C4
  8
0
 10
3519.825944868426177
 20
210.7370567021349927
 30
0.0
 40
0.0078766655712471
 50
180.0078954737718107
 51
269.1079128344405831
  0
LINE
  5
A5C5
  8
0
 10
3519.8180682029292257
 20
210.7370556167145992
 30
0.0
 11
3519.8186225979229675
 21
210.753068854182203
 31
0.0
  0
ARC
  5
A5C6
  8
0
 10
3519.8382956456189277
 20
210.7523818562650035
 30
0.0
 40
0.0196850392877205
 50
87.9976708157247884
 51
178.0000001353735115
  0
ARC
  5
A5C7
  8
0
 10
3520.0989043327667787
 20
210.7649228687162122
 30
0.0
 40
0.007904372343749
 50
90.0979325618797162
 51
192.2332353003961032
  0
ARC
  5
A5C8
  8
0
 10
3520.3383962028669885
 20
210.8011621031895118
 30
0.0
 40
0.2262156680761188
 50
140.4324459200711033
 51
187.3547767605747936
  0
ARC
  5
A5C9
  8
0
 10
3520.1670036013010758
 20
210.9427495475588046
 30
0.0
 40
0.0039042198652653
 50
89.8937701301917684
 51
140.0088730883468031
  0
ARC
  5
A5CA
  8
0
 10
3520.8219480345292141
 20
210.7180319578145884
 30
0.0
 40
0.0196850394000023
 50
358.0000000000090949
 51
87.9999999930614933
  0
LINE
  5
A5CB
  8
0
 10
3520.841621082335223
 20
210.7173449598469119
 30
0.0
 11
3520.8410714839651519
 21
210.7016065217133871
 31
0.0
  0
ARC
  5
A5CC
  8
0
 10
3520.8332007712720042
 20
210.7018813730570059
 30
0.0
 40
0.0078755102407317
 50
266.8838055373201996
 51
358.0000000000172236
  0
ARC
  5
A5CD
  8
0
 10
3520.8324978511300287
 20
210.6861482889146089
 30
0.0
 40
0.0078740156999966
 50
358.499999999972772
 51
88.0000000000224247
  0
LINE
  5
A5CE
  8
0
 10
3520.8403691686280581
 20
210.6859421711824893
 30
0.0
 11
3520.8399035874599576
 21
210.6681623404136019
 31
0.0
  0
LINE
  5
A5CF
  8
0
 10
3519.8258222348140407
 20
210.7291809912769907
 30
0.0
 11
3520.8327726503139274
 21
210.6940175079770086
 31
0.0
  0
LINE
  5
A5D0
  8
0
 10
3519.8389834433291981
 20
210.7720548760146073
 30
0.0
 11
3520.8226350324989653
 21
210.7377050056203984
 31
0.0
  0
LINE
  5
A5D1
  8
0
 10
3520.0988908222589089
 20
210.7728272295136094
 30
0.0
 11
3520.5634138520458691
 21
210.756605727810495
 31
0.0
  0
LINE
  5
A5D2
  8
0
 10
3520.1670108399589481
 20
210.9466537607135024
 30
0.0
 11
3520.4977925362750284
 21
210.9466537607135024
 31
0.0
  0
LINE
  5
A5D3
  8
0
 10
3519.8169051030590708
 20
210.7038862347135932
 30
0.0
 11
3520.8399035874599576
 21
210.6681623404136019
 31
0.0
  0
ARC
  5
A5D4
  8
0
 10
3519.8567320971587833
 20
210.7162833722136099
 30
0.0
 40
0.0196850393999994
 50
222.4270040007938007
 51
247.6829714469172075
  0
ARC
  5
A5D5
  8
0
 10
3520.8010383904588707
 20
210.6833074698135988
 30
0.0
 40
0.0196850394000454
 50
288.4530715267007963
 51
313.5729959991846272
  0
LINE
  5
A5D6
  8
0
 10
3520.4899040429218076
 20
210.9466537607135024
 30
0.0
 11
3520.4899040432587753
 21
210.9544861940717908
 31
0.0
  0
ARC
  5
A5D7
  8
0
 10
3520.4800615216149708
 20
210.954486194495388
 30
0.0
 40
0.0098425216441704
 50
359.9999975341888785
 51
90.0360123264889012
  0
ARC
  5
A5D8
  8
0
 10
3520.5631467659791269
 20
210.7487425348664942
 30
0.0
 40
0.0078677276415524
 50
347.9453960520880855
 51
88.0546040944181527
  0
ARC
  5
A5D9
  8
0
 10
3520.3263926960507888
 20
210.8011621031895118
 30
0.0
 40
0.2262156680761188
 50
348.7769881026375742
 51
39.567554079928847
  0
ARC
  5
A5DA
  8
0
 10
3520.4977852976171562
 20
210.9427495475586909
 30
0.0
 40
0.0039042198652723
 50
39.9911269117377799
 51
89.8937701262314022
  0
LINE
  5
A5DB
  8
0
 10
3520.5708410024590194
 20
210.7470994088135114
 30
0.0
 11
3520.5707140785730189
 21
210.7465022791797082
 31
0.0
  0
LINE
  5
A5DC
  8
0
 10
3512.7204836575901936
 20
210.3955197975735132
 30
0.0
 11
3512.7146286147590217
 21
210.2278533071136053
 31
0.0
  0
LINE
  5
A5DD
  8
0
 10
3512.7146286147590217
 20
210.2278533071136053
 30
0.0
 11
3512.7339050240598226
 21
210.2158080697136029
 31
0.0
  0
LINE
  5
A5DE
  8
0
 10
3512.7339050240598226
 20
210.2158080697136029
 30
0.0
 11
3513.638865221758806
 21
210.1842061632135881
 31
0.0
  0
LINE
  5
A5DF
  8
0
 10
3513.638865221758806
 20
210.1842061632135881
 30
0.0
 11
3513.6589349079590647
 21
210.1948774047135942
 31
0.0
  0
LINE
  5
A5E0
  8
0
 10
3513.6589349079590647
 20
210.1948774047135942
 30
0.0
 11
3513.6647899499162122
 21
210.3625438672781911
 31
0.0
  0
LINE
  5
A5E1
  8
0
 10
3513.0519101408590359
 20
210.2160751767135878
 30
0.0
 11
3513.055635490259192
 21
210.3227552239135889
 31
0.0
  0
LINE
  5
A5E2
  8
0
 10
3513.055635490259192
 20
210.3227552239135889
 30
0.0
 11
3513.3253787311618908
 21
210.3133355824801072
 31
0.0
  0
LINE
  5
A5E3
  8
0
 10
3513.3253787311618908
 20
210.3133355824801072
 30
0.0
 11
3513.3216533818590506
 21
210.2066555351136117
 31
0.0
  0
ARC
  5
A5E4
  8
0
 10
3513.174706157458786
 20
209.8655653043136056
 30
0.0
 40
0.4724409448587643
 50
71.4021579111755784
 51
104.5978421293203979
  0
LINE
  5
A5E5
  8
0
 10
3513.0519101408590359
 20
210.2160751767135878
 30
0.0
 11
3512.7146286147590217
 21
210.2278533071136053
 31
0.0
  0
LINE
  5
A5E6
  8
0
 10
3513.3216533818590506
 20
210.2066555351136117
 30
0.0
 11
3513.6589349079590647
 21
210.1948774047135942
 31
0.0
  0
ARC
  5
A5E7
  8
0
 10
3513.2171164464089088
 20
211.0279505884047069
 30
0.0
 40
0.8285136130296015
 50
258.4980763603595051
 51
267.8742906174809946
  0
ARC
  5
A5E8
  8
0
 10
3513.2132217096268505
 20
211.0319032129403922
 30
0.0
 40
0.8323407699385306
 50
268.3423563162335199
 51
277.4853781571546278
  0
ENDSEC
  0
EOF
