  0
SECTION
  2
HEADER
  9
$ACADVER
  1
AC1009
  9
$INSBASE
 10
3512.3371056811611197
 20
200.4623734007930125
 30
0.0
  9
$EXTMIN
 10
3511.3331773232339401
 20
200.4573259715224935
 30
0.0
  9
$EXTMAX
 10
3513.3410352541040993
 20
211.8245541273929859
 30
0.0
  9
$LIMMIN
 10
0.0
 20
0.0
  9
$LIMMAX
 10
11.6929133858000007
 20
8.2677165353999982
  9
$ORTHOMODE
 70
     0
  9
$REGENMODE
 70
     1
  9
$FILLMODE
 70
     1
  9
$QTEXTMODE
 70
     0
  9
$MIRRTEXT
 70
     0
  9
$DRAGMODE
 70
     2
  9
$LTSCALE
 40
0.6431102362
  9
$OSMODE
 70
  4095
  9
$ATTMODE
 70
     1
  9
$TEXTSIZE
 40
0.2
  9
$TRACEWID
 40
0.05
  9
$TEXTSTYLE
  7
STANDARD
  9
$CLAYER
  8
0
  9
$CELTYPE
  6
BYLAYER
  9
$CECOLOR
 62
   256
  9
$DIMSCALE
 40
1.0
  9
$DIMASZ
 40
0.1875
  9
$DIMEXO
 40
0.0625
  9
$DIMDLI
 40
0.4443307087
  9
$DIMRND
 40
0.0
  9
$DIMDLE
 40
0.0
  9
$DIMEXE
 40
0.125
  9
$DIMTP
 40
0.01
  9
$DIMTM
 40
0.01
  9
$DIMTXT
 40
2.0
  9
$DIMCEN
 40
0.1052362205
  9
$DIMTSZ
 40
0.0
  9
$DIMTOL
 70
     1
  9
$DIMLIM
 70
     0
  9
$DIMTIH
 70
     1
  9
$DIMTOH
 70
     1
  9
$DIMSE1
 70
     0
  9
$DIMSE2
 70
     0
  9
$DIMTAD
 70
     0
  9
$DIMZIN
 70
     0
  9
$DIMBLK
  1

  9
$DIMASO
 70
     1
  9
$DIMSHO
 70
     1
  9
$DIMPOST
  1
\X
  9
$DIMAPOST
  1

  9
$DIMALT
 70
     1
  9
$DIMALTD
 70
     2
  9
$DIMALTF
 40
25.3999999999999986
  9
$DIMLFAC
 40
1.0
  9
$DIMTOFL
 70
     0
  9
$DIMTVP
 40
0.0
  9
$DIMTIX
 70
     0
  9
$DIMSOXD
 70
     0
  9
$DIMSAH
 70
     0
  9
$DIMBLK1
  1

  9
$DIMBLK2
  1

  9
$DIMSTYLE
  2
STANDARD
  9
$DIMCLRD
 70
     0
  9
$DIMCLRE
 70
     0
  9
$DIMCLRT
 70
     0
  9
$DIMTFAC
 40
1.0
  9
$DIMGAP
 40
0.09
  9
$LUNITS
 70
     2
  9
$LUPREC
 70
     4
  9
$SKETCHINC
 40
0.1
  9
$FILLETRAD
 40
0.0
  9
$AUNITS
 70
     0
  9
$AUPREC
 70
     0
  9
$MENU
  1
.
  9
$ELEVATION
 40
0.0
  9
$PELEVATION
 40
0.0
  9
$THICKNESS
 40
0.0
  9
$LIMCHECK
 70
     0
  9
$BLIPMODE
 70
     0
  9
$CHAMFERA
 40
0.0
  9
$CHAMFERB
 40
0.0
  9
$SKPOLY
 70
     0
  9
$TDCREATE
 40
2458060.468368056230247
  9
$TDUPDATE
 40
2459864.9412037041038275
  9
$TDINDWG
 40
0.6922524306
  9
$TDUSRTIMER
 40
0.6922524306
  9
$USRTIMER
 70
     1
  9
$ANGBASE
 50
0.0
  9
$ANGDIR
 70
     0
  9
$PDMODE
 70
     0
  9
$PDSIZE
 40
0.3125
  9
$PLINEWID
 40
0.0
  9
$COORDS
 70
     1
  9
$SPLFRAME
 70
     0
  9
$SPLINETYPE
 70
     6
  9
$SPLINESEGS
 70
     8
  9
$ATTDIA
 70
     1
  9
$ATTREQ
 70
     1
  9
$HANDLING
 70
     1
  9
$HANDSEED
  5
A9F4
  9
$SURFTAB1
 70
     6
  9
$SURFTAB2
 70
     6
  9
$SURFTYPE
 70
     6
  9
$SURFU
 70
     6
  9
$SURFV
 70
     6
  9
$UCSNAME
  2

  9
$UCSORG
 10
0.0
 20
0.0
 30
0.0
  9
$UCSXDIR
 10
1.0
 20
0.0
 30
0.0
  9
$UCSYDIR
 10
0.0
 20
1.0
 30
0.0
  9
$PUCSNAME
  2

  9
$PUCSORG
 10
0.0
 20
0.0
 30
0.0
  9
$PUCSXDIR
 10
1.0
 20
0.0
 30
0.0
  9
$PUCSYDIR
 10
0.0
 20
1.0
 30
0.0
  9
$USERI1
 70
     0
  9
$USERI2
 70
     0
  9
$USERI3
 70
     0
  9
$USERI4
 70
     0
  9
$USERI5
 70
     0
  9
$USERR1
 40
0.0
  9
$USERR2
 40
0.0
  9
$USERR3
 40
0.0
  9
$USERR4
 40
0.0
  9
$USERR5
 40
0.0
  9
$WORLDVIEW
 70
     1
  9
$SHADEDGE
 70
     3
  9
$SHADEDIF
 70
    70
  9
$TILEMODE
 70
     1
  9
$MAXACTVP
 70
    64
  9
$PLIMCHECK
 70
     0
  9
$PEXTMIN
 10
1.0000000000000000E+20
 20
1.0000000000000000E+20
 30
1.0000000000000000E+20
  9
$PEXTMAX
 10
-1.0000000000000000E+20
 20
-1.0000000000000000E+20
 30
-1.0000000000000000E+20
  9
$PLIMMIN
 10
0.0
 20
0.0
  9
$PLIMMAX
 10
12.0
 20
9.0
  9
$UNITMODE
 70
     0
  9
$VISRETAIN
 70
     1
  9
$PLINEGEN
 70
     0
  9
$PSLTSCALE
 70
     1
  0
ENDSEC
  0
SECTION
  2
TABLES
  0
TABLE
  2
VPORT
 70
     1
  0
VPORT
  2
*ACTIVE
 70
     0
 10
0.0
 20
0.0
 11
1.0
 21
1.0
 12
242.3093791341860026
 22
13.0983527691843396
 13
0.0
 23
0.0
 14
1.0
 24
1.0
 15
0.0
 25
0.0
 16
0.0
 26
0.0
 36
116.782910842256598
 17
3270.0277271544828182
 27
193.0425872802734091
 37
0.0
 40
11.4581164579760504
 41
2.1471354166666661
 42
50.0
 43
0.0
 44
0.0
 50
0.0
 51
0.0
 71
     0
 72
   100
 73
     1
 74
     1
 75
     0
 76
     0
 77
     0
 78
     0
  0
ENDTAB
  0
TABLE
  2
LTYPE
 70
     2
  0
LTYPE
  2
CONTINUOUS
 70
     0
  3
Solid line
 72
    65
 73
     0
 40
0.0
  0
LTYPE
  2
PHANTOM2
 70
     0
  3
___ _ _ ___ _ _ ___ _ _ ___ _ _
 72
    65
 73
     6
 40
1.25
 49
0.625
 49
-0.125
 49
0.125
 49
-0.125
 49
0.125
 49
-0.125
  0
ENDTAB
  0
TABLE
  2
LAYER
 70
     2
  0
LAYER
  2
0
 70
     0
 62
   255
  6
CONTINUOUS
  0
LAYER
  2
DEFPOINTS
 70
     0
 62
     7
  6
CONTINUOUS
  0
ENDTAB
  0
TABLE
  2
STYLE
 70
     1
  0
STYLE
  2
STANDARD
 70
     0
 40
0.0
 41
0.8
 50
0.0
 71
     0
 42
0.2
  3
txt
  4

  0
ENDTAB
  0
TABLE
  2
VIEW
 70
     0
  0
ENDTAB
  0
TABLE
  2
UCS
 70
     0
  0
ENDTAB
  0
TABLE
  2
APPID
 70
     9
  0
APPID
  2
ACAD
 70
     0
  0
APPID
  2
ACAD_MLEADERVER
 70
     0
  0
APPID
  2
ACAD_EXEMPT_FROM_CAD_STANDARDS
 70
     0
  0
APPID
  2
ACAD_NAV_VCDISPLAY
 70
     0
  0
APPID
  2
ACAECLAYERSTANDARD
 70
     0
  0
APPID
  2
ACCMTRANSPARENCY
 70
     0
  0
APPID
  2
ACAD_DSTYLE_DIMJAG
 70
     0
  0
APPID
  2
ACAD_DSTYLE_DIMTALN
 70
     0
  0
APPID
  2
ACDBATTR
 70
     0
  0
ENDTAB
  0
TABLE
  2
DIMSTYLE
 70
     1
  0
DIMSTYLE
  2
STANDARD
 70
     0
  3

  4

  5

  6

  7

 40
1.0
 41
0.1875
 42
0.0625
 43
0.38
 44
0.125
 45
0.0
 46
0.0
 47
0.01
 48
0.01
140
0.15625
141
0.09
142
0.0
143
25.3999999999999986
144
1.0
145
0.0
146
1.0
147
0.09
 71
     1
 72
     0
 73
     1
 74
     1
 75
     0
 76
     0
 77
     0
 78
     4
170
     0
171
     2
172
     0
173
     0
174
     0
175
     0
176
     0
177
     0
178
     0
  0
ENDTAB
  0
ENDSEC
  0
SECTION
  2
BLOCKS
  0
BLOCK
  8
0
  2
$MODEL_SPACE
 70
     0
 10
0.0
 20
0.0
 30
0.0
  3
$MODEL_SPACE
  1

  0
ENDBLK
  5
21
  8
0
  0
BLOCK
 67
     1
  8
0
  2
$PAPER_SPACE
 70
     0
 10
0.0
 20
0.0
 30
0.0
  3
$PAPER_SPACE
  1

  0
ENDBLK
  5
1D
 67
     1
  8
0
  0
ENDSEC
  0
SECTION
  2
ENTITIES
  0
ATTDEF
  5
A0B4
  8
DEFPOINTS
 10
3512.3325786462851283
 20
200.4606593048559091
 30
0.0
 40
0.001
  1
K-73053W-ND
  3

  2
MODELNUMBER
 70
     0
1001
ACDBATTR
1070
     0
1070
     1
  0
ATTDEF
  5
A0B5
  8
DEFPOINTS
 10
3512.3325786462851283
 20
200.4589926381891871
 30
0.0
 40
0.001
  1
COMPOSED
  3

  2
TRADENAME
 70
     0
1001
ACDBATTR
1070
     0
1070
     1
  0
ATTDEF
  5
A0B6
  8
DEFPOINTS
 10
3512.3325786462851283
 20
200.4573259715224935
 30
0.0
 40
0.001
  1
BATHROOM SINK FAUCET
  3

  2
PRODUCT
 70
     0
1001
ACDBATTR
1070
     0
1070
     1
  0
LINE
  5
A73E
  8
0
 10
3511.3331773233599051
 20
200.4623734007930125
 30
0.0
 11
3511.3331773233599051
 21
200.5995851694997896
 31
0.0
  0
ARC
  5
A73F
  8
0
 10
3511.35345244108521
 20
200.599587440156796
 30
0.0
 40
0.0202751178513745
 50
91.6922022242184482
 51
180.0064166858917076
  0
ARC
  5
A740
  8
0
 10
3511.5221450512608499
 20
200.6513497787929907
 30
0.0
 40
0.0314960629999996
 50
180.0
 51
270.0
  0
LINE
  5
A741
  8
0
 10
3511.4906489882610003
 20
200.6513497787929907
 30
0.0
 11
3511.4906489882619098
 21
208.1198441227896012
 31
0.0
  0
ARC
  5
A742
  8
0
 10
3511.5258781471247858
 20
208.1192558252353138
 30
0.0
 40
0.0352340705604679
 50
96.010887472993133
 51
179.0432972182524907
  0
ARC
  5
A743
  8
0
 10
3512.3037667630751457
 20
190.891197494089397
 30
0.0
 40
17.288625830041159
 50
89.8895121739086136
 51
91.9232148227760746
  0
ARC
  5
A744
  8
0
 10
3511.7813436413689487
 20
206.141024325289294
 30
0.0
 40
2.029882984972045
 50
91.6312789512982562
 51
97.3349699196883336
  0
ARC
  5
A745
  8
0
 10
3511.5223693456259753
 20
208.9381868567047036
 30
0.0
 40
0.0317205558061914
 50
103.1308812093194973
 51
180.2026670210530028
  0
ARC
  5
A746
  8
0
 10
3511.6538777936789302
 20
206.9066466330961021
 30
0.0
 40
2.067090959330474
 50
90.377586823331157
 51
93.8477932373671848
  0
ARC
  5
A747
  8
0
 10
3511.5219709637690357
 20
208.4501249121946955
 30
0.0
 40
0.0313220302252849
 50
179.8929043376186883
 51
270.3798767322920185
  0
ARC
  5
A748
  8
0
 10
3511.6218501938160443
 20
207.2286925457719917
 30
0.0
 40
1.194277468380796
 50
89.1169661852832178
 51
94.7873382388296761
  0
ARC
  5
A749
  8
0
 10
3511.5248536488879836
 20
208.1834963320536929
 30
0.0
 40
0.0342110981622284
 50
181.1115288877248872
 51
248.2590223644045011
  0
LINE
  5
A74A
  8
0
 10
3511.4906489882610003
 20
208.9380746547730041
 30
0.0
 11
3511.4906489882610003
 21
208.4501834584202982
 31
0.0
  0
LINE
  5
A74B
  8
0
 10
3511.4906489882610003
 20
208.4500663659692066
 30
0.0
 11
3511.4906489882610003
 21
208.1828326838929968
 31
0.0
  0
LINE
  5
A74C
  8
0
 10
3512.179625366261007
 20
208.9738053179929977
 30
0.0
 11
3512.1796253661609626
 21
208.9761289300693932
 31
0.0
  0
ARC
  5
A74D
  8
0
 10
3512.1894678886342263
 20
208.976128930149514
 30
0.0
 40
0.0098425224734207
 50
89.9819986655645465
 51
180.0000004662950914
  0
ARC
  5
A74E
  8
0
 10
3512.228837967536947
 20
209.0056564884015984
 30
0.0
 40
0.0196850365236252
 50
269.9999916279480203
 51
0.0000034678203447
  0
LINE
  5
A74F
  8
0
 10
3512.2485230040610986
 20
209.005656489593008
 30
0.0
 11
3512.2485230040610986
 21
209.304869087993012
 31
0.0
  0
ARC
  5
A750
  8
0
 10
3512.2288379646611247
 20
209.304869087993012
 30
0.0
 40
0.0196850393999988
 50
359.9999999999951115
 51
90.0000000000781455
  0
ARC
  5
A751
  8
0
 10
3512.1914363898608826
 20
209.3442391667929883
 30
0.0
 40
0.0196850393999988
 50
180.0
 51
270.0
  0
LINE
  5
A752
  8
0
 10
3512.1717513504609087
 20
209.3442391667929883
 30
0.0
 11
3512.1717513504609087
 21
211.7930580643929943
 31
0.0
  0
ARC
  5
A753
  8
0
 10
3512.203247413461213
 20
211.7930580643929943
 30
0.0
 40
0.0314960629999988
 50
90.0
 51
179.9999999999967031
  0
LINE
  5
A754
  8
0
 10
3513.3410340389609701
 20
200.4623734007930125
 30
0.0
 11
3513.3410340389609701
 21
200.5995851694997896
 31
0.0
  0
ARC
  5
A755
  8
0
 10
3513.3209839717469549
 20
200.5998059156893021
 30
0.0
 40
0.0200512823575126
 50
359.3692133861894149
 51
88.9321677036896858
  0
ARC
  5
A756
  8
0
 10
3513.1520663110609348
 20
200.6513497787929907
 30
0.0
 40
0.0314960629999996
 50
270.0
 51
0.0
  0
LINE
  5
A757
  8
0
 10
3513.1835623740607844
 20
200.6513497787929907
 30
0.0
 11
3513.1835623740607844
 21
208.1198441227896012
 31
0.0
  0
ARC
  5
A758
  8
0
 10
3513.1483332151969989
 20
208.1192558252350011
 30
0.0
 40
0.0352340705607339
 50
0.9567027821561678
 51
83.9891125268496666
  0
ARC
  5
A759
  8
0
 10
3512.3704446108558841
 20
190.8911979641804066
 30
0.0
 40
17.2886253598253496
 50
88.0767851634069245
 51
90.1104876130384298
  0
ARC
  5
A75A
  8
0
 10
3512.8928677209542002
 20
206.141024325289294
 30
0.0
 40
2.029882984972045
 50
82.6650300803116949
 51
88.368721048701758
  0
ARC
  5
A75B
  8
0
 10
3513.1518420166958094
 20
208.9381868567047036
 30
0.0
 40
0.0317205558062002
 50
359.7973329789567742
 51
76.8691187906536157
  0
ARC
  5
A75C
  8
0
 10
3513.0203335686428545
 20
206.9066466330961021
 30
0.0
 40
2.067090959330474
 50
86.1522067626328152
 51
89.622413176668843
  0
ARC
  5
A75D
  8
0
 10
3513.1522403985518395
 20
208.4501249121946955
 30
0.0
 40
0.0313220302252865
 50
269.6201232677080952
 51
0.1070956623796564
  0
ARC
  5
A75E
  8
0
 10
3513.0523611685061951
 20
207.2286925457719917
 30
0.0
 40
1.194277468380796
 50
85.2126617611703239
 51
90.883033814716768
  0
ARC
  5
A75F
  8
0
 10
3513.1493575637009599
 20
208.1834965201061038
 30
0.0
 40
0.0342113283009516
 50
291.7410939065453022
 51
358.888163588338216
  0
LINE
  5
A760
  8
0
 10
3513.1835623740607844
 20
208.9380746547730041
 30
0.0
 11
3513.1835623740607844
 21
208.4500663659682971
 31
0.0
  0
LINE
  5
A761
  8
0
 10
3512.4945859960607777
 20
208.9738053179929977
 30
0.0
 11
3512.4945859961608221
 21
208.9761289300693932
 31
0.0
  0
ARC
  5
A762
  8
0
 10
3512.4847434770049404
 20
208.9761289315243005
 30
0.0
 40
0.0098425191554884
 50
359.9999915307118954
 51
90.0180206550255519
  0
ARC
  5
A763
  8
0
 10
3512.4453733972181908
 20
209.005656489409688
 30
0.0
 40
0.0196850389575367
 50
179.9999994665591885
 51
270.0000014491067191
  0
LINE
  5
A764
  8
0
 10
3512.4256883582611408
 20
209.005656489593008
 30
0.0
 11
3512.4256883582611408
 21
209.304869087993012
 31
0.0
  0
ARC
  5
A765
  8
0
 10
3512.4453733976611147
 20
209.304869087993012
 30
0.0
 40
0.0196850393999988
 50
89.9999999999218403
 51
180.0000000000048885
  0
ARC
  5
A766
  8
0
 10
3512.4827749724599926
 20
209.3442391667929883
 30
0.0
 40
0.0196850393999988
 50
270.0
 51
0.0
  0
LINE
  5
A767
  8
0
 10
3512.502460011860876
 20
209.3442391667929883
 30
0.0
 11
3512.502460011860876
 21
211.7930580643929943
 31
0.0
  0
ARC
  5
A768
  8
0
 10
3512.4709639488610264
 20
211.7930580643929943
 30
0.0
 40
0.0314960629999988
 50
0.0000000000032569
 51
90.0
  0
LINE
  5
A769
  8
0
 10
3511.3331773233599051
 20
200.4623734007930125
 30
0.0
 11
3513.3410340389609701
 21
200.4623734007930125
 31
0.0
  0
LINE
  5
A76A
  8
0
 10
3511.3528537126608171
 20
200.6198537157929991
 30
0.0
 11
3513.3213576496609676
 21
200.6198537157929991
 31
0.0
  0
LINE
  5
A76B
  8
0
 10
3511.6402554873598092
 20
208.4228281815570085
 30
0.0
 11
3513.0339558749619755
 21
208.4228281815570085
 31
0.0
  0
LINE
  5
A76C
  8
0
 10
3511.6402554873598092
 20
208.9736927058569904
 30
0.0
 11
3513.0339558749619755
 21
208.9736927058569904
 31
0.0
  0
LINE
  5
A76D
  8
0
 10
3512.1894709809830601
 20
208.9859714521371075
 30
0.0
 11
3512.4847403813391793
 21
208.9859714501930057
 31
0.0
  0
LINE
  5
A76E
  8
0
 10
3512.1914363898608826
 20
209.3245541273929859
 30
0.0
 11
3512.4827749724599926
 21
209.3245541273929859
 31
0.0
  0
LINE
  5
A76F
  8
0
 10
3512.203247413461213
 20
211.8245541273749097
 30
0.0
 11
3512.4709639488610264
 21
211.8245541273749097
 31
0.0
  0
LINE
  5
A770
  8
0
 10
3513.1835623740607844
 20
208.4500663659682971
 30
0.0
 11
3513.1835624508607907
 21
208.1828326838929968
 31
0.0
  0
ARC
  5
A771
  8
0
 10
3512.2355581635010822
 20
202.2535869961207027
 30
0.0
 40
6.1631204771754211
 50
91.6551570055492135
 51
92.9913589291906959
  0
ARC
  5
A772
  8
0
 10
3510.3386189275579454
 20
321.304882505597277
 30
0.0
 40
112.9038322447163978
 50
270.8723433216906074
 51
270.9587291232846837
  0
ARC
  5
A773
  8
0
 10
3512.2467191192331484
 20
217.21340130811069
 30
0.0
 40
8.7965657528354235
 50
269.876434982400383
 51
270.5887365364945936
  0
LINE
  5
A774
  8
0
 10
3511.8646647361711075
 20
208.3593611868930111
 30
0.0
 11
3511.8646647361711075
 21
208.402843772817306
 31
0.0
  0
LINE
  5
A775
  8
0
 10
3511.8646647361711075
 20
208.3593611868930111
 30
0.0
 11
3511.884349775595183
 21
208.3443979598687861
 31
0.0
  0
LINE
  5
A776
  8
0
 10
3511.884349775595183
 20
208.3443979598687861
 30
0.0
 11
3511.8843497755719909
 21
208.2216498524929875
 31
0.0
  0
LINE
  5
A777
  8
0
 10
3511.8646647361711075
 20
208.3593611868930111
 30
0.0
 11
3511.8843497755929093
 21
208.3346357473699868
 31
0.0
  0
ARC
  5
A778
  8
0
 10
3511.8676127780408933
 20
208.3911267354937138
 30
0.0
 40
0.0120822148014736
 50
104.1226538788864957
 51
123.1454183171948955
  0
ARC
  5
A779
  8
0
 10
3511.8653600195111721
 20
208.4033176985537921
 30
0.0
 40
0.0048224814813686
 50
205.48114240254219
 51
261.315935593993288
  0
ARC
  5
A77A
  8
0
 10
3512.3887063565339304
 20
197.5580005821331895
 30
0.0
 40
10.6916199811543802
 50
90.2765261393421099
 51
92.7038214838777179
  0
ARC
  5
A77B
  8
0
 10
3511.8870292467991021
 20
208.2232184979827139
 30
0.0
 40
0.0031048695188371
 50
210.3460283487490017
 51
254.1307643634183933
  0
ARC
  5
A77C
  8
0
 10
3511.9502175608681682
 20
208.5505033206233065
 30
0.0
 40
0.3364222785461778
 50
259.026904432274705
 51
267.0910766787637272
  0
ARC
  5
A77D
  8
0
 10
3512.2934270018840834
 20
215.3047390091199134
 30
0.0
 40
7.0993722603339728
 50
267.0910766787637272
 51
268.1853853749195196
  0
ARC
  5
A77E
  8
0
 10
3512.3745657993358691
 20
223.1841863111141038
 30
0.0
 40
14.9783842548456807
 50
268.8296066733919929
 51
269.8567062459904946
  0
ARC
  5
A77F
  8
0
 10
3512.3277523088650014
 20
197.1872064948746015
 30
0.0
 40
11.0502482693533697
 50
89.9515025538274102
 51
91.1998044989047116
  0
ARC
  5
A780
  8
0
 10
3512.1531157697731942
 20
205.5256266709911017
 30
0.0
 40
2.7099995347980852
 50
91.1998044989047116
 51
93.5362365886618932
  0
ARC
  5
A781
  8
0
 10
3511.9216597346448907
 20
208.187392797850606
 30
0.0
 40
0.0382115441767108
 50
99.2732282247067133
 51
126.7000597886206066
  0
ARC
  5
A782
  8
0
 10
3512.0183357782198073
 20
207.3393217277460963
 30
0.0
 40
0.8917324006203594
 50
92.0804442289808236
 51
96.6220161398028381
  0
ARC
  5
A783
  8
0
 10
3512.0047827868997956
 20
208.2430221469356866
 30
0.0
 40
0.0226232612660397
 50
213.7104122762320912
 51
253.6307687623481115
  0
ARC
  5
A784
  8
0
 10
3512.0218336327970974
 20
208.3010710253745117
 30
0.0
 40
0.0831245309532291
 50
253.6307687623481115
 51
267.022524891453088
  0
ARC
  5
A785
  8
0
 10
3512.3293676264038368
 20
214.2136428677052891
 30
0.0
 40
6.0036889422190214
 50
267.022524891453088
 51
270.0738475970676973
  0
ARC
  5
A786
  8
0
 10
3512.3174206417711503
 20
208.0046017560158873
 30
0.0
 40
0.2259270233620514
 50
86.0030102340554521
 51
93.9969897659445479
  0
ARC
  5
A787
  8
0
 10
3512.3174206417711503
 20
208.4554079029389868
 30
0.0
 40
0.2259780375753565
 50
266.0039140147500802
 51
273.9960859852498061
  0
ARC
  5
A788
  8
0
 10
3512.3174205986460947
 20
208.0022206563085945
 30
0.0
 40
0.2259270233620514
 50
86.0030102340554521
 51
93.9969897659445479
  0
ARC
  5
A789
  8
0
 10
3512.3174205986460947
 20
208.453026803231694
 30
0.0
 40
0.2259780375753565
 50
266.0039140147500802
 51
273.9960859852498061
  0
ARC
  5
A78A
  8
0
 10
3512.3174205986460947
 20
207.9998408255086133
 30
0.0
 40
0.2259270233620514
 50
86.0030102340554521
 51
93.9969897659445479
  0
ARC
  5
A78B
  8
0
 10
3512.3174205986460947
 20
208.4506469724317128
 30
0.0
 40
0.2259780375753565
 50
266.0039140147500802
 51
273.9960859852498061
  0
ARC
  5
A78C
  8
0
 10
3512.3174205986460947
 20
207.9974609948085913
 30
0.0
 40
0.2259270233620514
 50
86.0030102340554521
 51
93.9969897659445479
  0
ARC
  5
A78D
  8
0
 10
3512.3174205986460947
 20
208.4482671417316908
 30
0.0
 40
0.2259780375753565
 50
266.0039140147500802
 51
273.9960859852498061
  0
ARC
  5
A78E
  8
0
 10
3512.3174205986460947
 20
207.9950811640086101
 30
0.0
 40
0.2259270233620514
 50
86.0030102340554521
 51
93.9969897659445479
  0
ARC
  5
A78F
  8
0
 10
3512.3174205986460947
 20
208.4458873109317096
 30
0.0
 40
0.2259780375753565
 50
266.0039140147500802
 51
273.9960859852498061
  0
ARC
  5
A790
  8
0
 10
3512.3174205986460947
 20
207.9927013332086005
 30
0.0
 40
0.2259270233620514
 50
86.0030102340554521
 51
93.9969897659445479
  0
ARC
  5
A791
  8
0
 10
3512.3174205986460947
 20
208.4435074801317
 30
0.0
 40
0.2259780375753565
 50
266.0039140147500802
 51
273.9960859852498061
  0
ARC
  5
A792
  8
0
 10
3512.3174205986460947
 20
207.990321502508607
 30
0.0
 40
0.2259270233620514
 50
86.0030102340554521
 51
93.9969897659445479
  0
ARC
  5
A793
  8
0
 10
3512.3174205986460947
 20
208.4411276494317065
 30
0.0
 40
0.2259780375753565
 50
266.0039140147500802
 51
273.9960859852498061
  0
ARC
  5
A794
  8
0
 10
3512.3174205986460947
 20
207.9879416717569995
 30
0.0
 40
0.2259270233620514
 50
86.0030102340554521
 51
93.9969897659445479
  0
ARC
  5
A795
  8
0
 10
3512.3174205986460947
 20
208.4387478186800138
 30
0.0
 40
0.2259780375753565
 50
266.0039140147500802
 51
273.9960859852498061
  0
ARC
  5
A796
  8
0
 10
3512.2583655236721825
 20
208.0034118406159109
 30
0.0
 40
0.2259270233620514
 50
86.0030102340554521
 51
93.9969897659445479
  0
ARC
  5
A797
  8
0
 10
3512.2583655236721825
 20
208.4542179875390104
 30
0.0
 40
0.2259780375753565
 50
266.0039140147500802
 51
273.9960859852498061
  0
ARC
  5
A798
  8
0
 10
3512.2583654805462174
 20
208.0010307409085897
 30
0.0
 40
0.2259270233620514
 50
86.0030102340554521
 51
93.9969897659445479
  0
ARC
  5
A799
  8
0
 10
3512.2583654805462174
 20
208.4518368878316892
 30
0.0
 40
0.2259780375753565
 50
266.0039140147500802
 51
273.9960859852498061
  0
ARC
  5
A79A
  8
0
 10
3512.2583654805462174
 20
207.9986509101086085
 30
0.0
 40
0.2259270233620514
 50
86.0030102340554521
 51
93.9969897659445479
  0
ARC
  5
A79B
  8
0
 10
3512.2583654805462174
 20
208.449457057031708
 30
0.0
 40
0.2259780375753565
 50
266.0039140147500802
 51
273.9960859852498061
  0
ARC
  5
A79C
  8
0
 10
3512.2583654805462174
 20
207.9962710794085865
 30
0.0
 40
0.2259270233620514
 50
86.0030102340554521
 51
93.9969897659445479
  0
ARC
  5
A79D
  8
0
 10
3512.2583654805462174
 20
208.447077226331686
 30
0.0
 40
0.2259780375753565
 50
266.0039140147500802
 51
273.9960859852498061
  0
ARC
  5
A79E
  8
0
 10
3512.2583654805462174
 20
207.9938912486086053
 30
0.0
 40
0.2259270233620514
 50
86.0030102340554521
 51
93.9969897659445479
  0
ARC
  5
A79F
  8
0
 10
3512.2583654805462174
 20
208.4446973955317048
 30
0.0
 40
0.2259780375753565
 50
266.0039140147500802
 51
273.9960859852498061
  0
ARC
  5
A7A0
  8
0
 10
3512.2583654805462174
 20
207.9915114178085958
 30
0.0
 40
0.2259270233620514
 50
86.0030102340554521
 51
93.9969897659445479
  0
ARC
  5
A7A1
  8
0
 10
3512.2583654805462174
 20
208.4423175647316953
 30
0.0
 40
0.2259780375753565
 50
266.0039140147500802
 51
273.9960859852498061
  0
ARC
  5
A7A2
  8
0
 10
3512.2583654805462174
 20
207.9891315871086022
 30
0.0
 40
0.2259270233620514
 50
86.0030102340554521
 51
93.9969897659445479
  0
ARC
  5
A7A3
  8
0
 10
3512.2583654805462174
 20
208.4399377340317017
 30
0.0
 40
0.2259780375753565
 50
266.0039140147500802
 51
273.9960859852498061
  0
ARC
  5
A7A4
  8
0
 10
3512.2583654805462174
 20
207.9867517563569947
 30
0.0
 40
0.2259270233620514
 50
86.0030102340554521
 51
93.9969897659445479
  0
ARC
  5
A7A5
  8
0
 10
3512.2583654805462174
 20
208.437557903280009
 30
0.0
 40
0.2259780375753565
 50
266.0039140147500802
 51
273.9960859852498061
  0
ARC
  5
A7A6
  8
0
 10
3512.218995446237841
 20
208.0034116147485008
 30
0.0
 40
0.2259270233620514
 50
86.0030102340554521
 51
93.9969897659445479
  0
ARC
  5
A7A7
  8
0
 10
3512.218995446237841
 20
208.4542177616716003
 30
0.0
 40
0.2259780375753565
 50
266.0039140147500802
 51
273.9960859852498061
  0
ARC
  5
A7A8
  8
0
 10
3512.2189954031109664
 20
208.001030515041208
 30
0.0
 40
0.2259270233620514
 50
86.0030102340554521
 51
93.9969897659445479
  0
ARC
  5
A7A9
  8
0
 10
3512.2189954031109664
 20
208.4518366619643075
 30
0.0
 40
0.2259780375753565
 50
266.0039140147500802
 51
273.9960859852498061
  0
ARC
  5
A7AA
  8
0
 10
3512.2189954031109664
 20
207.9986506842411984
 30
0.0
 40
0.2259270233620514
 50
86.0030102340554521
 51
93.9969897659445479
  0
ARC
  5
A7AB
  8
0
 10
3512.2189954031109664
 20
208.4494568311642979
 30
0.0
 40
0.2259780375753565
 50
266.0039140147500802
 51
273.9960859852498061
  0
ARC
  5
A7AC
  8
0
 10
3512.2189954031109664
 20
207.9962708535412048
 30
0.0
 40
0.2259270233620514
 50
86.0030102340554521
 51
93.9969897659445479
  0
ARC
  5
A7AD
  8
0
 10
3512.2189954031109664
 20
208.4470770004643043
 30
0.0
 40
0.2259780375753565
 50
266.0039140147500802
 51
273.9960859852498061
  0
ARC
  5
A7AE
  8
0
 10
3512.2189954031109664
 20
207.9938910227411952
 30
0.0
 40
0.2259270233620514
 50
86.0030102340554521
 51
93.9969897659445479
  0
ARC
  5
A7AF
  8
0
 10
3512.2189954031109664
 20
208.4446971696642947
 30
0.0
 40
0.2259780375753565
 50
266.0039140147500802
 51
273.9960859852498061
  0
ARC
  5
A7B0
  8
0
 10
3512.2189954031109664
 20
207.9915111919412993
 30
0.0
 40
0.2259270233620514
 50
86.0030102340554521
 51
93.9969897659445479
  0
ARC
  5
A7B1
  8
0
 10
3512.2189954031109664
 20
208.4423173388643136
 30
0.0
 40
0.2259780375753565
 50
266.0039140147500802
 51
273.9960859852498061
  0
ARC
  5
A7B2
  8
0
 10
3512.2189954031109664
 20
207.9891313612411921
 30
0.0
 40
0.2259270233620514
 50
86.0030102340554521
 51
93.9969897659445479
  0
ARC
  5
A7B3
  8
0
 10
3512.2189954031109664
 20
208.4399375081642916
 30
0.0
 40
0.2259780375753565
 50
266.0039140147500802
 51
273.9960859852498061
  0
ARC
  5
A7B4
  8
0
 10
3512.199310405471806
 20
208.0046017560158873
 30
0.0
 40
0.2259270233620514
 50
86.0030102340554521
 51
93.9969897659445479
  0
ARC
  5
A7B5
  8
0
 10
3512.199310405471806
 20
208.4554079029389868
 30
0.0
 40
0.2259780375753565
 50
266.0039140147500802
 51
273.9960859852498061
  0
ARC
  5
A7B6
  8
0
 10
3512.199310362345841
 20
208.0022206563085945
 30
0.0
 40
0.2259270233620514
 50
86.0030102340554521
 51
93.9969897659445479
  0
ARC
  5
A7B7
  8
0
 10
3512.199310362345841
 20
208.453026803231694
 30
0.0
 40
0.2259780375753565
 50
266.0039140147500802
 51
273.9960859852498061
  0
ARC
  5
A7B8
  8
0
 10
3512.199310362345841
 20
207.9998408255086133
 30
0.0
 40
0.2259270233620514
 50
86.0030102340554521
 51
93.9969897659445479
  0
ARC
  5
A7B9
  8
0
 10
3512.199310362345841
 20
208.4506469724317128
 30
0.0
 40
0.2259780375753565
 50
266.0039140147500802
 51
273.9960859852498061
  0
ARC
  5
A7BA
  8
0
 10
3512.199310362345841
 20
207.9974609948085913
 30
0.0
 40
0.2259270233620514
 50
86.0030102340554521
 51
93.9969897659445479
  0
ARC
  5
A7BB
  8
0
 10
3512.199310362345841
 20
208.4482671417316908
 30
0.0
 40
0.2259780375753565
 50
266.0039140147500802
 51
273.9960859852498061
  0
ARC
  5
A7BC
  8
0
 10
3512.199310362345841
 20
207.9950811640086101
 30
0.0
 40
0.2259270233620514
 50
86.0030102340554521
 51
93.9969897659445479
  0
ARC
  5
A7BD
  8
0
 10
3512.199310362345841
 20
208.4458873109317096
 30
0.0
 40
0.2259780375753565
 50
266.0039140147500802
 51
273.9960859852498061
  0
ARC
  5
A7BE
  8
0
 10
3512.199310362345841
 20
207.9927013332086005
 30
0.0
 40
0.2259270233620514
 50
86.0030102340554521
 51
93.9969897659445479
  0
ARC
  5
A7BF
  8
0
 10
3512.199310362345841
 20
208.4435074801317
 30
0.0
 40
0.2259780375753565
 50
266.0039140147500802
 51
273.9960859852498061
  0
ARC
  5
A7C0
  8
0
 10
3512.199310362345841
 20
207.990321502508607
 30
0.0
 40
0.2259270233620514
 50
86.0030102340554521
 51
93.9969897659445479
  0
ARC
  5
A7C1
  8
0
 10
3512.199310362345841
 20
208.4411276494317065
 30
0.0
 40
0.2259780375753565
 50
266.0039140147500802
 51
273.9960859852498061
  0
ARC
  5
A7C2
  8
0
 10
3512.199310362345841
 20
207.9879416717569995
 30
0.0
 40
0.2259270233620514
 50
86.0030102340554521
 51
93.9969897659445479
  0
ARC
  5
A7C3
  8
0
 10
3512.199310362345841
 20
208.4387478186800138
 30
0.0
 40
0.2259780375753565
 50
266.0039140147500802
 51
273.9960859852498061
  0
ARC
  5
A7C4
  8
0
 10
3512.1599403267719026
 20
208.0022219252159061
 30
0.0
 40
0.2259270233620514
 50
86.0030102340554521
 51
93.9969897659445479
  0
ARC
  5
A7C5
  8
0
 10
3512.1599403267719026
 20
208.4530280721390056
 30
0.0
 40
0.2259780375753565
 50
266.0039140147500802
 51
273.9960859852498061
  0
ARC
  5
A7C6
  8
0
 10
3512.1599402836459376
 20
207.9998408255086133
 30
0.0
 40
0.2259270233620514
 50
86.0030102340554521
 51
93.9969897659445479
  0
ARC
  5
A7C7
  8
0
 10
3512.1599402836459376
 20
208.4506469724317128
 30
0.0
 40
0.2259780375753565
 50
266.0039140147500802
 51
273.9960859852498061
  0
ARC
  5
A7C8
  8
0
 10
3512.1599402836459376
 20
207.9974609947086037
 30
0.0
 40
0.2259270233620514
 50
86.0030102340554521
 51
93.9969897659445479
  0
ARC
  5
A7C9
  8
0
 10
3512.1599402836459376
 20
208.4482671416317032
 30
0.0
 40
0.2259780375753565
 50
266.0039140147500802
 51
273.9960859852498061
  0
ARC
  5
A7CA
  8
0
 10
3512.1599402836459376
 20
207.9950811640086101
 30
0.0
 40
0.2259270233620514
 50
86.0030102340554521
 51
93.9969897659445479
  0
ARC
  5
A7CB
  8
0
 10
3512.1599402836459376
 20
208.4458873109317096
 30
0.0
 40
0.2259780375753565
 50
266.0039140147500802
 51
273.9960859852498061
  0
ARC
  5
A7CC
  8
0
 10
3512.1599402836459376
 20
207.9927013332086005
 30
0.0
 40
0.2259270233620514
 50
86.0030102340554521
 51
93.9969897659445479
  0
ARC
  5
A7CD
  8
0
 10
3512.1599402836459376
 20
208.4435074801317
 30
0.0
 40
0.2259780375753565
 50
266.0039140147500802
 51
273.9960859852498061
  0
ARC
  5
A7CE
  8
0
 10
3512.1599402836459376
 20
207.990321502408591
 30
0.0
 40
0.2259270233620514
 50
86.0030102340554521
 51
93.9969897659445479
  0
ARC
  5
A7CF
  8
0
 10
3512.1599402836459376
 20
208.4411276493316905
 30
0.0
 40
0.2259780375753565
 50
266.0039140147500802
 51
273.9960859852498061
  0
ARC
  5
A7D0
  8
0
 10
3512.1205702494371508
 20
208.0022216993687039
 30
0.0
 40
0.2259270233620514
 50
86.0030102340554521
 51
93.9969897659445479
  0
ARC
  5
A7D1
  8
0
 10
3512.1205702494371508
 20
208.4530278462918034
 30
0.0
 40
0.2259780375753565
 50
266.0039140147500802
 51
273.9960859852498061
  0
ARC
  5
A7D2
  8
0
 10
3512.1205702063111858
 20
207.999840599661411
 30
0.0
 40
0.2259270233620514
 50
86.0030102340554521
 51
93.9969897659445479
  0
ARC
  5
A7D3
  8
0
 10
3512.1205702063111858
 20
208.4506467465845105
 30
0.0
 40
0.2259780375753565
 50
266.0039140147500802
 51
273.9960859852498061
  0
ARC
  5
A7D4
  8
0
 10
3512.1205702063111858
 20
207.9974607688614014
 30
0.0
 40
0.2259270233620514
 50
86.0030102340554521
 51
93.9969897659445479
  0
ARC
  5
A7D5
  8
0
 10
3512.1205702063111858
 20
208.448266915784501
 30
0.0
 40
0.2259780375753565
 50
266.0039140147500802
 51
273.9960859852498061
  0
ARC
  5
A7D6
  8
0
 10
3512.1205702063111858
 20
207.9950809381614079
 30
0.0
 40
0.2259270233620514
 50
86.0030102340554521
 51
93.9969897659445479
  0
ARC
  5
A7D7
  8
0
 10
3512.1205702063111858
 20
208.4458870850845074
 30
0.0
 40
0.2259780375753565
 50
266.0039140147500802
 51
273.9960859852498061
  0
ARC
  5
A7D8
  8
0
 10
3512.1205702063111858
 20
207.9927011073613983
 30
0.0
 40
0.2259270233620514
 50
86.0030102340554521
 51
93.9969897659445479
  0
ARC
  5
A7D9
  8
0
 10
3512.1205702063111858
 20
208.4435072542844978
 30
0.0
 40
0.2259780375753565
 50
266.0039140147500802
 51
273.9960859852498061
  0
ARC
  5
A7DA
  8
0
 10
3512.1205702063111858
 20
207.9903212765613887
 30
0.0
 40
0.2259270233620514
 50
86.0030102340554521
 51
93.9969897659445479
  0
ARC
  5
A7DB
  8
0
 10
3512.1205702063111858
 20
208.4411274234844882
 30
0.0
 40
0.2259780375753565
 50
266.0039140147500802
 51
273.9960859852498061
  0
ARC
  5
A7DC
  8
0
 10
3512.0812001692720514
 20
207.9998420944158966
 30
0.0
 40
0.2259270233620514
 50
86.0030102340554521
 51
93.9969897659445479
  0
ARC
  5
A7DD
  8
0
 10
3512.0812001692720514
 20
208.4506482413389961
 30
0.0
 40
0.2259780375753565
 50
266.0039140147500802
 51
273.9960859852498061
  0
ARC
  5
A7DE
  8
0
 10
3512.0812001261460864
 20
207.9974609947086037
 30
0.0
 40
0.2259270233620514
 50
86.0030102340554521
 51
93.9969897659445479
  0
ARC
  5
A7DF
  8
0
 10
3512.0812001261460864
 20
208.4482671416317032
 30
0.0
 40
0.2259780375753565
 50
266.0039140147500802
 51
273.9960859852498061
  0
ARC
  5
A7E0
  8
0
 10
3512.0812001261460864
 20
207.9950811639085941
 30
0.0
 40
0.2259270233620514
 50
86.0030102340554521
 51
93.9969897659445479
  0
ARC
  5
A7E1
  8
0
 10
3512.0812001261460864
 20
208.4458873108316936
 30
0.0
 40
0.2259780375753565
 50
266.0039140147500802
 51
273.9960859852498061
  0
ARC
  5
A7E2
  8
0
 10
3512.0812001261460864
 20
207.9927013332086005
 30
0.0
 40
0.2259270233620514
 50
86.0030102340554521
 51
93.9969897659445479
  0
ARC
  5
A7E3
  8
0
 10
3512.0812001261460864
 20
208.4435074801317
 30
0.0
 40
0.2259780375753565
 50
266.0039140147500802
 51
273.9960859852498061
  0
ARC
  5
A7E4
  8
0
 10
3512.2583654437021323
 20
208.005789229561401
 30
0.0
 40
0.2259270233620514
 50
86.0030102340554521
 51
93.9969897659445479
  0
ARC
  5
A7E5
  8
0
 10
3512.2583654437021323
 20
208.4565953764845005
 30
0.0
 40
0.2259780375753565
 50
266.0039140147500802
 51
273.9960859852498061
  0
ARC
  5
A7E6
  8
0
 10
3512.2977356070759924
 20
208.005791752031314
 30
0.0
 40
0.2259270233620514
 50
86.0030102340554521
 51
93.9969897659445479
  0
ARC
  5
A7E7
  8
0
 10
3512.2977356070759924
 20
208.4565978989544135
 30
0.0
 40
0.2259780375753565
 50
266.0039140147500802
 51
273.9960859852498061
  0
ARC
  5
A7E8
  8
0
 10
3512.2977355801799604
 20
208.0034109191572043
 30
0.0
 40
0.2259270233620514
 50
86.0030102340554521
 51
93.9969897659445479
  0
ARC
  5
A7E9
  8
0
 10
3512.2977355801799604
 20
208.4542170660803038
 30
0.0
 40
0.2259780375753565
 50
266.0039140147500802
 51
273.9960859852498061
  0
ARC
  5
A7EA
  8
0
 10
3512.2977355801799604
 20
208.0010310884626961
 30
0.0
 40
0.2259270233620514
 50
86.0030102340554521
 51
93.9969897659445479
  0
ARC
  5
A7EB
  8
0
 10
3512.2977355801799604
 20
208.4518372353857956
 30
0.0
 40
0.2259780375753565
 50
266.0039140147500802
 51
273.9960859852498061
  0
ARC
  5
A7EC
  8
0
 10
3512.2977355801799604
 20
207.9986512576275004
 30
0.0
 40
0.2259270233620514
 50
86.0030102340554521
 51
93.9969897659445479
  0
ARC
  5
A7ED
  8
0
 10
3512.2977355801799604
 20
208.4494574045505999
 30
0.0
 40
0.2259780375753565
 50
266.0039140147500802
 51
273.9960859852498061
  0
ARC
  5
A7EE
  8
0
 10
3512.2977355801799604
 20
207.9962714268571062
 30
0.0
 40
0.2259270233620514
 50
86.0030102340554521
 51
93.9969897659445479
  0
ARC
  5
A7EF
  8
0
 10
3512.2977355801799604
 20
208.4470775737802057
 30
0.0
 40
0.2259780375753565
 50
266.0039140147500802
 51
273.9960859852498061
  0
ARC
  5
A7F0
  8
0
 10
3512.2977355801799604
 20
207.9938915960993882
 30
0.0
 40
0.2259270233620514
 50
86.0030102340554521
 51
93.9969897659445479
  0
ARC
  5
A7F1
  8
0
 10
3512.2977355801799604
 20
208.4446977430224877
 30
0.0
 40
0.2259780375753565
 50
266.0039140147500802
 51
273.9960859852498061
  0
ARC
  5
A7F2
  8
0
 10
3512.2977355801799604
 20
207.9915117652572008
 30
0.0
 40
0.2259270233620514
 50
86.0030102340554521
 51
93.9969897659445479
  0
ARC
  5
A7F3
  8
0
 10
3512.2977355801799604
 20
208.4423179121801866
 30
0.0
 40
0.2259780375753565
 50
266.0039140147500802
 51
273.9960859852498061
  0
ARC
  5
A7F4
  8
0
 10
3512.2977355801799604
 20
207.9891319345873058
 30
0.0
 40
0.2259270233620514
 50
86.0030102340554521
 51
93.9969897659445479
  0
ARC
  5
A7F5
  8
0
 10
3512.2977355801799604
 20
208.4399380815104053
 30
0.0
 40
0.2259780375753565
 50
266.0039140147500802
 51
273.9960859852498061
  0
ARC
  5
A7F6
  8
0
 10
3512.2977355801799604
 20
207.9867521037836013
 30
0.0
 40
0.2259270233620514
 50
86.0030102340554521
 51
93.9969897659445479
  0
ARC
  5
A7F7
  8
0
 10
3512.2977355801799604
 20
208.4375582507067008
 30
0.0
 40
0.2259780375753565
 50
266.0039140147500802
 51
273.9960859852498061
  0
ARC
  5
A7F8
  8
0
 10
3512.2780506018339111
 20
208.004600707328791
 30
0.0
 40
0.2259270233620514
 50
86.0030102340554521
 51
93.9969897659445479
  0
ARC
  5
A7F9
  8
0
 10
3512.2780506018339111
 20
208.4554068542518905
 30
0.0
 40
0.2259780375753565
 50
266.0039140147500802
 51
273.9960859852498061
  0
ARC
  5
A7FA
  8
0
 10
3512.2780508744071994
 20
208.0022186234496928
 30
0.0
 40
0.2259270233620514
 50
86.0030102340554521
 51
93.9969897659445479
  0
ARC
  5
A7FB
  8
0
 10
3512.2780508744071994
 20
208.4530247703727071
 30
0.0
 40
0.2259780375753565
 50
266.0039140147500802
 51
273.9960859852498061
  0
ARC
  5
A7FC
  8
0
 10
3512.278051417955794
 20
207.9998365465935137
 30
0.0
 40
0.2259270233620514
 50
86.0030102340554521
 51
93.9969897659445479
  0
ARC
  5
A7FD
  8
0
 10
3512.278051417955794
 20
208.4506426935166132
 30
0.0
 40
0.2259780375753565
 50
266.0039140147500802
 51
273.9960859852498061
  0
ARC
  5
A7FE
  8
0
 10
3512.2780505676760185
 20
207.9974623444313124
 30
0.0
 40
0.2259270233620514
 50
86.0030102340554521
 51
93.9969897659445479
  0
ARC
  5
A7FF
  8
0
 10
3512.2780505676760185
 20
208.4482684913544119
 30
0.0
 40
0.2259780375753565
 50
266.0039140147500802
 51
273.9960859852498061
  0
ARC
  5
A800
  8
0
 10
3512.2780505676760185
 20
207.9950825136313028
 30
0.0
 40
0.2259270233620514
 50
86.0030102340554521
 51
93.9969897659445479
  0
ARC
  5
A801
  8
0
 10
3512.2780505676760185
 20
208.4458886605544023
 30
0.0
 40
0.2259780375753565
 50
266.0039140147500802
 51
273.9960859852498061
  0
ARC
  5
A802
  8
0
 10
3512.2780546668132047
 20
207.9926903417907056
 30
0.0
 40
0.2259270233620514
 50
86.0030102340554521
 51
93.9969897659445479
  0
ARC
  5
A803
  8
0
 10
3512.2780546668132047
 20
208.4434964887138051
 30
0.0
 40
0.2259780375753565
 50
266.0039140147500802
 51
273.9960859852498061
  0
ARC
  5
A804
  8
0
 10
3512.2780505676760185
 20
207.9903228521312997
 30
0.0
 40
0.2259270233620514
 50
86.0030102340554521
 51
93.9969897659445479
  0
ARC
  5
A805
  8
0
 10
3512.2780505676760185
 20
208.4411289990543992
 30
0.0
 40
0.2259780375753565
 50
266.0039140147500802
 51
273.9960859852498061
  0
ARC
  5
A806
  8
0
 10
3512.2780581980910029
 20
207.9879261930250891
 30
0.0
 40
0.2259270233620514
 50
86.0030102340554521
 51
93.9969897659445479
  0
ARC
  5
A807
  8
0
 10
3512.2780581980910029
 20
208.4387323399481886
 30
0.0
 40
0.2259780375753565
 50
266.0039140147500802
 51
273.9960859852498061
  0
ARC
  5
A808
  8
0
 10
3512.2386804889770247
 20
208.0046018367312968
 30
0.0
 40
0.2259270233620514
 50
86.0030102340554521
 51
93.9969897659445479
  0
ARC
  5
A809
  8
0
 10
3512.2386804889770247
 20
208.4554079836543963
 30
0.0
 40
0.2259780375753565
 50
266.0039140147500802
 51
273.9960859852498061
  0
ARC
  5
A80A
  8
0
 10
3512.2386804842722086
 20
208.0022219252527975
 30
0.0
 40
0.2259270233620514
 50
86.0030102340554521
 51
93.9969897659445479
  0
ARC
  5
A80B
  8
0
 10
3512.2386804842722086
 20
208.453028072175897
 30
0.0
 40
0.2259780375753565
 50
266.0039140147500802
 51
273.9960859852498061
  0
ARC
  5
A80C
  8
0
 10
3512.2386804842722086
 20
207.9998420944158966
 30
0.0
 40
0.2259270233620514
 50
86.0030102340554521
 51
93.9969897659445479
  0
ARC
  5
A80D
  8
0
 10
3512.2386804842722086
 20
208.4506482413389961
 30
0.0
 40
0.2259780375753565
 50
266.0039140147500802
 51
273.9960859852498061
  0
ARC
  5
A80E
  8
0
 10
3512.2386804842722086
 20
207.997462263715903
 30
0.0
 40
0.2259270233620514
 50
86.0030102340554521
 51
93.9969897659445479
  0
ARC
  5
A80F
  8
0
 10
3512.2386804842722086
 20
208.4482684106390025
 30
0.0
 40
0.2259780375753565
 50
266.0039140147500802
 51
273.9960859852498061
  0
ARC
  5
A810
  8
0
 10
3512.2386804842722086
 20
207.995082432925102
 30
0.0
 40
0.2259270233620514
 50
86.0030102340554521
 51
93.9969897659445479
  0
ARC
  5
A811
  8
0
 10
3512.2386804842722086
 20
208.4458885798482015
 30
0.0
 40
0.2259780375753565
 50
266.0039140147500802
 51
273.9960859852498061
  0
ARC
  5
A812
  8
0
 10
3512.2386804842722086
 20
207.9927026021159122
 30
0.0
 40
0.2259270233620514
 50
86.0030102340554521
 51
93.9969897659445479
  0
ARC
  5
A813
  8
0
 10
3512.2386804842722086
 20
208.4435087490390117
 30
0.0
 40
0.2259780375753565
 50
266.0039140147500802
 51
273.9960859852498061
  0
ARC
  5
A814
  8
0
 10
3512.2386804842722086
 20
207.9903227714158902
 30
0.0
 40
0.2259270233620514
 50
86.0030102340554521
 51
93.9969897659445479
  0
ARC
  5
A815
  8
0
 10
3512.2386804842722086
 20
208.4411289183389044
 30
0.0
 40
0.2259780375753565
 50
266.0039140147500802
 51
273.9960859852498061
  0
ARC
  5
A816
  8
0
 10
3512.2386804842722086
 20
207.987942940615909
 30
0.0
 40
0.2259270233620514
 50
86.0030102340554521
 51
93.9969897659445479
  0
ARC
  5
A817
  8
0
 10
3512.2386804842722086
 20
208.4387490875390085
 30
0.0
 40
0.2259780375753565
 50
266.0039140147500802
 51
273.9960859852498061
  0
ARC
  5
A818
  8
0
 10
3512.1796260044320661
 20
207.9891279785254028
 30
0.0
 40
0.2259270233620514
 50
86.0030102340554521
 51
93.9969897659445479
  0
ARC
  5
A819
  8
0
 10
3512.1796260044320661
 20
208.4399341254485023
 30
0.0
 40
0.2259780375753565
 50
266.0039140147500802
 51
273.9960859852498061
  0
ARC
  5
A81A
  8
0
 10
3512.1796259128141173
 20
207.9915059593147078
 30
0.0
 40
0.2259270233620514
 50
86.0030102340554521
 51
93.9969897659445479
  0
ARC
  5
A81B
  8
0
 10
3512.1796259128141173
 20
208.4423121062378073
 30
0.0
 40
0.2259780375753565
 50
266.0039140147500802
 51
273.9960859852498061
  0
ARC
  5
A81C
  8
0
 10
3512.1796259128141173
 20
207.9938857908344971
 30
0.0
 40
0.2259270233620514
 50
86.0030102340554521
 51
93.9969897659445479
  0
ARC
  5
A81D
  8
0
 10
3512.1796259128141173
 20
208.4446919377575966
 30
0.0
 40
0.2259780375753565
 50
266.0039140147500802
 51
273.9960859852498061
  0
ARC
  5
A81E
  8
0
 10
3512.1796259128141173
 20
207.9962656216345067
 30
0.0
 40
0.2259270233620514
 50
86.0030102340554521
 51
93.9969897659445479
  0
ARC
  5
A81F
  8
0
 10
3512.1796259128141173
 20
208.4470717685576062
 30
0.0
 40
0.2259780375753565
 50
266.0039140147500802
 51
273.9960859852498061
  0
ARC
  5
A820
  8
0
 10
3512.1796259128141173
 20
207.9986454523345003
 30
0.0
 40
0.2259270233620514
 50
86.0030102340554521
 51
93.9969897659445479
  0
ARC
  5
A821
  8
0
 10
3512.1796259128141173
 20
208.4494515992575998
 30
0.0
 40
0.2259780375753565
 50
266.0039140147500802
 51
273.9960859852498061
  0
ARC
  5
A822
  8
0
 10
3512.1796259128141173
 20
208.0010252831345099
 30
0.0
 40
0.2259270233620514
 50
86.0030102340554521
 51
93.9969897659445479
  0
ARC
  5
A823
  8
0
 10
3512.1796259128141173
 20
208.4518314300576094
 30
0.0
 40
0.2259780375753565
 50
266.0039140147500802
 51
273.9960859852498061
  0
ARC
  5
A824
  8
0
 10
3512.1796259128141173
 20
208.0034051139344911
 30
0.0
 40
0.2259270233620514
 50
86.0030102340554521
 51
93.9969897659445479
  0
ARC
  5
A825
  8
0
 10
3512.1796259128141173
 20
208.4542112608575906
 30
0.0
 40
0.2259780375753565
 50
266.0039140147500802
 51
273.9960859852498061
  0
ARC
  5
A826
  8
0
 10
3512.1402558340141695
 20
207.989126129334494
 30
0.0
 40
0.2259270233620514
 50
86.0030102340554521
 51
93.9969897659445479
  0
ARC
  5
A827
  8
0
 10
3512.1402558340141695
 20
208.4399322762575935
 30
0.0
 40
0.2259780375753565
 50
266.0039140147500802
 51
273.9960859852498061
  0
ARC
  5
A828
  8
0
 10
3512.1402456218538646
 20
207.9915254268549063
 30
0.0
 40
0.2259270233620514
 50
86.0030102340554521
 51
93.9969897659445479
  0
ARC
  5
A829
  8
0
 10
3512.1402456218538646
 20
208.4423315737780058
 30
0.0
 40
0.2259780375753565
 50
266.0039140147500802
 51
273.9960859852498061
  0
ARC
  5
A82A
  8
0
 10
3512.1402456218961561
 20
207.9939052177352039
 30
0.0
 40
0.2259270233620514
 50
86.0030102340554521
 51
93.9969897659445479
  0
ARC
  5
A82B
  8
0
 10
3512.1402456218961561
 20
208.4447113646583034
 30
0.0
 40
0.2259780375753565
 50
266.0039140147500802
 51
273.9960859852498061
  0
ARC
  5
A82C
  8
0
 10
3512.140245621872964
 20
207.9962850618049117
 30
0.0
 40
0.2259270233620514
 50
86.0030102340554521
 51
93.9969897659445479
  0
ARC
  5
A82D
  8
0
 10
3512.140245621872964
 20
208.4470912087280112
 30
0.0
 40
0.2259780375753565
 50
266.0039140147500802
 51
273.9960859852498061
  0
ARC
  5
A82E
  8
0
 10
3512.1402456218538646
 20
207.9986649191548906
 30
0.0
 40
0.2259270233620514
 50
86.0030102340554521
 51
93.9969897659445479
  0
ARC
  5
A82F
  8
0
 10
3512.1402456218538646
 20
208.4494710660779901
 30
0.0
 40
0.2259780375753565
 50
266.0039140147500802
 51
273.9960859852498061
  0
ARC
  5
A830
  8
0
 10
3512.1402456218538646
 20
208.0010447499549002
 30
0.0
 40
0.2259270233620514
 50
86.0030102340554521
 51
93.9969897659445479
  0
ARC
  5
A831
  8
0
 10
3512.1402456218538646
 20
208.4518508968779997
 30
0.0
 40
0.2259780375753565
 50
266.0039140147500802
 51
273.9960859852498061
  0
ARC
  5
A832
  8
0
 10
3512.1402456218538646
 20
208.0034245807549098
 30
0.0
 40
0.2259270233620514
 50
86.0030102340554521
 51
93.9969897659445479
  0
ARC
  5
A833
  8
0
 10
3512.1402456218538646
 20
208.4542307276780093
 30
0.0
 40
0.2259780375753565
 50
266.0039140147500802
 51
273.9960859852498061
  0
ARC
  5
A834
  8
0
 10
3512.1008852086720253
 20
207.9915126867159074
 30
0.0
 40
0.2259270233620514
 50
86.0030102340554521
 51
93.9969897659445479
  0
ARC
  5
A835
  8
0
 10
3512.1008852086720253
 20
208.4423188336390069
 30
0.0
 40
0.2259780375753565
 50
266.0039140147500802
 51
273.9960859852498061
  0
ARC
  5
A836
  8
0
 10
3512.1008851431479343
 20
207.9938909535462983
 30
0.0
 40
0.2259270233620514
 50
86.0030102340554521
 51
93.9969897659445479
  0
ARC
  5
A837
  8
0
 10
3512.1008851431479343
 20
208.4446971004693978
 30
0.0
 40
0.2259780375753565
 50
266.0039140147500802
 51
273.9960859852498061
  0
ARC
  5
A838
  8
0
 10
3512.1008851431479343
 20
207.9962707840890062
 30
0.0
 40
0.2259270233620514
 50
86.0030102340554521
 51
93.9969897659445479
  0
ARC
  5
A839
  8
0
 10
3512.1008851431479343
 20
208.4470769310121057
 30
0.0
 40
0.2259780375753565
 50
266.0039140147500802
 51
273.9960859852498061
  0
ARC
  5
A83A
  8
0
 10
3512.1008851431479343
 20
207.9986506150463015
 30
0.0
 40
0.2259270233620514
 50
86.0030102340554521
 51
93.9969897659445479
  0
ARC
  5
A83B
  8
0
 10
3512.1008851431479343
 20
208.449456761969401
 30
0.0
 40
0.2259780375753565
 50
266.0039140147500802
 51
273.9960859852498061
  0
ARC
  5
A83C
  8
0
 10
3512.1008851431479343
 20
208.0010304458463111
 30
0.0
 40
0.2259270233620514
 50
86.0030102340554521
 51
93.9969897659445479
  0
ARC
  5
A83D
  8
0
 10
3512.1008851431479343
 20
208.4518365927694106
 30
0.0
 40
0.2259780375753565
 50
266.0039140147500802
 51
273.9960859852498061
  0
ARC
  5
A83E
  8
0
 10
3512.0615153707008176
 20
207.9986539946609128
 30
0.0
 40
0.2259270233620514
 50
86.0030102340554521
 51
93.9969897659445479
  0
ARC
  5
A83F
  8
0
 10
3512.0615153707008176
 20
208.4494601415840123
 30
0.0
 40
0.2259780375753565
 50
266.0039140147500802
 51
273.9960859852498061
  0
ARC
  5
A840
  8
0
 10
3512.0615152006807875
 20
207.9962730390460877
 30
0.0
 40
0.2259270233620514
 50
86.0030102340554521
 51
93.9969897659445479
  0
ARC
  5
A841
  8
0
 10
3512.0615152006807875
 20
208.4470791859691872
 30
0.0
 40
0.2259780375753565
 50
266.0039140147500802
 51
273.9960859852498061
  0
ARC
  5
A842
  8
0
 10
3512.0615150985240689
 20
207.9938920815249048
 30
0.0
 40
0.2259270233620514
 50
86.0030102340554521
 51
93.9969897659445479
  0
ARC
  5
A843
  8
0
 10
3512.0615150985240689
 20
208.4446982284480043
 30
0.0
 40
0.2259780375753565
 50
266.0039140147500802
 51
273.9960859852498061
  0
ARC
  5
A844
  8
0
 10
3512.5021923989470451
 20
203.6150318320918871
 30
0.0
 40
4.800469354416232
 50
87.3500486353420484
 51
88.6335488030551062
  0
ARC
  5
A845
  8
0
 10
3514.335592434686987
 20
321.304882505597277
 30
0.0
 40
112.9038322447163978
 50
269.0412708767153163
 51
269.1276566783093926
  0
ARC
  5
A846
  8
0
 10
3512.2991535884812038
 20
185.5982977874473079
 30
0.0
 40
22.81903371109183
 50
89.6301215492627819
 51
89.9047069318494607
  0
LINE
  5
A847
  8
0
 10
3512.8095466260729154
 20
208.3593611868930111
 30
0.0
 11
3512.8095466260729154
 21
208.402843772817306
 31
0.0
  0
LINE
  5
A848
  8
0
 10
3512.8095466260729154
 20
208.3593611868930111
 30
0.0
 11
3512.7898615866488399
 21
208.3443979598687861
 31
0.0
  0
LINE
  5
A849
  8
0
 10
3512.7898615866488399
 20
208.3443979598687861
 30
0.0
 11
3512.789861586672032
 21
208.2216498524929875
 31
0.0
  0
LINE
  5
A84A
  8
0
 10
3512.8095466260729154
 20
208.3593611868930111
 30
0.0
 11
3512.7898615866511136
 21
208.3346357473699868
 31
0.0
  0
ARC
  5
A84B
  8
0
 10
3512.8065985842022201
 20
208.3911267354937138
 30
0.0
 40
0.0120822148014736
 50
56.8545816828050832
 51
75.8773461211134759
  0
ARC
  5
A84C
  8
0
 10
3512.8088513427319413
 20
208.4033176985537921
 30
0.0
 40
0.0048224814813686
 50
278.684064406006712
 51
334.5188575974577816
  0
ARC
  5
A84D
  8
0
 10
3512.2855050056791697
 20
197.5580005812986997
 30
0.0
 40
10.6916199819893301
 50
87.2961785161483732
 51
89.7234738601107438
  0
ARC
  5
A84E
  8
0
 10
3512.7871821154449208
 20
208.2232184979827139
 30
0.0
 40
0.0031048695188371
 50
285.8692356365816067
 51
329.6539716512510267
  0
ARC
  5
A84F
  8
0
 10
3512.7239938013772189
 20
208.5505033206233065
 30
0.0
 40
0.3364222785461778
 50
272.9089233212362728
 51
280.973095567725295
  0
ARC
  5
A850
  8
0
 10
3512.3807843603599395
 20
215.3047390091199134
 30
0.0
 40
7.0993722603339728
 50
271.8146146250804804
 51
272.9089233212362728
  0
ARC
  5
A851
  8
0
 10
3512.2996455628690455
 20
223.1841863135294091
 30
0.0
 40
14.9783842572612098
 50
270.143293754426395
 51
271.170393326581916
  0
ARC
  5
A852
  8
0
 10
3512.3464590533872069
 20
197.1872064954251869
 30
0.0
 40
11.0502482688028003
 50
88.8001955010952742
 51
90.0484974458339025
  0
ARC
  5
A853
  8
0
 10
3512.5210955924708287
 20
205.5256266709911017
 30
0.0
 40
2.7099995347980852
 50
86.4637634113381068
 51
88.8001955010952742
  0
ARC
  5
A854
  8
0
 10
3512.7525516275982227
 20
208.187392797850606
 30
0.0
 40
0.0382115441767108
 50
53.2999402113793579
 51
80.7267717752933009
  0
ARC
  5
A855
  8
0
 10
3512.6558755840242156
 20
207.3393217277460963
 30
0.0
 40
0.8917324006203594
 50
83.3779838601971761
 51
87.9195557710192048
  0
ARC
  5
A856
  8
0
 10
3512.6694285753442273
 20
208.2430221469356866
 30
0.0
 40
0.0226232612660397
 50
286.3692312376517748
 51
326.2895877237677951
  0
ARC
  5
A857
  8
0
 10
3512.6523777294469255
 20
208.3010710253745117
 30
0.0
 40
0.0831245309532291
 50
272.977475108546912
 51
286.3692312376517748
  0
ARC
  5
A858
  8
0
 10
3512.3448437358460978
 20
214.2136428675644879
 30
0.0
 40
6.0036889420780701
 50
269.9261524036097057
 51
272.977475108546912
  0
ARC
  5
A859
  8
0
 10
3512.3567907204728726
 20
208.0046017560158873
 30
0.0
 40
0.2259270233620514
 50
86.0030102340554521
 51
93.9969897659445479
  0
ARC
  5
A85A
  8
0
 10
3512.3567907204728726
 20
208.4554079029389868
 30
0.0
 40
0.2259780375753565
 50
266.0039140147500802
 51
273.9960859852498061
  0
ARC
  5
A85B
  8
0
 10
3512.3567907635979282
 20
208.0022206563085945
 30
0.0
 40
0.2259270233620514
 50
86.0030102340554521
 51
93.9969897659445479
  0
ARC
  5
A85C
  8
0
 10
3512.3567907635979282
 20
208.453026803231694
 30
0.0
 40
0.2259780375753565
 50
266.0039140147500802
 51
273.9960859852498061
  0
ARC
  5
A85D
  8
0
 10
3512.3567907635979282
 20
207.9998408255086133
 30
0.0
 40
0.2259270233620514
 50
86.0030102340554521
 51
93.9969897659445479
  0
ARC
  5
A85E
  8
0
 10
3512.3567907635979282
 20
208.4506469724317128
 30
0.0
 40
0.2259780375753565
 50
266.0039140147500802
 51
273.9960859852498061
  0
ARC
  5
A85F
  8
0
 10
3512.3567907635979282
 20
207.9974609948085913
 30
0.0
 40
0.2259270233620514
 50
86.0030102340554521
 51
93.9969897659445479
  0
ARC
  5
A860
  8
0
 10
3512.3567907635979282
 20
208.4482671417316908
 30
0.0
 40
0.2259780375753565
 50
266.0039140147500802
 51
273.9960859852498061
  0
ARC
  5
A861
  8
0
 10
3512.3567907635979282
 20
207.9950811640086101
 30
0.0
 40
0.2259270233620514
 50
86.0030102340554521
 51
93.9969897659445479
  0
ARC
  5
A862
  8
0
 10
3512.3567907635979282
 20
208.4458873109317096
 30
0.0
 40
0.2259780375753565
 50
266.0039140147500802
 51
273.9960859852498061
  0
ARC
  5
A863
  8
0
 10
3512.3567907635979282
 20
207.9927013332086005
 30
0.0
 40
0.2259270233620514
 50
86.0030102340554521
 51
93.9969897659445479
  0
ARC
  5
A864
  8
0
 10
3512.3567907635979282
 20
208.4435074801317
 30
0.0
 40
0.2259780375753565
 50
266.0039140147500802
 51
273.9960859852498061
  0
ARC
  5
A865
  8
0
 10
3512.3567907635979282
 20
207.990321502508607
 30
0.0
 40
0.2259270233620514
 50
86.0030102340554521
 51
93.9969897659445479
  0
ARC
  5
A866
  8
0
 10
3512.3567907635979282
 20
208.4411276494317065
 30
0.0
 40
0.2259780375753565
 50
266.0039140147500802
 51
273.9960859852498061
  0
ARC
  5
A867
  8
0
 10
3512.3567907635979282
 20
207.9879416717569995
 30
0.0
 40
0.2259270233620514
 50
86.0030102340554521
 51
93.9969897659445479
  0
ARC
  5
A868
  8
0
 10
3512.3567907635979282
 20
208.4387478186800138
 30
0.0
 40
0.2259780375753565
 50
266.0039140147500802
 51
273.9960859852498061
  0
ARC
  5
A869
  8
0
 10
3512.4158458385718404
 20
208.0034118406159109
 30
0.0
 40
0.2259270233620514
 50
86.0030102340554521
 51
93.9969897659445479
  0
ARC
  5
A86A
  8
0
 10
3512.4158458385718404
 20
208.4542179875390104
 30
0.0
 40
0.2259780375753565
 50
266.0039140147500802
 51
273.9960859852498061
  0
ARC
  5
A86B
  8
0
 10
3512.4158458816978055
 20
208.0010307409085897
 30
0.0
 40
0.2259270233620514
 50
86.0030102340554521
 51
93.9969897659445479
  0
ARC
  5
A86C
  8
0
 10
3512.4158458816978055
 20
208.4518368878316892
 30
0.0
 40
0.2259780375753565
 50
266.0039140147500802
 51
273.9960859852498061
  0
ARC
  5
A86D
  8
0
 10
3512.4158458816978055
 20
207.9986509101086085
 30
0.0
 40
0.2259270233620514
 50
86.0030102340554521
 51
93.9969897659445479
  0
ARC
  5
A86E
  8
0
 10
3512.4158458816978055
 20
208.449457057031708
 30
0.0
 40
0.2259780375753565
 50
266.0039140147500802
 51
273.9960859852498061
  0
ARC
  5
A86F
  8
0
 10
3512.4158458816978055
 20
207.9962710794085865
 30
0.0
 40
0.2259270233620514
 50
86.0030102340554521
 51
93.9969897659445479
  0
ARC
  5
A870
  8
0
 10
3512.4158458816978055
 20
208.447077226331686
 30
0.0
 40
0.2259780375753565
 50
266.0039140147500802
 51
273.9960859852498061
  0
ARC
  5
A871
  8
0
 10
3512.4158458816978055
 20
207.9938912486086053
 30
0.0
 40
0.2259270233620514
 50
86.0030102340554521
 51
93.9969897659445479
  0
ARC
  5
A872
  8
0
 10
3512.4158458816978055
 20
208.4446973955317048
 30
0.0
 40
0.2259780375753565
 50
266.0039140147500802
 51
273.9960859852498061
  0
ARC
  5
A873
  8
0
 10
3512.4158458816978055
 20
207.9915114178085958
 30
0.0
 40
0.2259270233620514
 50
86.0030102340554521
 51
93.9969897659445479
  0
ARC
  5
A874
  8
0
 10
3512.4158458816978055
 20
208.4423175647316953
 30
0.0
 40
0.2259780375753565
 50
266.0039140147500802
 51
273.9960859852498061
  0
ARC
  5
A875
  8
0
 10
3512.4158458816978055
 20
207.9891315871086022
 30
0.0
 40
0.2259270233620514
 50
86.0030102340554521
 51
93.9969897659445479
  0
ARC
  5
A876
  8
0
 10
3512.4158458816978055
 20
208.4399377340317017
 30
0.0
 40
0.2259780375753565
 50
266.0039140147500802
 51
273.9960859852498061
  0
ARC
  5
A877
  8
0
 10
3512.4158458816978055
 20
207.9867517563569947
 30
0.0
 40
0.2259270233620514
 50
86.0030102340554521
 51
93.9969897659445479
  0
ARC
  5
A878
  8
0
 10
3512.4158458816978055
 20
208.437557903280009
 30
0.0
 40
0.2259780375753565
 50
266.0039140147500802
 51
273.9960859852498061
  0
ARC
  5
A879
  8
0
 10
3512.4552159160061819
 20
208.0034116147485008
 30
0.0
 40
0.2259270233620514
 50
86.0030102340554521
 51
93.9969897659445479
  0
ARC
  5
A87A
  8
0
 10
3512.4552159160061819
 20
208.4542177616716003
 30
0.0
 40
0.2259780375753565
 50
266.0039140147500802
 51
273.9960859852498061
  0
ARC
  5
A87B
  8
0
 10
3512.455215959132147
 20
208.001030515041208
 30
0.0
 40
0.2259270233620514
 50
86.0030102340554521
 51
93.9969897659445479
  0
ARC
  5
A87C
  8
0
 10
3512.455215959132147
 20
208.4518366619643075
 30
0.0
 40
0.2259780375753565
 50
266.0039140147500802
 51
273.9960859852498061
  0
ARC
  5
A87D
  8
0
 10
3512.455215959132147
 20
207.9986506842411984
 30
0.0
 40
0.2259270233620514
 50
86.0030102340554521
 51
93.9969897659445479
  0
ARC
  5
A87E
  8
0
 10
3512.455215959132147
 20
208.4494568311642979
 30
0.0
 40
0.2259780375753565
 50
266.0039140147500802
 51
273.9960859852498061
  0
ARC
  5
A87F
  8
0
 10
3512.455215959132147
 20
207.9962708535412048
 30
0.0
 40
0.2259270233620514
 50
86.0030102340554521
 51
93.9969897659445479
  0
ARC
  5
A880
  8
0
 10
3512.455215959132147
 20
208.4470770004643043
 30
0.0
 40
0.2259780375753565
 50
266.0039140147500802
 51
273.9960859852498061
  0
ARC
  5
A881
  8
0
 10
3512.455215959132147
 20
207.9938910227411952
 30
0.0
 40
0.2259270233620514
 50
86.0030102340554521
 51
93.9969897659445479
  0
ARC
  5
A882
  8
0
 10
3512.455215959132147
 20
208.4446971696642947
 30
0.0
 40
0.2259780375753565
 50
266.0039140147500802
 51
273.9960859852498061
  0
ARC
  5
A883
  8
0
 10
3512.455215959132147
 20
207.9915111919412993
 30
0.0
 40
0.2259270233620514
 50
86.0030102340554521
 51
93.9969897659445479
  0
ARC
  5
A884
  8
0
 10
3512.455215959132147
 20
208.4423173388643136
 30
0.0
 40
0.2259780375753565
 50
266.0039140147500802
 51
273.9960859852498061
  0
ARC
  5
A885
  8
0
 10
3512.455215959132147
 20
207.9891313612411921
 30
0.0
 40
0.2259270233620514
 50
86.0030102340554521
 51
93.9969897659445479
  0
ARC
  5
A886
  8
0
 10
3512.455215959132147
 20
208.4399375081642916
 30
0.0
 40
0.2259780375753565
 50
266.0039140147500802
 51
273.9960859852498061
  0
ARC
  5
A887
  8
0
 10
3512.4749009567708526
 20
208.0046017560158873
 30
0.0
 40
0.2259270233620514
 50
86.0030102340554521
 51
93.9969897659445479
  0
ARC
  5
A888
  8
0
 10
3512.4749009567708526
 20
208.4554079029389868
 30
0.0
 40
0.2259780375753565
 50
266.0039140147500802
 51
273.9960859852498061
  0
ARC
  5
A889
  8
0
 10
3512.4749009998981819
 20
208.0022206563085945
 30
0.0
 40
0.2259270233620514
 50
86.0030102340554521
 51
93.9969897659445479
  0
ARC
  5
A88A
  8
0
 10
3512.4749009998981819
 20
208.453026803231694
 30
0.0
 40
0.2259780375753565
 50
266.0039140147500802
 51
273.9960859852498061
  0
ARC
  5
A88B
  8
0
 10
3512.4749009998981819
 20
207.9998408255086133
 30
0.0
 40
0.2259270233620514
 50
86.0030102340554521
 51
93.9969897659445479
  0
ARC
  5
A88C
  8
0
 10
3512.4749009998981819
 20
208.4506469724317128
 30
0.0
 40
0.2259780375753565
 50
266.0039140147500802
 51
273.9960859852498061
  0
ARC
  5
A88D
  8
0
 10
3512.4749009998981819
 20
207.9974609948085913
 30
0.0
 40
0.2259270233620514
 50
86.0030102340554521
 51
93.9969897659445479
  0
ARC
  5
A88E
  8
0
 10
3512.4749009998981819
 20
208.4482671417316908
 30
0.0
 40
0.2259780375753565
 50
266.0039140147500802
 51
273.9960859852498061
  0
ARC
  5
A88F
  8
0
 10
3512.4749009998981819
 20
207.9950811640086101
 30
0.0
 40
0.2259270233620514
 50
86.0030102340554521
 51
93.9969897659445479
  0
ARC
  5
A890
  8
0
 10
3512.4749009998981819
 20
208.4458873109317096
 30
0.0
 40
0.2259780375753565
 50
266.0039140147500802
 51
273.9960859852498061
  0
ARC
  5
A891
  8
0
 10
3512.4749009998981819
 20
207.9927013332086005
 30
0.0
 40
0.2259270233620514
 50
86.0030102340554521
 51
93.9969897659445479
  0
ARC
  5
A892
  8
0
 10
3512.4749009998981819
 20
208.4435074801317
 30
0.0
 40
0.2259780375753565
 50
266.0039140147500802
 51
273.9960859852498061
  0
ARC
  5
A893
  8
0
 10
3512.4749009998981819
 20
207.990321502508607
 30
0.0
 40
0.2259270233620514
 50
86.0030102340554521
 51
93.9969897659445479
  0
ARC
  5
A894
  8
0
 10
3512.4749009998981819
 20
208.4411276494317065
 30
0.0
 40
0.2259780375753565
 50
266.0039140147500802
 51
273.9960859852498061
  0
ARC
  5
A895
  8
0
 10
3512.4749009998981819
 20
207.9879416717569995
 30
0.0
 40
0.2259270233620514
 50
86.0030102340554521
 51
93.9969897659445479
  0
ARC
  5
A896
  8
0
 10
3512.4749009998981819
 20
208.4387478186800138
 30
0.0
 40
0.2259780375753565
 50
266.0039140147500802
 51
273.9960859852498061
  0
ARC
  5
A897
  8
0
 10
3512.5142710354721203
 20
208.0022219252159061
 30
0.0
 40
0.2259270233620514
 50
86.0030102340554521
 51
93.9969897659445479
  0
ARC
  5
A898
  8
0
 10
3512.5142710354721203
 20
208.4530280721390056
 30
0.0
 40
0.2259780375753565
 50
266.0039140147500802
 51
273.9960859852498061
  0
ARC
  5
A899
  8
0
 10
3512.5142710785980853
 20
207.9998408255086133
 30
0.0
 40
0.2259270233620514
 50
86.0030102340554521
 51
93.9969897659445479
  0
ARC
  5
A89A
  8
0
 10
3512.5142710785980853
 20
208.4506469724317128
 30
0.0
 40
0.2259780375753565
 50
266.0039140147500802
 51
273.9960859852498061
  0
ARC
  5
A89B
  8
0
 10
3512.5142710785980853
 20
207.9974609947086037
 30
0.0
 40
0.2259270233620514
 50
86.0030102340554521
 51
93.9969897659445479
  0
ARC
  5
A89C
  8
0
 10
3512.5142710785980853
 20
208.4482671416317032
 30
0.0
 40
0.2259780375753565
 50
266.0039140147500802
 51
273.9960859852498061
  0
ARC
  5
A89D
  8
0
 10
3512.5142710785980853
 20
207.9950811640086101
 30
0.0
 40
0.2259270233620514
 50
86.0030102340554521
 51
93.9969897659445479
  0
ARC
  5
A89E
  8
0
 10
3512.5142710785980853
 20
208.4458873109317096
 30
0.0
 40
0.2259780375753565
 50
266.0039140147500802
 51
273.9960859852498061
  0
ARC
  5
A89F
  8
0
 10
3512.5142710785980853
 20
207.9927013332086005
 30
0.0
 40
0.2259270233620514
 50
86.0030102340554521
 51
93.9969897659445479
  0
ARC
  5
A8A0
  8
0
 10
3512.5142710785980853
 20
208.4435074801317
 30
0.0
 40
0.2259780375753565
 50
266.0039140147500802
 51
273.9960859852498061
  0
ARC
  5
A8A1
  8
0
 10
3512.5142710785980853
 20
207.990321502408591
 30
0.0
 40
0.2259270233620514
 50
86.0030102340554521
 51
93.9969897659445479
  0
ARC
  5
A8A2
  8
0
 10
3512.5142710785980853
 20
208.4411276493316905
 30
0.0
 40
0.2259780375753565
 50
266.0039140147500802
 51
273.9960859852498061
  0
ARC
  5
A8A3
  8
0
 10
3512.5536411128068721
 20
208.0022216993687039
 30
0.0
 40
0.2259270233620514
 50
86.0030102340554521
 51
93.9969897659445479
  0
ARC
  5
A8A4
  8
0
 10
3512.5536411128068721
 20
208.4530278462918034
 30
0.0
 40
0.2259780375753565
 50
266.0039140147500802
 51
273.9960859852498061
  0
ARC
  5
A8A5
  8
0
 10
3512.5536411559328371
 20
207.999840599661411
 30
0.0
 40
0.2259270233620514
 50
86.0030102340554521
 51
93.9969897659445479
  0
ARC
  5
A8A6
  8
0
 10
3512.5536411559328371
 20
208.4506467465845105
 30
0.0
 40
0.2259780375753565
 50
266.0039140147500802
 51
273.9960859852498061
  0
ARC
  5
A8A7
  8
0
 10
3512.5536411559328371
 20
207.9974607688614014
 30
0.0
 40
0.2259270233620514
 50
86.0030102340554521
 51
93.9969897659445479
  0
ARC
  5
A8A8
  8
0
 10
3512.5536411559328371
 20
208.448266915784501
 30
0.0
 40
0.2259780375753565
 50
266.0039140147500802
 51
273.9960859852498061
  0
ARC
  5
A8A9
  8
0
 10
3512.5536411559328371
 20
207.9950809381614079
 30
0.0
 40
0.2259270233620514
 50
86.0030102340554521
 51
93.9969897659445479
  0
ARC
  5
A8AA
  8
0
 10
3512.5536411559328371
 20
208.4458870850845074
 30
0.0
 40
0.2259780375753565
 50
266.0039140147500802
 51
273.9960859852498061
  0
ARC
  5
A8AB
  8
0
 10
3512.5536411559328371
 20
207.9927011073613983
 30
0.0
 40
0.2259270233620514
 50
86.0030102340554521
 51
93.9969897659445479
  0
ARC
  5
A8AC
  8
0
 10
3512.5536411559328371
 20
208.4435072542844978
 30
0.0
 40
0.2259780375753565
 50
266.0039140147500802
 51
273.9960859852498061
  0
ARC
  5
A8AD
  8
0
 10
3512.5536411559328371
 20
207.9903212765613887
 30
0.0
 40
0.2259270233620514
 50
86.0030102340554521
 51
93.9969897659445479
  0
ARC
  5
A8AE
  8
0
 10
3512.5536411559328371
 20
208.4411274234844882
 30
0.0
 40
0.2259780375753565
 50
266.0039140147500802
 51
273.9960859852498061
  0
ARC
  5
A8AF
  8
0
 10
3512.5930111929719715
 20
207.9998420944158966
 30
0.0
 40
0.2259270233620514
 50
86.0030102340554521
 51
93.9969897659445479
  0
ARC
  5
A8B0
  8
0
 10
3512.5930111929719715
 20
208.4506482413389961
 30
0.0
 40
0.2259780375753565
 50
266.0039140147500802
 51
273.9960859852498061
  0
ARC
  5
A8B1
  8
0
 10
3512.593011236098846
 20
207.9974609947086037
 30
0.0
 40
0.2259270233620514
 50
86.0030102340554521
 51
93.9969897659445479
  0
ARC
  5
A8B2
  8
0
 10
3512.593011236098846
 20
208.4482671416317032
 30
0.0
 40
0.2259780375753565
 50
266.0039140147500802
 51
273.9960859852498061
  0
ARC
  5
A8B3
  8
0
 10
3512.593011236098846
 20
207.9950811639085941
 30
0.0
 40
0.2259270233620514
 50
86.0030102340554521
 51
93.9969897659445479
  0
ARC
  5
A8B4
  8
0
 10
3512.593011236098846
 20
208.4458873108316936
 30
0.0
 40
0.2259780375753565
 50
266.0039140147500802
 51
273.9960859852498061
  0
ARC
  5
A8B5
  8
0
 10
3512.593011236098846
 20
207.9927013332086005
 30
0.0
 40
0.2259270233620514
 50
86.0030102340554521
 51
93.9969897659445479
  0
ARC
  5
A8B6
  8
0
 10
3512.593011236098846
 20
208.4435074801317
 30
0.0
 40
0.2259780375753565
 50
266.0039140147500802
 51
273.9960859852498061
  0
ARC
  5
A8B7
  8
0
 10
3512.4158459185428001
 20
208.005789229561401
 30
0.0
 40
0.2259270233620514
 50
86.0030102340554521
 51
93.9969897659445479
  0
ARC
  5
A8B8
  8
0
 10
3512.4158459185428001
 20
208.4565953764845005
 30
0.0
 40
0.2259780375753565
 50
266.0039140147500802
 51
273.9960859852498061
  0
ARC
  5
A8B9
  8
0
 10
3512.3764757551680304
 20
208.005791752031314
 30
0.0
 40
0.2259270233620514
 50
86.0030102340554521
 51
93.9969897659445479
  0
ARC
  5
A8BA
  8
0
 10
3512.3764757551680304
 20
208.4565978989544135
 30
0.0
 40
0.2259780375753565
 50
266.0039140147500802
 51
273.9960859852498061
  0
ARC
  5
A8BB
  8
0
 10
3512.376475782064972
 20
208.0034109191572043
 30
0.0
 40
0.2259270233620514
 50
86.0030102340554521
 51
93.9969897659445479
  0
ARC
  5
A8BC
  8
0
 10
3512.376475782064972
 20
208.4542170660803038
 30
0.0
 40
0.2259780375753565
 50
266.0039140147500802
 51
273.9960859852498061
  0
ARC
  5
A8BD
  8
0
 10
3512.376475782064972
 20
208.0010310884626961
 30
0.0
 40
0.2259270233620514
 50
86.0030102340554521
 51
93.9969897659445479
  0
ARC
  5
A8BE
  8
0
 10
3512.376475782064972
 20
208.4518372353857956
 30
0.0
 40
0.2259780375753565
 50
266.0039140147500802
 51
273.9960859852498061
  0
ARC
  5
A8BF
  8
0
 10
3512.376475782064972
 20
207.9986512576275004
 30
0.0
 40
0.2259270233620514
 50
86.0030102340554521
 51
93.9969897659445479
  0
ARC
  5
A8C0
  8
0
 10
3512.376475782064972
 20
208.4494574045505999
 30
0.0
 40
0.2259780375753565
 50
266.0039140147500802
 51
273.9960859852498061
  0
ARC
  5
A8C1
  8
0
 10
3512.376475782064972
 20
207.9962714268571062
 30
0.0
 40
0.2259270233620514
 50
86.0030102340554521
 51
93.9969897659445479
  0
ARC
  5
A8C2
  8
0
 10
3512.376475782064972
 20
208.4470775737802057
 30
0.0
 40
0.2259780375753565
 50
266.0039140147500802
 51
273.9960859852498061
  0
ARC
  5
A8C3
  8
0
 10
3512.376475782064972
 20
207.9938915960993882
 30
0.0
 40
0.2259270233620514
 50
86.0030102340554521
 51
93.9969897659445479
  0
ARC
  5
A8C4
  8
0
 10
3512.376475782064972
 20
208.4446977430224877
 30
0.0
 40
0.2259780375753565
 50
266.0039140147500802
 51
273.9960859852498061
  0
ARC
  5
A8C5
  8
0
 10
3512.376475782064972
 20
207.9915117652572008
 30
0.0
 40
0.2259270233620514
 50
86.0030102340554521
 51
93.9969897659445479
  0
ARC
  5
A8C6
  8
0
 10
3512.376475782064972
 20
208.4423179121801866
 30
0.0
 40
0.2259780375753565
 50
266.0039140147500802
 51
273.9960859852498061
  0
ARC
  5
A8C7
  8
0
 10
3512.376475782064972
 20
207.9891319345873058
 30
0.0
 40
0.2259270233620514
 50
86.0030102340554521
 51
93.9969897659445479
  0
ARC
  5
A8C8
  8
0
 10
3512.376475782064972
 20
208.4399380815104053
 30
0.0
 40
0.2259780375753565
 50
266.0039140147500802
 51
273.9960859852498061
  0
ARC
  5
A8C9
  8
0
 10
3512.376475782064972
 20
207.9867521037836013
 30
0.0
 40
0.2259270233620514
 50
86.0030102340554521
 51
93.9969897659445479
  0
ARC
  5
A8CA
  8
0
 10
3512.376475782064972
 20
208.4375582507067008
 30
0.0
 40
0.2259780375753565
 50
266.0039140147500802
 51
273.9960859852498061
  0
ARC
  5
A8CB
  8
0
 10
3512.3961607604101118
 20
208.004600707328791
 30
0.0
 40
0.2259270233620514
 50
86.0030102340554521
 51
93.9969897659445479
  0
ARC
  5
A8CC
  8
0
 10
3512.3961607604101118
 20
208.4554068542518905
 30
0.0
 40
0.2259780375753565
 50
266.0039140147500802
 51
273.9960859852498061
  0
ARC
  5
A8CD
  8
0
 10
3512.3961604878368234
 20
208.0022186234496928
 30
0.0
 40
0.2259270233620514
 50
86.0030102340554521
 51
93.9969897659445479
  0
ARC
  5
A8CE
  8
0
 10
3512.3961604878368234
 20
208.4530247703727071
 30
0.0
 40
0.2259780375753565
 50
266.0039140147500802
 51
273.9960859852498061
  0
ARC
  5
A8CF
  8
0
 10
3512.3961599442877741
 20
207.9998365465935137
 30
0.0
 40
0.2259270233620514
 50
86.0030102340554521
 51
93.9969897659445479
  0
ARC
  5
A8D0
  8
0
 10
3512.3961599442877741
 20
208.4506426935166132
 30
0.0
 40
0.2259780375753565
 50
266.0039140147500802
 51
273.9960859852498061
  0
ARC
  5
A8D1
  8
0
 10
3512.3961607945680043
 20
207.9974623444313124
 30
0.0
 40
0.2259270233620514
 50
86.0030102340554521
 51
93.9969897659445479
  0
ARC
  5
A8D2
  8
0
 10
3512.3961607945680043
 20
208.4482684913544119
 30
0.0
 40
0.2259780375753565
 50
266.0039140147500802
 51
273.9960859852498061
  0
ARC
  5
A8D3
  8
0
 10
3512.3961607945680043
 20
207.9950825136313028
 30
0.0
 40
0.2259270233620514
 50
86.0030102340554521
 51
93.9969897659445479
  0
ARC
  5
A8D4
  8
0
 10
3512.3961607945680043
 20
208.4458886605544023
 30
0.0
 40
0.2259780375753565
 50
266.0039140147500802
 51
273.9960859852498061
  0
ARC
  5
A8D5
  8
0
 10
3512.3961566954308182
 20
207.9926903417907056
 30
0.0
 40
0.2259270233620514
 50
86.0030102340554521
 51
93.9969897659445479
  0
ARC
  5
A8D6
  8
0
 10
3512.3961566954308182
 20
208.4434964887138051
 30
0.0
 40
0.2259780375753565
 50
266.0039140147500802
 51
273.9960859852498061
  0
ARC
  5
A8D7
  8
0
 10
3512.3961607945680043
 20
207.9903228521312997
 30
0.0
 40
0.2259270233620514
 50
86.0030102340554521
 51
93.9969897659445479
  0
ARC
  5
A8D8
  8
0
 10
3512.3961607945680043
 20
208.4411289990543992
 30
0.0
 40
0.2259780375753565
 50
266.0039140147500802
 51
273.9960859852498061
  0
ARC
  5
A8D9
  8
0
 10
3512.3961531641521105
 20
207.9879261930250891
 30
0.0
 40
0.2259270233620514
 50
86.0030102340554521
 51
93.9969897659445479
  0
ARC
  5
A8DA
  8
0
 10
3512.3961531641521105
 20
208.4387323399481886
 30
0.0
 40
0.2259780375753565
 50
266.0039140147500802
 51
273.9960859852498061
  0
ARC
  5
A8DB
  8
0
 10
3512.4355308732669982
 20
208.0046018367312968
 30
0.0
 40
0.2259270233620514
 50
86.0030102340554521
 51
93.9969897659445479
  0
ARC
  5
A8DC
  8
0
 10
3512.4355308732669982
 20
208.4554079836543963
 30
0.0
 40
0.2259780375753565
 50
266.0039140147500802
 51
273.9960859852498061
  0
ARC
  5
A8DD
  8
0
 10
3512.4355308779718143
 20
208.0022219252527975
 30
0.0
 40
0.2259270233620514
 50
86.0030102340554521
 51
93.9969897659445479
  0
ARC
  5
A8DE
  8
0
 10
3512.4355308779718143
 20
208.453028072175897
 30
0.0
 40
0.2259780375753565
 50
266.0039140147500802
 51
273.9960859852498061
  0
ARC
  5
A8DF
  8
0
 10
3512.4355308779718143
 20
207.9998420944158966
 30
0.0
 40
0.2259270233620514
 50
86.0030102340554521
 51
93.9969897659445479
  0
ARC
  5
A8E0
  8
0
 10
3512.4355308779718143
 20
208.4506482413389961
 30
0.0
 40
0.2259780375753565
 50
266.0039140147500802
 51
273.9960859852498061
  0
ARC
  5
A8E1
  8
0
 10
3512.4355308779718143
 20
207.997462263715903
 30
0.0
 40
0.2259270233620514
 50
86.0030102340554521
 51
93.9969897659445479
  0
ARC
  5
A8E2
  8
0
 10
3512.4355308779718143
 20
208.4482684106390025
 30
0.0
 40
0.2259780375753565
 50
266.0039140147500802
 51
273.9960859852498061
  0
ARC
  5
A8E3
  8
0
 10
3512.4355308779718143
 20
207.995082432925102
 30
0.0
 40
0.2259270233620514
 50
86.0030102340554521
 51
93.9969897659445479
  0
ARC
  5
A8E4
  8
0
 10
3512.4355308779718143
 20
208.4458885798482015
 30
0.0
 40
0.2259780375753565
 50
266.0039140147500802
 51
273.9960859852498061
  0
ARC
  5
A8E5
  8
0
 10
3512.4355308779718143
 20
207.9927026021159122
 30
0.0
 40
0.2259270233620514
 50
86.0030102340554521
 51
93.9969897659445479
  0
ARC
  5
A8E6
  8
0
 10
3512.4355308779718143
 20
208.4435087490390117
 30
0.0
 40
0.2259780375753565
 50
266.0039140147500802
 51
273.9960859852498061
  0
ARC
  5
A8E7
  8
0
 10
3512.4355308779718143
 20
207.9903227714158902
 30
0.0
 40
0.2259270233620514
 50
86.0030102340554521
 51
93.9969897659445479
  0
ARC
  5
A8E8
  8
0
 10
3512.4355308779718143
 20
208.4411289183389044
 30
0.0
 40
0.2259780375753565
 50
266.0039140147500802
 51
273.9960859852498061
  0
ARC
  5
A8E9
  8
0
 10
3512.4355308779718143
 20
207.987942940615909
 30
0.0
 40
0.2259270233620514
 50
86.0030102340554521
 51
93.9969897659445479
  0
ARC
  5
A8EA
  8
0
 10
3512.4355308779718143
 20
208.4387490875390085
 30
0.0
 40
0.2259780375753565
 50
266.0039140147500802
 51
273.9960859852498061
  0
ARC
  5
A8EB
  8
0
 10
3512.4945853578128663
 20
207.9891279785254028
 30
0.0
 40
0.2259270233620514
 50
86.0030102340554521
 51
93.9969897659445479
  0
ARC
  5
A8EC
  8
0
 10
3512.4945853578128663
 20
208.4399341254485023
 30
0.0
 40
0.2259780375753565
 50
266.0039140147500802
 51
273.9960859852498061
  0
ARC
  5
A8ED
  8
0
 10
3512.4945854494299056
 20
207.9915059593147078
 30
0.0
 40
0.2259270233620514
 50
86.0030102340554521
 51
93.9969897659445479
  0
ARC
  5
A8EE
  8
0
 10
3512.4945854494299056
 20
208.4423121062378073
 30
0.0
 40
0.2259780375753565
 50
266.0039140147500802
 51
273.9960859852498061
  0
ARC
  5
A8EF
  8
0
 10
3512.4945854494299056
 20
207.9938857908344971
 30
0.0
 40
0.2259270233620514
 50
86.0030102340554521
 51
93.9969897659445479
  0
ARC
  5
A8F0
  8
0
 10
3512.4945854494299056
 20
208.4446919377575966
 30
0.0
 40
0.2259780375753565
 50
266.0039140147500802
 51
273.9960859852498061
  0
ARC
  5
A8F1
  8
0
 10
3512.4945854494299056
 20
207.9962656216345067
 30
0.0
 40
0.2259270233620514
 50
86.0030102340554521
 51
93.9969897659445479
  0
ARC
  5
A8F2
  8
0
 10
3512.4945854494299056
 20
208.4470717685576062
 30
0.0
 40
0.2259780375753565
 50
266.0039140147500802
 51
273.9960859852498061
  0
ARC
  5
A8F3
  8
0
 10
3512.4945854494299056
 20
207.9986454523345003
 30
0.0
 40
0.2259270233620514
 50
86.0030102340554521
 51
93.9969897659445479
  0
ARC
  5
A8F4
  8
0
 10
3512.4945854494299056
 20
208.4494515992575998
 30
0.0
 40
0.2259780375753565
 50
266.0039140147500802
 51
273.9960859852498061
  0
ARC
  5
A8F5
  8
0
 10
3512.4945854494299056
 20
208.0010252831345099
 30
0.0
 40
0.2259270233620514
 50
86.0030102340554521
 51
93.9969897659445479
  0
ARC
  5
A8F6
  8
0
 10
3512.4945854494299056
 20
208.4518314300576094
 30
0.0
 40
0.2259780375753565
 50
266.0039140147500802
 51
273.9960859852498061
  0
ARC
  5
A8F7
  8
0
 10
3512.4945854494299056
 20
208.0034051139344911
 30
0.0
 40
0.2259270233620514
 50
86.0030102340554521
 51
93.9969897659445479
  0
ARC
  5
A8F8
  8
0
 10
3512.4945854494299056
 20
208.4542112608575906
 30
0.0
 40
0.2259780375753565
 50
266.0039140147500802
 51
273.9960859852498061
  0
ARC
  5
A8F9
  8
0
 10
3512.5339555282298534
 20
207.989126129334494
 30
0.0
 40
0.2259270233620514
 50
86.0030102340554521
 51
93.9969897659445479
  0
ARC
  5
A8FA
  8
0
 10
3512.5339555282298534
 20
208.4399322762575935
 30
0.0
 40
0.2259780375753565
 50
266.0039140147500802
 51
273.9960859852498061
  0
ARC
  5
A8FB
  8
0
 10
3512.5339657403910678
 20
207.9915254268549063
 30
0.0
 40
0.2259270233620514
 50
86.0030102340554521
 51
93.9969897659445479
  0
ARC
  5
A8FC
  8
0
 10
3512.5339657403910678
 20
208.4423315737780058
 30
0.0
 40
0.2259780375753565
 50
266.0039140147500802
 51
273.9960859852498061
  0
ARC
  5
A8FD
  8
0
 10
3512.5339657403478668
 20
207.9939052177352039
 30
0.0
 40
0.2259270233620514
 50
86.0030102340554521
 51
93.9969897659445479
  0
ARC
  5
A8FE
  8
0
 10
3512.5339657403478668
 20
208.4447113646583034
 30
0.0
 40
0.2259780375753565
 50
266.0039140147500802
 51
273.9960859852498061
  0
ARC
  5
A8FF
  8
0
 10
3512.5339657403719684
 20
207.9962850618049117
 30
0.0
 40
0.2259270233620514
 50
86.0030102340554521
 51
93.9969897659445479
  0
ARC
  5
A900
  8
0
 10
3512.5339657403719684
 20
208.4470912087280112
 30
0.0
 40
0.2259780375753565
 50
266.0039140147500802
 51
273.9960859852498061
  0
ARC
  5
A901
  8
0
 10
3512.5339657403910678
 20
207.9986649191548906
 30
0.0
 40
0.2259270233620514
 50
86.0030102340554521
 51
93.9969897659445479
  0
ARC
  5
A902
  8
0
 10
3512.5339657403910678
 20
208.4494710660779901
 30
0.0
 40
0.2259780375753565
 50
266.0039140147500802
 51
273.9960859852498061
  0
ARC
  5
A903
  8
0
 10
3512.5339657403910678
 20
208.0010447499549002
 30
0.0
 40
0.2259270233620514
 50
86.0030102340554521
 51
93.9969897659445479
  0
ARC
  5
A904
  8
0
 10
3512.5339657403910678
 20
208.4518508968779997
 30
0.0
 40
0.2259780375753565
 50
266.0039140147500802
 51
273.9960859852498061
  0
ARC
  5
A905
  8
0
 10
3512.5339657403910678
 20
208.0034245807549098
 30
0.0
 40
0.2259270233620514
 50
86.0030102340554521
 51
93.9969897659445479
  0
ARC
  5
A906
  8
0
 10
3512.5339657403910678
 20
208.4542307276780093
 30
0.0
 40
0.2259780375753565
 50
266.0039140147500802
 51
273.9960859852498061
  0
ARC
  5
A907
  8
0
 10
3512.5733261535719976
 20
207.9915126867159074
 30
0.0
 40
0.2259270233620514
 50
86.0030102340554521
 51
93.9969897659445479
  0
ARC
  5
A908
  8
0
 10
3512.5733261535719976
 20
208.4423188336390069
 30
0.0
 40
0.2259780375753565
 50
266.0039140147500802
 51
273.9960859852498061
  0
ARC
  5
A909
  8
0
 10
3512.5733262190960886
 20
207.9938909535462983
 30
0.0
 40
0.2259270233620514
 50
86.0030102340554521
 51
93.9969897659445479
  0
ARC
  5
A90A
  8
0
 10
3512.5733262190960886
 20
208.4446971004693978
 30
0.0
 40
0.2259780375753565
 50
266.0039140147500802
 51
273.9960859852498061
  0
ARC
  5
A90B
  8
0
 10
3512.5733262190960886
 20
207.9962707840890062
 30
0.0
 40
0.2259270233620514
 50
86.0030102340554521
 51
93.9969897659445479
  0
ARC
  5
A90C
  8
0
 10
3512.5733262190960886
 20
208.4470769310121057
 30
0.0
 40
0.2259780375753565
 50
266.0039140147500802
 51
273.9960859852498061
  0
ARC
  5
A90D
  8
0
 10
3512.5733262190960886
 20
207.9986506150463015
 30
0.0
 40
0.2259270233620514
 50
86.0030102340554521
 51
93.9969897659445479
  0
ARC
  5
A90E
  8
0
 10
3512.5733262190960886
 20
208.449456761969401
 30
0.0
 40
0.2259780375753565
 50
266.0039140147500802
 51
273.9960859852498061
  0
ARC
  5
A90F
  8
0
 10
3512.5733262190960886
 20
208.0010304458463111
 30
0.0
 40
0.2259270233620514
 50
86.0030102340554521
 51
93.9969897659445479
  0
ARC
  5
A910
  8
0
 10
3512.5733262190960886
 20
208.4518365927694106
 30
0.0
 40
0.2259780375753565
 50
266.0039140147500802
 51
273.9960859852498061
  0
ARC
  5
A911
  8
0
 10
3512.6126959915432053
 20
207.9986539946609128
 30
0.0
 40
0.2259270233620514
 50
86.0030102340554521
 51
93.9969897659445479
  0
ARC
  5
A912
  8
0
 10
3512.6126959915432053
 20
208.4494601415840123
 30
0.0
 40
0.2259780375753565
 50
266.0039140147500802
 51
273.9960859852498061
  0
ARC
  5
A913
  8
0
 10
3512.6126961615627806
 20
207.9962730390460877
 30
0.0
 40
0.2259270233620514
 50
86.0030102340554521
 51
93.9969897659445479
  0
ARC
  5
A914
  8
0
 10
3512.6126961615627806
 20
208.4470791859691872
 30
0.0
 40
0.2259780375753565
 50
266.0039140147500802
 51
273.9960859852498061
  0
ARC
  5
A915
  8
0
 10
3512.612696263719954
 20
207.9938920815249048
 30
0.0
 40
0.2259270233620514
 50
86.0030102340554521
 51
93.9969897659445479
  0
ARC
  5
A916
  8
0
 10
3512.612696263719954
 20
208.4446982284480043
 30
0.0
 40
0.2259780375753565
 50
266.0039140147500802
 51
273.9960859852498061
  0
ARC
  5
A917
  8
0
 10
3512.3371056810719892
 20
208.0057916713159045
 30
0.0
 40
0.2259270233620514
 50
86.0030102340554521
 51
93.9969897659445479
  0
ARC
  5
A918
  8
0
 10
3512.3371056810719892
 20
208.456597818239004
 30
0.0
 40
0.2259780375753565
 50
266.0039140147500802
 51
273.9960859852498061
  0
ARC
  5
A919
  8
0
 10
3512.3371056810719892
 20
208.0034118406159109
 30
0.0
 40
0.2259270233620514
 50
86.0030102340554521
 51
93.9969897659445479
  0
ARC
  5
A91A
  8
0
 10
3512.3371056810719892
 20
208.4542179875390104
 30
0.0
 40
0.2259780375753565
 50
266.0039140147500802
 51
273.9960859852498061
  0
ARC
  5
A91B
  8
0
 10
3512.3371056810719892
 20
208.0010320098159013
 30
0.0
 40
0.2259270233620514
 50
86.0030102340554521
 51
93.9969897659445479
  0
ARC
  5
A91C
  8
0
 10
3512.3371056810719892
 20
208.4518381567390009
 30
0.0
 40
0.2259780375753565
 50
266.0039140147500802
 51
273.9960859852498061
  0
ARC
  5
A91D
  8
0
 10
3512.3371056810719892
 20
207.9986521790158918
 30
0.0
 40
0.2259270233620514
 50
86.0030102340554521
 51
93.9969897659445479
  0
ARC
  5
A91E
  8
0
 10
3512.3371056810719892
 20
208.449458325938906
 30
0.0
 40
0.2259780375753565
 50
266.0039140147500802
 51
273.9960859852498061
  0
ARC
  5
A91F
  8
0
 10
3512.3371056810719892
 20
207.9962723483158982
 30
0.0
 40
0.2259270233620514
 50
86.0030102340554521
 51
93.9969897659445479
  0
ARC
  5
A920
  8
0
 10
3512.3371056810719892
 20
208.4470784952389977
 30
0.0
 40
0.2259780375753565
 50
266.0039140147500802
 51
273.9960859852498061
  0
ARC
  5
A921
  8
0
 10
3512.3371056810719892
 20
207.9938925175158886
 30
0.0
 40
0.2259270233620514
 50
86.0030102340554521
 51
93.9969897659445479
  0
ARC
  5
A922
  8
0
 10
3512.3371056810719892
 20
208.4446986644389028
 30
0.0
 40
0.2259780375753565
 50
266.0039140147500802
 51
273.9960859852498061
  0
ARC
  5
A923
  8
0
 10
3512.3371056810719892
 20
207.9915126867159074
 30
0.0
 40
0.2259270233620514
 50
86.0030102340554521
 51
93.9969897659445479
  0
ARC
  5
A924
  8
0
 10
3512.3371056810719892
 20
208.4423188336390069
 30
0.0
 40
0.2259780375753565
 50
266.0039140147500802
 51
273.9960859852498061
  0
ARC
  5
A925
  8
0
 10
3512.3371056810719892
 20
207.9891328560159138
 30
0.0
 40
0.2259270233620514
 50
86.0030102340554521
 51
93.9969897659445479
  0
ARC
  5
A926
  8
0
 10
3512.3371056810719892
 20
208.4399390029390133
 30
0.0
 40
0.2259780375753565
 50
266.0039140147500802
 51
273.9960859852498061
  0
ARC
  5
A927
  8
0
 10
3512.3371056810719892
 20
207.9867530252159042
 30
0.0
 40
0.2259270233620514
 50
86.0030102340554521
 51
93.9969897659445479
  0
ARC
  5
A928
  8
0
 10
3512.3371056810719892
 20
208.4375591721390037
 30
0.0
 40
0.2259780375753565
 50
266.0039140147500802
 51
273.9960859852498061
  0
ARC
  5
A929
  8
0
 10
3511.9279359799379563
 20
208.0573120891911003
 30
0.0
 40
0.3512768063469074
 50
92.2844973771976527
 51
100.3766277321807934
  0
ARC
  5
A92A
  8
0
 10
3512.6783100771681347
 20
207.4016243946277882
 30
0.0
 40
1.0097837763751669
 50
82.5324301709505477
 51
87.3988708327138539
  0
ENDSEC
  0
EOF
