  0
SECTION
  2
HEADER
  9
$ACADVER
  1
AC1009
  9
$INSBASE
 10
481.7736744985228938
 20
26.0309750937937601
 30
0.0
  9
$EXTMIN
 10
475.1449374082196755
 20
26.0309750937937601
 30
0.0
  9
$EXTMAX
 10
483.5916155140228057
 20
30.8004477123431784
 30
0.0
  9
$LIMMIN
 10
0.0
 20
0.0
  9
$LIMMAX
 10
11.6929133858000007
 20
8.2677165353999982
  9
$ORTHOMODE
 70
     0
  9
$REGENMODE
 70
     1
  9
$FILLMODE
 70
     1
  9
$QTEXTMODE
 70
     0
  9
$MIRRTEXT
 70
     0
  9
$DRAGMODE
 70
     2
  9
$LTSCALE
 40
0.6431102362
  9
$OSMODE
 70
  4095
  9
$ATTMODE
 70
     1
  9
$TEXTSIZE
 40
0.2
  9
$TRACEWID
 40
0.05
  9
$TEXTSTYLE
  7
STANDARD
  9
$CLAYER
  8
0
  9
$CELTYPE
  6
BYLAYER
  9
$CECOLOR
 62
   256
  9
$DIMSCALE
 40
1.0
  9
$DIMASZ
 40
0.1875
  9
$DIMEXO
 40
0.0625
  9
$DIMDLI
 40
0.4443307087
  9
$DIMRND
 40
0.0
  9
$DIMDLE
 40
0.0
  9
$DIMEXE
 40
0.125
  9
$DIMTP
 40
0.01
  9
$DIMTM
 40
0.01
  9
$DIMTXT
 40
1.0
  9
$DIMCEN
 40
0.1052362205
  9
$DIMTSZ
 40
0.0
  9
$DIMTOL
 70
     1
  9
$DIMLIM
 70
     0
  9
$DIMTIH
 70
     0
  9
$DIMTOH
 70
     1
  9
$DIMSE1
 70
     0
  9
$DIMSE2
 70
     0
  9
$DIMTAD
 70
     0
  9
$DIMZIN
 70
     0
  9
$DIMBLK
  1

  9
$DIMASO
 70
     1
  9
$DIMSHO
 70
     1
  9
$DIMPOST
  1
\X
  9
$DIMAPOST
  1

  9
$DIMALT
 70
     1
  9
$DIMALTD
 70
     2
  9
$DIMALTF
 40
25.3999999999999986
  9
$DIMLFAC
 40
1.0
  9
$DIMTOFL
 70
     0
  9
$DIMTVP
 40
0.0
  9
$DIMTIX
 70
     0
  9
$DIMSOXD
 70
     0
  9
$DIMSAH
 70
     0
  9
$DIMBLK1
  1

  9
$DIMBLK2
  1

  9
$DIMSTYLE
  2
STANDARD
  9
$DIMCLRD
 70
     0
  9
$DIMCLRE
 70
     0
  9
$DIMCLRT
 70
     0
  9
$DIMTFAC
 40
1.0
  9
$DIMGAP
 40
0.09
  9
$LUNITS
 70
     2
  9
$LUPREC
 70
     4
  9
$SKETCHINC
 40
0.1
  9
$FILLETRAD
 40
0.0
  9
$AUNITS
 70
     0
  9
$AUPREC
 70
     0
  9
$MENU
  1
.
  9
$ELEVATION
 40
0.0
  9
$PELEVATION
 40
0.0
  9
$THICKNESS
 40
0.0
  9
$LIMCHECK
 70
     0
  9
$BLIPMODE
 70
     0
  9
$CHAMFERA
 40
0.0
  9
$CHAMFERB
 40
0.0
  9
$SKPOLY
 70
     0
  9
$TDCREATE
 40
2458172.5207638889551163
  9
$TDUPDATE
 40
2459115.5878356480970979
  9
$TDINDWG
 40
0.2759809954
  9
$TDUSRTIMER
 40
0.2759809954
  9
$USRTIMER
 70
     1
  9
$ANGBASE
 50
0.0
  9
$ANGDIR
 70
     0
  9
$PDMODE
 70
     0
  9
$PDSIZE
 40
0.3125
  9
$PLINEWID
 40
0.0
  9
$COORDS
 70
     1
  9
$SPLFRAME
 70
     0
  9
$SPLINETYPE
 70
     6
  9
$SPLINESEGS
 70
     8
  9
$ATTDIA
 70
     1
  9
$ATTREQ
 70
     1
  9
$HANDLING
 70
     1
  9
$HANDSEED
  5
FD4A
  9
$SURFTAB1
 70
     6
  9
$SURFTAB2
 70
     6
  9
$SURFTYPE
 70
     6
  9
$SURFU
 70
     6
  9
$SURFV
 70
     6
  9
$UCSNAME
  2

  9
$UCSORG
 10
0.0
 20
0.0
 30
0.0
  9
$UCSXDIR
 10
1.0
 20
0.0
 30
0.0
  9
$UCSYDIR
 10
0.0
 20
1.0
 30
0.0
  9
$PUCSNAME
  2

  9
$PUCSORG
 10
0.0
 20
0.0
 30
0.0
  9
$PUCSXDIR
 10
1.0
 20
0.0
 30
0.0
  9
$PUCSYDIR
 10
0.0
 20
1.0
 30
0.0
  9
$USERI1
 70
     0
  9
$USERI2
 70
     0
  9
$USERI3
 70
     0
  9
$USERI4
 70
     0
  9
$USERI5
 70
     0
  9
$USERR1
 40
0.0
  9
$USERR2
 40
0.0
  9
$USERR3
 40
0.0
  9
$USERR4
 40
0.0
  9
$USERR5
 40
0.0
  9
$WORLDVIEW
 70
     1
  9
$SHADEDGE
 70
     3
  9
$SHADEDIF
 70
    70
  9
$TILEMODE
 70
     1
  9
$MAXACTVP
 70
    64
  9
$PLIMCHECK
 70
     0
  9
$PEXTMIN
 10
1.0000000000000000E+20
 20
1.0000000000000000E+20
 30
1.0000000000000000E+20
  9
$PEXTMAX
 10
-1.0000000000000000E+20
 20
-1.0000000000000000E+20
 30
-1.0000000000000000E+20
  9
$PLIMMIN
 10
0.0
 20
0.0
  9
$PLIMMAX
 10
12.0
 20
9.0
  9
$UNITMODE
 70
     0
  9
$VISRETAIN
 70
     1
  9
$PLINEGEN
 70
     0
  9
$PSLTSCALE
 70
     1
  0
ENDSEC
  0
SECTION
  2
TABLES
  0
TABLE
  2
VPORT
 70
     1
  0
VPORT
  2
*ACTIVE
 70
     0
 10
0.0
 20
0.0
 11
1.0
 21
1.0
 12
59.9526922994545686
 22
-39.087582489701937
 13
0.0
 23
0.0
 14
1.0
 24
1.0
 15
0.0
 25
0.0
 16
0.0
 26
0.0
 36
14.6338572656650907
 17
429.6292891080536833
 27
69.7025415122186871
 37
0.0
 40
54.6061247923613919
 41
2.005224660397074
 42
50.0
 43
0.0
 44
0.0
 50
0.0
 51
0.0
 71
     0
 72
   100
 73
     1
 74
     1
 75
     0
 76
     0
 77
     0
 78
     0
  0
ENDTAB
  0
TABLE
  2
LTYPE
 70
     2
  0
LTYPE
  2
CONTINUOUS
 70
     0
  3
Solid line
 72
    65
 73
     0
 40
0.0
  0
LTYPE
  2
PHANTOM2
 70
     0
  3
___ _ _ ___ _ _ ___ _ _ ___ _ _
 72
    65
 73
     6
 40
1.25
 49
0.625
 49
-0.125
 49
0.125
 49
-0.125
 49
0.125
 49
-0.125
  0
ENDTAB
  0
TABLE
  2
LAYER
 70
     2
  0
LAYER
  2
0
 70
     0
 62
   255
  6
CONTINUOUS
  0
LAYER
  2
DEFPOINTS
 70
     0
 62
     7
  6
CONTINUOUS
  0
ENDTAB
  0
TABLE
  2
STYLE
 70
     1
  0
STYLE
  2
STANDARD
 70
     0
 40
0.0
 41
0.8
 50
0.0
 71
     0
 42
0.2
  3
txt
  4

  0
ENDTAB
  0
TABLE
  2
VIEW
 70
     0
  0
ENDTAB
  0
TABLE
  2
UCS
 70
     0
  0
ENDTAB
  0
TABLE
  2
APPID
 70
    10
  0
APPID
  2
ACAD
 70
     0
  0
APPID
  2
ACAD_MLEADERVER
 70
     0
  0
APPID
  2
ACAD_EXEMPT_FROM_CAD_STANDARDS
 70
     0
  0
APPID
  2
ACAD_DSTYLE_DIMJAG
 70
     0
  0
APPID
  2
ACAD_DSTYLE_DIMTALN
 70
     0
  0
APPID
  2
ACAD_NAV_VCDISPLAY
 70
     0
  0
APPID
  2
ACAECLAYERSTANDARD
 70
     0
  0
APPID
  2
ACCMTRANSPARENCY
 70
     0
  0
APPID
  2
DCO15
 70
     0
  0
APPID
  2
ACDBATTR
 70
     0
  0
ENDTAB
  0
TABLE
  2
DIMSTYLE
 70
     1
  0
DIMSTYLE
  2
STANDARD
 70
     0
  3

  4

  5

  6

  7

 40
1.0
 41
0.1875
 42
0.0625
 43
0.38
 44
0.125
 45
0.0
 46
0.0
 47
0.01
 48
0.01
140
0.15625
141
0.09
142
0.0
143
25.3999999999999986
144
1.0
145
0.0
146
1.0
147
0.09
 71
     1
 72
     0
 73
     1
 74
     1
 75
     0
 76
     0
 77
     0
 78
     4
170
     0
171
     2
172
     0
173
     0
174
     0
175
     0
176
     0
177
     0
178
     0
  0
ENDTAB
  0
ENDSEC
  0
SECTION
  2
BLOCKS
  0
BLOCK
  8
0
  2
$MODEL_SPACE
 70
     0
 10
0.0
 20
0.0
 30
0.0
  3
$MODEL_SPACE
  1

  0
ENDBLK
  5
21
  8
0
  0
BLOCK
 67
     1
  8
0
  2
$PAPER_SPACE
 70
     0
 10
0.0
 20
0.0
 30
0.0
  3
$PAPER_SPACE
  1

  0
ENDBLK
  5
1D
 67
     1
  8
0
  0
BLOCK
  8
0
  2
_FILLED
 70
     0
 10
0.0
 20
0.0
 30
0.0
  3
_FILLED
  1

  0
SOLID
  5
87E2
  8
0
  6
BYBLOCK
 62
     0
 10
0.0
 20
0.0
 30
0.0
 11
-1.0
 21
0.1666666667
 31
0.0
 12
-1.0
 22
-0.1666666667
 32
0.0
 13
-1.0
 23
-0.1666666667
 33
0.0
  0
ENDBLK
  5
87E3
  8
0
  6
BYBLOCK
 62
     0
  0
ENDSEC
  0
SECTION
  2
ENTITIES
  0
ATTDEF
  5
C848
  8
DEFPOINTS
 10
481.7752359914754265
 20
26.0359555221864412
 30
0.0
 40
0.001
  1
K-73050W
  3

  2
MODELNUMBER
 70
     0
1001
ACDBATTR
1070
     0
1070
     1
  0
ATTDEF
  5
C849
  8
DEFPOINTS
 10
481.7752359914754265
 20
26.0342888555197796
 30
0.0
 40
0.001
  1
COMPOSED
  3

  2
TRADENAME
 70
     0
1001
ACDBATTR
1070
     0
1070
     1
  0
ATTDEF
  5
C84A
  8
DEFPOINTS
 10
481.7752359914754265
 20
26.0326221888531109
 30
0.0
 40
0.001
  1
BATHROOM SINK FAUCET
  3

  2
PRODUCT
 70
     0
1001
ACDBATTR
1070
     0
1070
     1
  0
LINE
  5
FC57
  8
0
 10
483.5719304746228886
 20
28.4848361224937605
 30
0.0
 11
483.1191745691228903
 21
28.4848361224937605
 31
0.0
  0
LINE
  5
FC58
  8
0
 10
483.5719304746228886
 20
28.7013715555937594
 30
0.0
 11
483.1191745691228903
 21
28.7013715555937594
 31
0.0
  0
LINE
  5
FC59
  8
0
 10
482.6474784700959049
 20
28.3710863913411515
 30
0.0
 11
482.4587499174929235
 21
27.8525589546038184
 31
0.0
  0
LINE
  5
FC5A
  8
0
 10
482.8509552186574751
 20
28.2970269115175412
 30
0.0
 11
482.4597384587460169
 21
27.2221676972127291
 31
0.0
  0
LINE
  5
FC5B
  8
0
 10
483.5916155140228057
 20
28.5045211618937593
 30
0.0
 11
483.5916155140228057
 21
28.6816865161937606
 31
0.0
  0
ARC
  5
FC5C
  8
0
 10
483.1191745691228903
 20
28.1994030516937713
 30
0.0
 40
0.5019685039000001
 50
90.0
 51
160.0000000000005116
  0
ARC
  5
FC5D
  8
0
 10
483.1191745691228903
 20
28.1994030516937713
 30
0.0
 40
0.2854330709
 50
90.0
 51
160.0000000000005116
  0
ARC
  5
FC5E
  8
0
 10
483.5719304746228886
 20
28.6816865161937606
 30
0.0
 40
0.0196850394
 50
0.0
 51
90.0
  0
ARC
  5
FC5F
  8
0
 10
483.5719304746228886
 20
28.5045211618937593
 30
0.0
 40
0.0196850394
 50
270.0
 51
0.0
  0
ARC
  5
FC60
  8
0
 10
481.1161541380728863
 20
30.0106078447172209
 30
0.0
 40
0.0314979888808486
 50
88.0275535773164961
 51
179.9987612911305916
  0
ARC
  5
FC61
  8
0
 10
482.4306481848597059
 20
30.0278988672848612
 30
0.0
 40
0.0316565669414119
 50
272.5342532781349973
 51
359.7491319787833959
  0
ARC
  5
FC62
  8
0
 10
482.4311888160472108
 20
29.9646818282601402
 30
0.0
 40
0.0315030784368678
 50
0.0093146344102786
 51
88.4436532992183686
  0
LINE
  5
FC63
  8
0
 10
475.1449565947195879
 20
30.28215926124318
 30
0.0
 11
475.1619941443195785
 21
30.7700508461431816
 31
0.0
  0
LINE
  5
FC64
  8
0
 10
482.4623044477727944
 20
30.0277608593937586
 30
0.0
 11
482.4618279528609719
 21
30.5162591291113685
 31
0.0
  0
LINE
  5
FC65
  8
0
 10
475.5309542617920897
 20
30.11110361162347
 30
0.0
 11
476.093603428192182
 21
30.0914554829933287
 31
0.0
  0
LINE
  5
FC66
  8
0
 10
475.4611867759921893
 20
30.2002069222287197
 30
0.0
 11
476.1694164959922091
 21
30.1754749954287114
 31
0.0
  0
LINE
  5
FC67
  8
0
 10
475.1753342744196971
 20
30.2495831880431787
 30
0.0
 11
482.4296115524728066
 21
29.9962592775937615
 31
0.0
  0
LINE
  5
FC68
  8
0
 10
475.1945702175196971
 20
30.8004285258431807
 30
0.0
 11
482.4314225839610231
 21
30.5477109952113715
 31
0.0
  0
ARC
  5
FC69
  8
0
 10
475.5710998723924945
 20
30.3724978661286293
 30
0.0
 40
0.629921259799713
 50
341.7734965574003922
 51
345.4709526965121995
  0
ARC
  5
FC6A
  8
0
 10
476.0717895510921949
 20
30.3550133972287313
 30
0.0
 40
0.6299212598000742
 50
190.5290569693962084
 51
194.2265034426000909
  0
ARC
  5
FC6B
  8
0
 10
475.982744612493093
 20
30.203305204609201
 30
0.0
 40
0.1574802756871813
 50
314.7450732853707223
 51
350.2271829556709122
  0
ARC
  5
FC6C
  8
0
 10
475.6493453655601229
 20
30.2149477901515304
 30
0.0
 40
0.157480369806249
 50
185.7728223886201135
 51
221.2549147006714065
  0
ARC
  5
FC6D
  8
0
 10
475.1764334712196955
 20
30.2810600645431798
 30
0.0
 40
0.031496063
 50
178.0
 51
267.9999999999996021
  0
ARC
  5
FC6E
  8
0
 10
475.1934710207196986
 20
30.7689516493431796
 30
0.0
 40
0.031496063
 50
87.9999999999996163
 51
178.0
  0
ARC
  5
FC6F
  8
0
 10
482.4303154249050181
 20
30.5162178956942505
 30
0.0
 40
0.0315125549324413
 50
0.0749701652270124
 51
87.9865612528374754
  0
LINE
  5
FC70
  8
0
 10
480.7697374906728101
 20
26.0309750937937601
 30
0.0
 11
482.7776115063728071
 21
26.0309750937937601
 31
0.0
  0
LINE
  5
FC71
  8
0
 10
480.7894307728727767
 20
26.1884554087937609
 30
0.0
 11
482.7579182241727835
 21
26.1884554087937609
 31
0.0
  0
LINE
  5
FC72
  8
0
 10
480.7697374906728101
 20
26.0309750937937601
 30
0.0
 11
480.7697374906728101
 21
26.1687703693937692
 31
0.0
  0
LINE
  5
FC73
  8
0
 10
481.0846561491994748
 20
30.0106085256895092
 30
0.0
 11
481.0846981206228179
 21
26.2199514716937614
 31
0.0
  0
LINE
  5
FC74
  8
0
 10
482.4626508764728783
 20
27.172614294593771
 30
0.0
 11
482.4626508765227868
 21
26.2199514716937614
 31
0.0
  0
LINE
  5
FC75
  8
0
 10
482.4626222177085992
 20
27.9203017654892314
 30
0.0
 11
482.4626918940676887
 21
29.9646869497483088
 31
0.0
  0
LINE
  5
FC76
  8
0
 10
482.7776115063728071
 20
26.0309750937937601
 30
0.0
 11
482.7776115063728071
 21
26.1687703693937692
 31
0.0
  0
ARC
  5
FC77
  8
0
 10
482.7579264669727763
 20
26.1687703693937692
 30
0.0
 40
0.0196850394
 50
0.0
 51
90.0
  0
ARC
  5
FC78
  8
0
 10
480.7894225299727964
 20
26.1687703693937692
 30
0.0
 40
0.0196850394
 50
90.0
 51
180.0
  0
ARC
  5
FC79
  8
0
 10
481.1161941837144127
 20
26.2199514718853806
 30
0.0
 40
0.0314960631916232
 50
180.0000003485735078
 51
269.9958911494499034
  0
ARC
  5
FC7A
  8
0
 10
482.4311924961775162
 20
26.219913792041659
 30
0.0
 40
0.0314584029109348
 50
269.9359388701312241
 51
0.0686266738063115
  0
ARC
  5
FC7B
  8
0
 10
488.4042826089614096
 20
27.5466859738057899
 30
0.0
 40
5.9533954400580162
 50
176.4019106021837047
 51
183.6024578946498877
  0
CIRCLE
  5
FC7C
  8
0
 10
481.7736744984728716
 20
28.9443608896937583
 30
0.0
 40
0.6692913386499999
  0
CIRCLE
  5
FC7D
  8
0
 10
481.7736744984728716
 20
28.9443608896937583
 30
0.0
 40
0.5525437000499985
  0
CIRCLE
  5
FC7E
  8
0
 10
481.7736744984728716
 20
28.9443608896937583
 30
0.0
 40
0.4332331051499985
  0
ARC
  5
FC7F
  8
0
 10
482.4863994407631935
 20
31.5684372447834285
 30
0.0
 40
1.5732032369573601
 50
267.9313458954715088
 51
268.0200065891160079
  0
ARC
  5
FC80
  8
0
 10
482.4307108129816015
 20
30.02771115277638
 30
0.0
 40
0.0314710792024843
 50
267.9982954686057042
 51
272.4214007658932815
  0
ENDSEC
  0
EOF
