  0
SECTION
  2
HEADER
  9
$ACADVER
  1
AC1009
  9
$INSBASE
 10
468.382723599135204
 20
29.2202055058526611
 30
0.0
  9
$EXTMIN
 10
467.3789266331007752
 20
29.2202055058526611
 30
0.0
  9
$EXTMAX
 10
471.1727410376195166
 20
33.9896781244020829
 30
0.0
  9
$LIMMIN
 10
0.0
 20
0.0
  9
$LIMMAX
 10
11.6929133858000007
 20
8.2677165353999982
  9
$ORTHOMODE
 70
     0
  9
$REGENMODE
 70
     1
  9
$FILLMODE
 70
     1
  9
$QTEXTMODE
 70
     0
  9
$MIRRTEXT
 70
     0
  9
$DRAGMODE
 70
     2
  9
$LTSCALE
 40
0.6431102362
  9
$OSMODE
 70
  4095
  9
$ATTMODE
 70
     1
  9
$TEXTSIZE
 40
0.2
  9
$TRACEWID
 40
0.05
  9
$TEXTSTYLE
  7
STANDARD
  9
$CLAYER
  8
0
  9
$CELTYPE
  6
BYLAYER
  9
$CECOLOR
 62
   256
  9
$DIMSCALE
 40
1.0
  9
$DIMASZ
 40
0.1875
  9
$DIMEXO
 40
0.0625
  9
$DIMDLI
 40
0.4443307087
  9
$DIMRND
 40
0.0
  9
$DIMDLE
 40
0.0
  9
$DIMEXE
 40
0.125
  9
$DIMTP
 40
0.01
  9
$DIMTM
 40
0.01
  9
$DIMTXT
 40
1.0
  9
$DIMCEN
 40
0.1052362205
  9
$DIMTSZ
 40
0.0
  9
$DIMTOL
 70
     1
  9
$DIMLIM
 70
     0
  9
$DIMTIH
 70
     0
  9
$DIMTOH
 70
     1
  9
$DIMSE1
 70
     0
  9
$DIMSE2
 70
     0
  9
$DIMTAD
 70
     0
  9
$DIMZIN
 70
     0
  9
$DIMBLK
  1

  9
$DIMASO
 70
     1
  9
$DIMSHO
 70
     1
  9
$DIMPOST
  1
\X
  9
$DIMAPOST
  1

  9
$DIMALT
 70
     1
  9
$DIMALTD
 70
     2
  9
$DIMALTF
 40
25.3999999999999986
  9
$DIMLFAC
 40
1.0
  9
$DIMTOFL
 70
     0
  9
$DIMTVP
 40
0.0
  9
$DIMTIX
 70
     0
  9
$DIMSOXD
 70
     0
  9
$DIMSAH
 70
     0
  9
$DIMBLK1
  1

  9
$DIMBLK2
  1

  9
$DIMSTYLE
  2
STANDARD
  9
$DIMCLRD
 70
     0
  9
$DIMCLRE
 70
     0
  9
$DIMCLRT
 70
     0
  9
$DIMTFAC
 40
1.0
  9
$DIMGAP
 40
0.09
  9
$LUNITS
 70
     2
  9
$LUPREC
 70
     4
  9
$SKETCHINC
 40
0.1
  9
$FILLETRAD
 40
0.0
  9
$AUNITS
 70
     0
  9
$AUPREC
 70
     0
  9
$MENU
  1
.
  9
$ELEVATION
 40
0.0
  9
$PELEVATION
 40
0.0
  9
$THICKNESS
 40
0.0
  9
$LIMCHECK
 70
     0
  9
$BLIPMODE
 70
     0
  9
$CHAMFERA
 40
0.0
  9
$CHAMFERB
 40
0.0
  9
$SKPOLY
 70
     0
  9
$TDCREATE
 40
2458172.5207638889551163
  9
$TDUPDATE
 40
2459115.5876620369963348
  9
$TDINDWG
 40
0.2748698843
  9
$TDUSRTIMER
 40
0.2748698843
  9
$USRTIMER
 70
     1
  9
$ANGBASE
 50
0.0
  9
$ANGDIR
 70
     0
  9
$PDMODE
 70
     0
  9
$PDSIZE
 40
0.3125
  9
$PLINEWID
 40
0.0
  9
$COORDS
 70
     1
  9
$SPLFRAME
 70
     0
  9
$SPLINETYPE
 70
     6
  9
$SPLINESEGS
 70
     8
  9
$ATTDIA
 70
     1
  9
$ATTREQ
 70
     1
  9
$HANDLING
 70
     1
  9
$HANDSEED
  5
FF2E
  9
$SURFTAB1
 70
     6
  9
$SURFTAB2
 70
     6
  9
$SURFTYPE
 70
     6
  9
$SURFU
 70
     6
  9
$SURFV
 70
     6
  9
$UCSNAME
  2

  9
$UCSORG
 10
0.0
 20
0.0
 30
0.0
  9
$UCSXDIR
 10
1.0
 20
0.0
 30
0.0
  9
$UCSYDIR
 10
0.0
 20
1.0
 30
0.0
  9
$PUCSNAME
  2

  9
$PUCSORG
 10
0.0
 20
0.0
 30
0.0
  9
$PUCSXDIR
 10
1.0
 20
0.0
 30
0.0
  9
$PUCSYDIR
 10
0.0
 20
1.0
 30
0.0
  9
$USERI1
 70
     0
  9
$USERI2
 70
     0
  9
$USERI3
 70
     0
  9
$USERI4
 70
     0
  9
$USERI5
 70
     0
  9
$USERR1
 40
0.0
  9
$USERR2
 40
0.0
  9
$USERR3
 40
0.0
  9
$USERR4
 40
0.0
  9
$USERR5
 40
0.0
  9
$WORLDVIEW
 70
     1
  9
$SHADEDGE
 70
     3
  9
$SHADEDIF
 70
    70
  9
$TILEMODE
 70
     1
  9
$MAXACTVP
 70
    64
  9
$PLIMCHECK
 70
     0
  9
$PEXTMIN
 10
1.0000000000000000E+20
 20
1.0000000000000000E+20
 30
1.0000000000000000E+20
  9
$PEXTMAX
 10
-1.0000000000000000E+20
 20
-1.0000000000000000E+20
 30
-1.0000000000000000E+20
  9
$PLIMMIN
 10
0.0
 20
0.0
  9
$PLIMMAX
 10
12.0
 20
9.0
  9
$UNITMODE
 70
     0
  9
$VISRETAIN
 70
     1
  9
$PLINEGEN
 70
     0
  9
$PSLTSCALE
 70
     1
  0
ENDSEC
  0
SECTION
  2
TABLES
  0
TABLE
  2
VPORT
 70
     1
  0
VPORT
  2
*ACTIVE
 70
     0
 10
0.0
 20
0.0
 11
1.0
 21
1.0
 12
47.9287351271420974
 22
-43.7987198337607211
 13
0.0
 23
0.0
 14
1.0
 24
1.0
 15
0.0
 25
0.0
 16
0.0
 26
0.0
 36
14.6338572656650907
 17
429.6292891080536833
 27
69.7025415122186871
 37
0.0
 40
32.1104704871764284
 41
2.005224660397074
 42
50.0
 43
0.0
 44
0.0
 50
0.0
 51
0.0
 71
     0
 72
   100
 73
     1
 74
     1
 75
     0
 76
     0
 77
     0
 78
     0
  0
ENDTAB
  0
TABLE
  2
LTYPE
 70
     2
  0
LTYPE
  2
CONTINUOUS
 70
     0
  3
Solid line
 72
    65
 73
     0
 40
0.0
  0
LTYPE
  2
PHANTOM2
 70
     0
  3
___ _ _ ___ _ _ ___ _ _ ___ _ _
 72
    65
 73
     6
 40
1.25
 49
0.625
 49
-0.125
 49
0.125
 49
-0.125
 49
0.125
 49
-0.125
  0
ENDTAB
  0
TABLE
  2
LAYER
 70
     2
  0
LAYER
  2
0
 70
     0
 62
   255
  6
CONTINUOUS
  0
LAYER
  2
DEFPOINTS
 70
     0
 62
     7
  6
CONTINUOUS
  0
ENDTAB
  0
TABLE
  2
STYLE
 70
     1
  0
STYLE
  2
STANDARD
 70
     0
 40
0.0
 41
0.8
 50
0.0
 71
     0
 42
0.2
  3
txt
  4

  0
ENDTAB
  0
TABLE
  2
VIEW
 70
     0
  0
ENDTAB
  0
TABLE
  2
UCS
 70
     0
  0
ENDTAB
  0
TABLE
  2
APPID
 70
    10
  0
APPID
  2
ACAD
 70
     0
  0
APPID
  2
ACAD_MLEADERVER
 70
     0
  0
APPID
  2
ACAD_EXEMPT_FROM_CAD_STANDARDS
 70
     0
  0
APPID
  2
ACAD_DSTYLE_DIMJAG
 70
     0
  0
APPID
  2
ACAD_DSTYLE_DIMTALN
 70
     0
  0
APPID
  2
ACAD_NAV_VCDISPLAY
 70
     0
  0
APPID
  2
ACAECLAYERSTANDARD
 70
     0
  0
APPID
  2
ACCMTRANSPARENCY
 70
     0
  0
APPID
  2
DCO15
 70
     0
  0
APPID
  2
ACDBATTR
 70
     0
  0
ENDTAB
  0
TABLE
  2
DIMSTYLE
 70
     1
  0
DIMSTYLE
  2
STANDARD
 70
     0
  3

  4

  5

  6

  7

 40
1.0
 41
0.1875
 42
0.0625
 43
0.38
 44
0.125
 45
0.0
 46
0.0
 47
0.01
 48
0.01
140
0.15625
141
0.09
142
0.0
143
25.3999999999999986
144
1.0
145
0.0
146
1.0
147
0.09
 71
     1
 72
     0
 73
     1
 74
     1
 75
     0
 76
     0
 77
     0
 78
     4
170
     0
171
     2
172
     0
173
     0
174
     0
175
     0
176
     0
177
     0
178
     0
  0
ENDTAB
  0
ENDSEC
  0
SECTION
  2
BLOCKS
  0
BLOCK
  8
0
  2
$MODEL_SPACE
 70
     0
 10
0.0
 20
0.0
 30
0.0
  3
$MODEL_SPACE
  1

  0
ENDBLK
  5
21
  8
0
  0
BLOCK
 67
     1
  8
0
  2
$PAPER_SPACE
 70
     0
 10
0.0
 20
0.0
 30
0.0
  3
$PAPER_SPACE
  1

  0
ENDBLK
  5
1D
 67
     1
  8
0
  0
BLOCK
  8
0
  2
_FILLED
 70
     0
 10
0.0
 20
0.0
 30
0.0
  3
_FILLED
  1

  0
SOLID
  5
87E2
  8
0
  6
BYBLOCK
 62
     0
 10
0.0
 20
0.0
 30
0.0
 11
-1.0
 21
0.1666666667
 31
0.0
 12
-1.0
 22
-0.1666666667
 32
0.0
 13
-1.0
 23
-0.1666666667
 33
0.0
  0
ENDBLK
  5
87E3
  8
0
  6
BYBLOCK
 62
     0
  0
ENDSEC
  0
SECTION
  2
ENTITIES
  0
ATTDEF
  5
C848
  8
DEFPOINTS
 10
468.3888164627470019
 20
29.22710540827239
 30
0.0
 40
0.001
  1
K-73050W
  3

  2
MODELNUMBER
 70
     0
1001
ACDBATTR
1070
     0
1070
     1
  0
ATTDEF
  5
C849
  8
DEFPOINTS
 10
468.3888164627470019
 20
29.2254387416057213
 30
0.0
 40
0.001
  1
COMPOSED
  3

  2
TRADENAME
 70
     0
1001
ACDBATTR
1070
     0
1070
     1
  0
ATTDEF
  5
C84A
  8
DEFPOINTS
 10
468.3888164627470019
 20
29.223772074939049
 30
0.0
 40
0.001
  1
BATHROOM SINK FAUCET
  3

  2
PRODUCT
 70
     0
1001
ACDBATTR
1070
     0
1070
     1
  0
LINE
  5
FCF9
  8
0
 10
467.3789266331008889
 20
29.2202055058526611
 30
0.0
 11
469.386520565169576
 21
29.2202055058526611
 31
0.0
  0
LINE
  5
FCFA
  8
0
 10
469.366834039069488
 20
29.3776858208526512
 30
0.0
 11
467.3983378786696221
 21
29.3776858208526512
 31
0.0
  0
LINE
  5
FCFB
  8
0
 10
467.3789266331008889
 20
29.2202055058526611
 30
0.0
 11
467.3789266331008889
 21
29.3580007814526596
 31
0.0
  0
LINE
  5
FCFC
  8
0
 10
467.6935394880705985
 20
29.4091818837526588
 30
0.0
 11
467.6935394880705985
 21
33.1768791289526632
 31
0.0
  0
LINE
  5
FCFD
  8
0
 10
467.6935394880705985
 20
33.2399106160526614
 30
0.0
 11
467.6935394880705985
 21
33.9540600741526575
 31
0.0
  0
LINE
  5
FCFE
  8
0
 10
469.0716287173813726
 20
33.9540600741526575
 30
0.0
 11
469.0716287173813726
 21
33.2399106161526632
 31
0.0
  0
LINE
  5
FCFF
  8
0
 10
469.0716287173813726
 20
29.4091752565616282
 30
0.0
 11
469.0716287173813726
 21
31.2656070508526689
 31
0.0
  0
LINE
  5
FD00
  8
0
 10
469.0716287173813726
 20
32.9864920510526574
 30
0.0
 11
469.0716287173813726
 21
33.1768793127526607
 31
0.0
  0
LINE
  5
FD01
  8
0
 10
471.1412449746194966
 20
31.4642999631026612
 30
0.0
 11
470.2829772581195016
 21
31.4642999631026612
 31
0.0
  0
LINE
  5
FD02
  8
0
 10
470.0152607226194732
 20
31.4642999631026612
 30
0.0
 11
469.7632922187195277
 21
31.4642999631026612
 31
0.0
  0
LINE
  5
FD03
  8
0
 10
469.6621111162696138
 20
31.4642999631026612
 30
0.0
 11
469.2880953682695804
 21
31.4642999631026612
 31
0.0
  0
LINE
  5
FD04
  8
0
 10
469.6940988180696195
 20
31.4789729227526607
 30
0.0
 11
469.681796155669474
 21
31.4789729227526607
 31
0.0
  0
LINE
  5
FD05
  8
0
 10
469.386520565169576
 20
29.2202055058526611
 30
0.0
 11
469.386520565169576
 21
29.3580007814526596
 31
0.0
  0
LINE
  5
FD06
  8
0
 10
469.681796155669474
 20
32.7930401206526625
 30
0.0
 11
469.681796155669474
 21
31.4789729227526607
 31
0.0
  0
LINE
  5
FD07
  8
0
 10
469.7554182029195999
 20
32.7950086245526577
 30
0.0
 11
469.7554182029195999
 21
31.4721739789526609
 31
0.0
  0
LINE
  5
FD08
  8
0
 10
469.681796155669474
 20
32.7930401206526625
 30
0.0
 11
469.6940988180696195
 21
32.7930401206526625
 31
0.0
  0
LINE
  5
FD09
  8
0
 10
471.1412449746194966
 20
32.8028826404026574
 30
0.0
 11
469.7632922187195277
 21
32.8028826404026574
 31
0.0
  0
LINE
  5
FD0A
  8
0
 10
469.6621111162696138
 20
32.8028826404026574
 30
0.0
 11
469.2880953682695804
 21
32.8028826404026574
 31
0.0
  0
LINE
  5
FD0B
  8
0
 10
471.1727410376195166
 20
31.4957960261526502
 30
0.0
 11
471.1727410376195166
 21
32.7713865773526578
 31
0.0
  0
LINE
  5
FD0C
  8
0
 10
467.8432134785696235
 20
33.9896781244020829
 30
0.0
 11
468.9219536359694871
 21
33.9896781244020829
 31
0.0
  0
ARC
  5
FD0D
  8
0
 10
467.7251512191623988
 20
29.4092977277973908
 30
0.0
 40
0.0316119433515995
 50
180.2099646208627917
 51
269.9130431654186282
  0
ARC
  5
FD0E
  8
0
 10
467.4010729178544921
 20
29.355575672949481
 30
0.0
 40
0.0222786687134518
 50
97.0517015054071805
 51
173.7507775313112006
  0
ARC
  5
FD0F
  8
0
 10
467.7251410964697129
 20
33.4662955031394205
 30
0.0
 40
0.0316032471872523
 50
180.5834921964247997
 51
269.9313710576237781
  0
ARC
  5
FD10
  8
0
 10
469.0400151012290735
 20
29.4092996440928509
 30
0.0
 40
0.0316138608600212
 50
270.0883908453043887
 51
359.7745641070698071
  0
ARC
  5
FD11
  8
0
 10
469.0400252512811221
 20
33.4662973791132288
 30
0.0
 40
0.0316051240874186
 50
270.0700149505012178
 51
359.4131172436278234
  0
ARC
  5
FD12
  8
0
 10
469.445575675394025
 20
32.1335913184101685
 30
0.0
 40
0.704724427801748
 50
292.3992180419248257
 51
296.0824962821786812
  0
ARC
  5
FD13
  8
0
 10
469.44557567993661
 20
32.133591294623038
 30
0.0
 40
0.7047244172469247
 50
63.9175037089518483
 51
69.3503330704512422
  0
ARC
  5
FD14
  8
0
 10
469.4456033989695811
 20
32.136298621852653
 30
0.0
 40
0.7027282889000001
 50
290.7085983126005999
 51
292.4491213084014021
  0
ARC
  5
FD15
  8
0
 10
471.1412449745341746
 20
32.7713865773173012
 30
0.0
 40
0.0314960630853536
 50
0.0000000643137672
 51
89.9999998447278671
  0
ARC
  5
FD16
  8
0
 10
471.1412449745341746
 20
31.4957960261880103
 30
0.0
 40
0.0314960630853558
 50
270.0000001552721187
 51
359.9999999356837748
  0
ARC
  5
FD17
  8
0
 10
469.3668355256737073
 20
29.3580007814129615
 30
0.0
 40
0.0196850394958306
 50
0.000000115543394
 51
90.0043269481268169
  0
ARC
  5
FD18
  8
0
 10
469.6621110634345087
 20
31.4839850552376603
 30
0.0
 40
0.0196850922350714
 50
270.0001537826657909
 51
359.9999363011335731
  0
ARC
  5
FD19
  8
0
 10
469.6621111689336772
 20
32.7831976536668606
 30
0.0
 40
0.0196849867358632
 50
359.9999365068450174
 51
90.0001532860294589
  0
ARC
  5
FD1A
  8
0
 10
469.7632922190463773
 20
31.4721739792294315
 30
0.0
 40
0.0078740161267747
 50
180.0000020139777064
 51
269.9999976222014197
  0
ARC
  5
FD1B
  8
0
 10
469.7632922190463773
 20
32.79500862427588
 30
0.0
 40
0.0078740161267765
 50
90.0000023777920433
 51
179.9999979860158135
  0
ARC
  5
FD1C
  8
0
 10
467.7258868171390986
 20
33.9536885390266718
 30
0.0
 40
0.0323494626825193
 50
102.7391579609926993
 51
179.3419416502514139
  0
ARC
  5
FD1D
  8
0
 10
467.5991559606035821
 20
39.0884631223838781
 30
0.0
 40
5.104622662618663
 50
271.3425188996654924
 51
272.7404177773291849
  0
ARC
  5
FD1E
  8
0
 10
469.0394957651981827
 20
33.9538129656597931
 30
0.0
 40
0.0321339023207959
 50
0.440605827431096
 51
75.161518589926871
  0
ARC
  5
FD1F
  8
0
 10
468.7682809659430063
 20
28.3163207264580805
 30
0.0
 40
5.6754382609908527
 50
87.1777605476595454
 51
88.4484243778472461
  0
ARC
  5
FD20
  8
0
 10
467.7276327949775805
 20
33.1762836366767573
 30
0.0
 40
0.0340985071067825
 50
104.2482926780276955
 51
178.9993424465160103
  0
ARC
  5
FD21
  8
0
 10
469.0371744433824119
 20
33.1762162980887965
 30
0.0
 40
0.0344606527106423
 50
1.102425028319663
 51
85.1902629457406846
  0
ARC
  5
FD22
  8
0
 10
468.389074665084479
 20
23.0286023165846387
 30
0.0
 40
10.2027427514433597
 50
86.3417397137461364
 51
93.7643117820982042
  0
ARC
  5
FD23
  8
0
 10
469.3515010761565236
 20
35.1649145158048029
 30
0.0
 40
2.3628827444899612
 50
264.9917180962261796
 51
268.4623377548762164
  0
ARC
  5
FD24
  8
0
 10
469.1570443554688836
 20
32.8906518746637602
 30
0.0
 40
0.0804719883230645
 50
179.5885392852252949
 51
261.5519683101845203
  0
ARC
  5
FD25
  8
0
 10
470.3284788544784192
 20
33.0039843187980111
 30
0.0
 40
1.2569718559106431
 50
180.7973650824887102
 51
185.1465397004681961
  0
ARC
  5
FD26
  8
0
 10
473.7152588063866006
 20
31.01186565255232
 30
0.0
 40
4.6505575042919691
 50
175.2795195018163952
 51
176.8723031164603867
  0
ARC
  5
FD27
  8
0
 10
469.160056502857401
 20
31.3764282202571287
 30
0.0
 40
0.0816250414708331
 50
95.7092573643778195
 51
167.149599421723309
  0
ARC
  5
FD28
  8
0
 10
469.9228780002048893
 20
17.0733145560766104
 30
0.0
 40
14.4049786523633205
 50
92.5256647793924998
 51
93.067884719710122
  0
ARC
  5
FD29
  8
0
 10
467.727105130377879
 20
33.2420334186013804
 30
0.0
 40
0.0336327018564418
 50
183.6187556017619045
 51
256.4765011538855788
  0
ARC
  5
FD2A
  8
0
 10
469.041259739155123
 20
33.2409177334300097
 30
0.0
 40
0.0303856730864765
 50
267.7444690688881224
 51
358.1006133115815828
  0
ARC
  5
FD2B
  8
0
 10
470.1491189903695727
 20
30.8243557418917007
 30
0.0
 40
0.6537940364566858
 50
78.185677994277313
 51
101.8143220057226017
  0
ARC
  5
FD2C
  8
0
 10
468.3825835572695837
 20
-19.0076330766401789
 30
0.0
 40
52.4464466768928403
 50
89.2817085553817265
 51
90.7182914446182735
  0
ARC
  5
FD2D
  8
0
 10
468.1322243933105938
 20
33.553027131969607
 30
0.0
 40
0.6297877720447305
 50
343.7642833859367784
 51
348.4577915102905195
  0
ARC
  5
FD2E
  8
0
 10
468.2160707081829969
 20
33.3983793279631627
 30
0.0
 40
0.1577713102000122
 50
187.8211860775899993
 51
223.2950802511992947
  0
ARC
  5
FD2F
  8
0
 10
468.6330158894106717
 20
33.5530467872706097
 30
0.0
 40
0.6298635180287022
 50
191.5410613488510876
 51
196.2355723672455099
  0
ARC
  5
FD30
  8
0
 10
468.5491025137388874
 20
33.3983774991454609
 30
0.0
 40
0.1577650090395776
 50
316.703569392786676
 51
352.1042792197266067
  0
ARC
  5
FD31
  8
0
 10
468.08263598455909
 20
33.687805844925883
 30
0.0
 40
0.3166646807830398
 50
260.9728465650163116
 51
265.997911551547304
  0
ARC
  5
FD32
  8
0
 10
468.0353519270842071
 20
33.3901790211586729
 30
0.0
 40
0.0153052470215617
 50
246.6685582095703921
 51
260.9728465650196085
  0
ARC
  5
FD33
  8
0
 10
468.0302607994262871
 20
33.3783753891591601
 30
0.0
 40
0.0024504693413175
 50
215.7133681370463876
 51
246.6685582095423115
  0
ARC
  5
FD34
  8
0
 10
468.0295524591372782
 20
33.3767443073369208
 30
0.0
 40
0.0012969300225731
 50
102.0364372173350063
 51
171.099142829338291
  0
ARC
  5
FD35
  8
0
 10
468.0536672246057037
 20
33.2879799685174902
 30
0.0
 40
0.0932766641535741
 50
94.5707191538479037
 51
105.1548670672171966
  0
ARC
  5
FD36
  8
0
 10
468.3875573652846924
 20
26.5372206052828687
 30
0.0
 40
6.8522456423316171
 50
87.3779166579353443
 51
92.8551926803477556
  0
ARC
  5
FD37
  8
0
 10
468.6899737681665101
 20
33.1116557300989029
 30
0.0
 40
0.2708622027768802
 50
82.1400918647643579
 51
87.6597659796623958
  0
ARC
  5
FD38
  8
0
 10
468.7207577517140749
 20
33.3285802691429467
 30
0.0
 40
0.0517724848186827
 50
74.0536090627600032
 51
83.0587252140891508
  0
ARC
  5
FD39
  8
0
 10
468.7347447622624941
 20
33.3760382360601611
 30
0.0
 40
0.0023343169936482
 50
22.8573867719501891
 51
84.1765133881907985
  0
ARC
  5
FD3A
  8
0
 10
468.7351086480865092
 20
33.3780693548846585
 30
0.0
 40
0.0021114108734616
 50
285.1443491090017801
 51
327.8237610976115093
  0
ARC
  5
FD3B
  8
0
 10
468.6963031602235787
 20
33.5535717642236619
 30
0.0
 40
0.1818505088623616
 50
272.6250503496302144
 51
282.4991750312004797
  0
ARC
  5
FD3C
  8
0
 10
468.3811416066959055
 20
28.8641601888116917
 30
0.0
 40
4.5241781588257144
 50
85.8903111762001856
 51
94.0734307587647436
  0
ARC
  5
FD3D
  8
0
 10
468.1015061848439132
 20
33.2905046588619413
 30
0.0
 40
0.0004149065500422
 50
152.5429515122868906
 51
216.4022194237620056
  0
ARC
  5
FD3E
  8
0
 10
468.1033396237394868
 20
33.2885261962579406
 30
0.0
 40
0.0030911131609206
 50
103.5262390823811955
 51
135.4173181964112018
  0
ARC
  5
FD3F
  8
0
 10
468.1025462283241154
 20
33.2915298502090167
 30
0.0
 40
0.0018737256868074
 50
225.7924945876347067
 51
246.4655803810800876
  0
LINE
  5
FD40
  8
0
 10
469.7141163861052746
 20
31.4820374788610593
 30
0.0
 11
469.7139492443671998
 21
31.4868237914872608
 31
0.0
  0
ARC
  5
FD41
  8
0
 10
468.382325227655997
 20
22.2643538166009698
 30
0.0
 40
11.1686890055543397
 50
88.1171887197092332
 51
91.8801776899603766
  0
ARC
  5
FD42
  8
0
 10
468.6889431644141268
 20
35.0583153439934279
 30
0.0
 40
1.6536329891245161
 50
271.9259226662907736
 51
274.894104153223509
  0
ARC
  5
FD43
  8
0
 10
468.6644935392004072
 20
31.2767999763389604
 30
0.0
 40
2.1518839074036511
 50
86.0970712344558251
 51
87.7420001757088244
  0
ARC
  5
FD44
  8
0
 10
468.7828291267840086
 20
32.9616789524717433
 30
0.0
 40
0.4628701610167539
 50
81.7654330651164543
 51
86.5151772543517126
  0
ARC
  5
FD45
  8
0
 10
468.8167221765986028
 20
33.5916859277914028
 30
0.0
 40
0.181462594324221
 50
274.2030695782124781
 51
282.2986352512435246
  0
ARC
  5
FD46
  8
0
 10
468.8437813929922982
 20
33.3800016189749371
 30
0.0
 40
0.040132534007908
 50
69.6771580864208602
 51
82.3495673690914032
  0
ARC
  5
FD47
  8
0
 10
468.8522858752472189
 20
33.4268041254986912
 30
0.0
 40
0.0127948532352034
 50
283.9712479661557722
 51
297.1389555347660121
  0
ARC
  5
FD48
  8
0
 10
468.856664865814821
 20
33.4151113907816821
 30
0.0
 40
0.0027360861350915
 50
36.0282373976965218
 51
67.3211882168087357
  0
ARC
  5
FD49
  8
0
 10
468.8573003776745054
 20
33.4170325121563678
 30
0.0
 40
0.0018117080413184
 50
296.9777262645162068
 51
334.1262964723952109
  0
ARC
  5
FD4A
  8
0
 10
468.8583598308661067
 20
33.4164212230477702
 30
0.0
 40
0.0005981575497781
 50
342.5551625616756724
 51
30.0454409584272994
  0
ARC
  5
FD4B
  8
0
 10
468.0762239501202089
 20
35.0583153439924686
 30
0.0
 40
1.653632989124477
 50
265.1058958469498066
 51
268.0740769842627174
  0
ARC
  5
FD4C
  8
0
 10
468.1058939407789126
 20
31.1912442779076216
 30
0.0
 40
2.2375966006009458
 50
92.3053292758800836
 51
93.8871759739286915
  0
ARC
  5
FD4D
  8
0
 10
467.9823379877565799
 20
32.9616789524705425
 30
0.0
 40
0.4628701610167539
 50
93.4848227458212193
 51
98.2345669350579129
  0
ARC
  5
FD4E
  8
0
 10
467.9484449379401099
 20
33.5916859277901025
 30
0.0
 40
0.181462594324221
 50
257.7013647489297909
 51
265.7969304219573132
  0
ARC
  5
FD4F
  8
0
 10
467.9213857215469829
 20
33.3800016189735516
 30
0.0
 40
0.040132534007908
 50
97.6504326310794823
 51
110.3228419137525975
  0
ARC
  5
FD50
  8
0
 10
467.9128812392921191
 20
33.4268041254972914
 30
0.0
 40
0.0127948532352034
 50
242.8610444654059108
 51
256.0287520340153833
  0
ARC
  5
FD51
  8
0
 10
467.9085022487245169
 20
33.415111390780261
 30
0.0
 40
0.0027360861350915
 50
112.6788117833609988
 51
143.9717626024751951
  0
ARC
  5
FD52
  8
0
 10
467.9078667368647757
 20
33.4170325121549467
 30
0.0
 40
0.0018117080413184
 50
205.8737035277765131
 51
243.0222737356556024
  0
ARC
  5
FD53
  8
0
 10
467.9068072836731744
 20
33.416421223046342
 30
0.0
 40
0.0005981575497781
 50
149.954559041745398
 51
197.4448374384953127
  0
ARC
  5
FD54
  8
0
 10
468.153388251935894
 20
32.9950441574285875
 30
0.0
 40
0.3008031629080926
 50
91.9779234499455356
 51
99.7172899616036972
  0
ARC
  5
FD55
  8
0
 10
468.2287855913314161
 20
31.7637621763155202
 30
0.0
 40
1.5343056630221521
 50
92.4615400538614978
 51
93.2049420515848652
  0
ARC
  5
FD56
  8
0
 10
468.2927669839100986
 20
30.2078129383848086
 30
0.0
 40
3.0915684748374441
 50
91.4481274290120751
 51
92.4077252599564503
  0
ARC
  5
FD57
  8
0
 10
468.349254986930589
 20
28.0169824148283695
 30
0.0
 40
5.2831269533729444
 50
90.8272981003048017
 51
91.460095050282689
  0
ARC
  5
FD58
  8
0
 10
468.3805289207530791
 20
25.8430582493847396
 30
0.0
 40
7.4572760573268573
 50
89.9842153366381723
 51
90.8263938546257918
  0
ARC
  5
FD59
  8
0
 10
468.1254366666345845
 20
33.3804635239419767
 30
0.0
 40
0.0936829043211996
 50
255.384814251675806
 51
267.209884513811005
  0
ARC
  5
FD5A
  8
0
 10
468.2477212675627811
 20
35.0741768703724404
 30
0.0
 40
1.791780673245587
 50
265.9404861099425261
 51
268.4830320662459826
  0
ARC
  5
FD5B
  8
0
 10
468.3585543901166943
 20
38.9028019297051912
 30
0.0
 40
5.6220059185850513
 50
268.3868347481529213
 51
269.637771459954422
  0
ARC
  5
FD5C
  8
0
 10
468.3823766680455947
 20
41.2013547419066768
 30
0.0
 40
7.9206688495512552
 50
269.5705684300160101
 51
270.0014951349955936
  0
LINE
  5
FD5D
  8
0
 10
468.3234776868916924
 20
33.2992700475432599
 30
0.0
 11
468.3786465493765832
 21
33.299508585197529
 31
0.0
  0
LINE
  5
FD5E
  8
0
 10
468.3786465493765832
 20
33.299508585197529
 30
0.0
 11
468.3786465494196136
 21
33.2975159928526523
 31
0.0
  0
LINE
  5
FD5F
  8
0
 10
468.3786465494196136
 20
33.2975159928526523
 30
0.0
 11
468.3382616440196102
 21
33.297344485979643
 31
0.0
  0
LINE
  5
FD60
  8
0
 10
468.3382616440196102
 20
33.297344485979643
 30
0.0
 11
468.323477686819615
 21
33.2992700475526604
 31
0.0
  0
LINE
  5
FD61
  8
0
 10
468.3382616440196102
 20
33.2993339700222606
 30
0.0
 11
468.3382616440196102
 21
33.2973444859526566
 31
0.0
  0
LINE
  5
FD62
  8
0
 10
468.3786465494196136
 20
33.2973098525526581
 30
0.0
 11
468.3786465494196136
 21
33.295316983252647
 31
0.0
  0
ARC
  5
FD63
  8
0
 10
468.3270273970775861
 20
33.2613962243332324
 30
0.0
 40
0.0301040355768459
 50
91.6341170451133422
 51
104.2495360164705005
  0
ARC
  5
FD64
  8
0
 10
468.3263811326622204
 20
33.3119802709661315
 30
0.0
 40
0.0224493695095631
 50
252.4650706326588931
 51
269.4583898537462119
  0
ARC
  5
FD65
  8
0
 10
465.3172343954262828
 20
-117.5225143910929972
 30
0.0
 40
150.8440125411916881
 50
88.8453162565392489
 51
88.8570493184521411
  0
ARC
  5
FD66
  8
0
 10
468.3766590827024174
 20
34.521678606073678
 30
0.0
 40
1.233570810374844
 50
267.5990680723214723
 51
270.0923120935763109
  0
ARC
  5
FD67
  8
0
 10
468.3719191323078803
 20
35.6396609503929298
 30
0.0
 40
2.3537614388633088
 50
267.5276197328734042
 51
270.1637604924447942
  0
LINE
  5
FD68
  8
0
 10
468.2703830754196019
 20
33.2880905516526582
 30
0.0
 11
468.3249824519195954
 21
33.2891906872526633
 31
0.0
  0
ARC
  5
FD69
  8
0
 10
468.3771118769444115
 20
34.417167131581607
 30
0.0
 40
1.1288523096215251
 50
267.6134866114300053
 51
270.0778935225625901
  0
ARC
  5
FD6A
  8
0
 10
468.3792360070515883
 20
38.1633187543793966
 30
0.0
 40
4.879608721130035
 50
268.935373410596128
 51
269.9930786592661889
  0
ARC
  5
FD6B
  8
0
 10
468.3656373181781873
 20
38.9000086642570295
 30
0.0
 40
5.6184094669652032
 50
268.8927877544668945
 51
269.4149275082485246
  0
ARC
  5
FD6C
  8
0
 10
468.381967152463119
 20
40.4293305965344771
 30
0.0
 40
7.1478200315697631
 50
269.5311525874591894
 51
269.9733823314315941
  0
ARC
  5
FD6D
  8
0
 10
468.3791868625698953
 20
30.1005751824506689
 30
0.0
 40
3.1945356591953731
 50
90.0096908178782513
 51
90.9722336086230285
  0
ARC
  5
FD6E
  8
0
 10
468.3805614294022917
 20
29.8007137849668986
 30
0.0
 40
3.4946037227845639
 50
90.031400295318079
 51
91.0401522142341548
  0
ARC
  5
FD6F
  8
0
 10
468.3798663624015717
 20
28.300933427769781
 30
0.0
 40
4.9963765736851542
 50
90.0139881642875963
 51
90.7195194704890042
  0
ARC
  5
FD70
  8
0
 10
468.3766590826617175
 20
32.0593413174531179
 30
0.0
 40
1.23357080835342
 50
89.9076879043816461
 51
92.4009319297191496
  0
ARC
  5
FD71
  8
0
 10
468.3683875325771737
 20
32.4599013594944807
 30
0.0
 40
0.8327050579543243
 50
90.5131349292303895
 51
92.6349635313376183
  0
ARC
  5
FD72
  8
0
 10
468.3332807466948111
 20
34.5908081314734375
 30
0.0
 40
1.3045948166419929
 50
267.0115681171627102
 51
268.9908666389204086
  0
ARC
  5
FD73
  8
0
 10
468.2676335681151727
 20
33.2261513287628176
 30
0.0
 40
0.0665506534525061
 50
91.022414954569129
 51
104.7463041273968969
  0
ARC
  5
FD74
  8
0
 10
468.2676335691695044
 20
33.3548685973052486
 30
0.0
 40
0.0665506581333331
 50
255.2536959947231878
 51
268.9775842095347116
  0
ARC
  5
FD75
  8
0
 10
468.2633874603400272
 20
33.2126370528121484
 30
0.0
 40
0.0801838397175662
 50
91.4706434917616065
 51
103.3709777135211993
  0
ARC
  5
FD76
  8
0
 10
468.2633874580918132
 20
33.3683828442712169
 30
0.0
 40
0.0801838152466516
 50
256.6290197813119107
 51
268.5293576556239259
  0
ARC
  5
FD77
  8
0
 10
468.214478076563978
 20
33.1795948429645406
 30
0.0
 40
0.114225694961254
 50
91.3049022142742643
 51
103.5367204926109963
  0
ARC
  5
FD78
  8
0
 10
468.2144780754866247
 20
33.4014250702679831
 30
0.0
 40
0.1142256866660643
 50
256.4632790615476097
 51
268.6950982315627243
  0
ARC
  5
FD79
  8
0
 10
468.1877921430775018
 20
33.2791475420053331
 30
0.0
 40
0.0129513035910334
 50
94.6195202825082475
 51
117.3860408127433033
  0
ARC
  5
FD7A
  8
0
 10
468.1877921434476093
 20
33.3018723807904991
 30
0.0
 40
0.0129513049071771
 50
242.6139603593773018
 51
265.3804785451217185
  0
ARC
  5
FD7B
  8
0
 10
468.1833150573178273
 20
32.8473757034670584
 30
0.0
 40
0.4482691909532238
 50
93.3249970125168886
 51
96.1038142059398268
  0
ARC
  5
FD7C
  8
0
 10
468.1328643660115745
 20
33.2748993614342297
 30
0.0
 40
0.0177203652433525
 50
94.1739772228274745
 51
117.2902910467202986
  0
ARC
  5
FD7D
  8
0
 10
468.1328391428463078
 20
33.3060310186090902
 30
0.0
 40
0.0176292352572296
 50
242.6491314849733953
 51
265.8866002454452087
  0
ARC
  5
FD7E
  8
0
 10
468.1833150575815807
 20
33.7336442212367729
 30
0.0
 40
0.448269194161675
 50
263.8961858040044035
 51
266.675002977532813
  0
LINE
  5
FD7F
  8
0
 10
468.1315745852194823
 20
33.2925727258526507
 30
0.0
 11
468.1867490643194856
 21
33.2920567732526607
 31
0.0
  0
LINE
  5
FD80
  8
0
 10
468.1818347575194821
 20
33.2921027283647319
 30
0.0
 11
468.1818347575194821
 21
33.2906473603526578
 31
0.0
  0
LINE
  5
FD81
  8
0
 10
468.1818347575194821
 20
33.2906473603526578
 30
0.0
 11
468.1247395968194951
 21
33.2906473603526578
 31
0.0
  0
LINE
  5
FD82
  8
0
 10
468.1867490643131191
 20
33.2889631482525914
 30
0.0
 11
468.1315745852194823
 21
33.2884471956526511
 31
0.0
  0
LINE
  5
FD83
  8
0
 10
468.1315745852194823
 20
33.2884471956526511
 30
0.0
 11
468.1315745852194823
 21
33.2903725611526511
 31
0.0
  0
LINE
  5
FD84
  8
0
 10
468.1247395968194951
 20
33.2903725611526511
 30
0.0
 11
468.1818347575194821
 21
33.2903725611526582
 31
0.0
  0
LINE
  5
FD85
  8
0
 10
468.1356504756196273
 20
33.2879163243526577
 30
0.0
 11
468.1908249548196181
 21
33.2884322770526566
 31
0.0
  0
LINE
  5
FD86
  8
0
 10
468.1908249548196181
 20
33.2884322770526566
 30
0.0
 11
468.2067614930195987
 21
33.2871259362526573
 31
0.0
  0
LINE
  5
FD87
  8
0
 10
468.2067614930195987
 20
33.2871259362526573
 30
0.0
 11
468.1573156333195129
 21
33.286129640052657
 31
0.0
  0
LINE
  5
FD88
  8
0
 10
468.1573156333195129
 20
33.286129640052657
 30
0.0
 11
468.1573156333195129
 21
33.2881189215526518
 31
0.0
  0
LINE
  5
FD89
  8
0
 10
468.1612526412195052
 20
33.2858916569526571
 30
0.0
 11
468.2106985008194897
 21
33.2868879531526574
 31
0.0
  0
LINE
  5
FD8A
  8
0
 10
468.2106985008194897
 20
33.2868879531526574
 30
0.0
 11
468.2351468681196138
 21
33.2857531192526466
 31
0.0
  0
LINE
  5
FD8B
  8
0
 10
468.2351468681196138
 20
33.2857531192526466
 30
0.0
 11
468.194756346019517
 21
33.284343510352663
 31
0.0
  0
LINE
  5
FD8C
  8
0
 10
468.194756346019517
 20
33.284343510352663
 30
0.0
 11
468.1612526412195052
 21
33.2858916569526571
 31
0.0
  0
LINE
  5
FD8D
  8
0
 10
468.194756346019517
 20
33.2865667309436475
 30
0.0
 11
468.1948338409127928
 21
33.2843462148854528
 31
0.0
  0
LINE
  5
FD8E
  8
0
 10
468.1573156333195129
 20
33.2948902814526519
 30
0.0
 11
468.2067614930195987
 21
33.2938939852526516
 31
0.0
  0
LINE
  5
FD8F
  8
0
 10
468.2067614930195987
 20
33.2938939852526516
 30
0.0
 11
468.1908249548196181
 21
33.2925876444526594
 31
0.0
  0
LINE
  5
FD90
  8
0
 10
468.1908249548196181
 20
33.2925876444526594
 30
0.0
 11
468.1356504756196273
 21
33.2931035971526512
 31
0.0
  0
LINE
  5
FD91
  8
0
 10
468.1908249548196181
 20
33.2925876444526594
 30
0.0
 11
468.1908249548196181
 21
33.2942150942526567
 31
0.0
  0
LINE
  5
FD92
  8
0
 10
468.194756346019517
 20
33.2966764111526601
 30
0.0
 11
468.2351468681196138
 21
33.2952668022526623
 31
0.0
  0
LINE
  5
FD93
  8
0
 10
468.2351468681196138
 20
33.2952668022526623
 30
0.0
 11
468.2106985008194897
 21
33.2941319683526586
 31
0.0
  0
LINE
  5
FD94
  8
0
 10
468.2106985008194897
 20
33.2941319683526586
 30
0.0
 11
468.1612526412195052
 21
33.2951282645526589
 31
0.0
  0
LINE
  5
FD95
  8
0
 10
468.1612526412195052
 20
33.2951282645526589
 30
0.0
 11
468.194756346019517
 21
33.2966764111526601
 31
0.0
  0
LINE
  5
FD96
  8
0
 10
468.2106985008194897
 20
33.2961200379709581
 30
0.0
 11
468.2106985008194897
 21
33.2941319683526586
 31
0.0
  0
LINE
  5
FD97
  8
0
 10
468.2118768295196105
 20
33.2937909151526625
 30
0.0
 11
468.2613295619195242
 21
33.2927944804526632
 31
0.0
  0
LINE
  5
FD98
  8
0
 10
468.2448445361195013
 20
33.2931266410526518
 30
0.0
 11
468.2448445361195013
 21
33.2906473605490589
 31
0.0
  0
LINE
  5
FD99
  8
0
 10
468.2448445361195013
 20
33.2906473605490589
 30
0.0
 11
468.1877414393196091
 21
33.2906473603526578
 31
0.0
  0
LINE
  5
FD9A
  8
0
 10
468.1877414393196091
 20
33.2903725611526511
 30
0.0
 11
468.2448445361195013
 21
33.2903725611526582
 31
0.0
  0
LINE
  5
FD9B
  8
0
 10
468.2118768295196105
 20
33.2903725611526511
 30
0.0
 11
468.2118768295196105
 21
33.2872302820917128
 31
0.0
  0
LINE
  5
FD9C
  8
0
 10
468.2118768295196105
 20
33.2872302820917128
 30
0.0
 11
468.261329561904688
 21
33.2882254410523615
 31
0.0
  0
LINE
  5
FD9D
  8
0
 10
468.2158138373195015
 20
33.2940288982526624
 30
0.0
 11
468.2652665698195733
 21
33.2959396368526512
 31
0.0
  0
LINE
  5
FD9E
  8
0
 10
468.2652665698195733
 20
33.2959396368526512
 30
0.0
 11
468.281752949519614
 21
33.2963301400526603
 31
0.0
  0
LINE
  5
FD9F
  8
0
 10
468.281752949519614
 20
33.2963301400526603
 30
0.0
 11
468.3103044978461753
 21
33.294604264557087
 31
0.0
  0
LINE
  5
FDA0
  8
0
 10
468.3103044978461753
 20
33.294604264557087
 30
0.0
 11
468.2652665698195733
 21
33.2930324636162212
 31
0.0
  0
LINE
  5
FDA1
  8
0
 10
468.2652665698195733
 20
33.2930324636162212
 30
0.0
 11
468.2158138373195015
 21
33.2940288982526624
 31
0.0
  0
LINE
  5
FDA2
  8
0
 10
468.2652665698195733
 20
33.2959396368526512
 30
0.0
 11
468.2652665698195733
 21
33.2930324636162212
 31
0.0
  0
LINE
  5
FDA3
  8
0
 10
468.2462824079195798
 20
33.2956554269526634
 30
0.0
 11
468.2787996072203214
 21
33.2965086627372386
 31
0.0
  0
LINE
  5
FDA4
  8
0
 10
468.2787996072203214
 20
33.2965086627372386
 30
0.0
 11
468.2502520282196201
 21
33.2982342983526465
 31
0.0
  0
LINE
  5
FDA5
  8
0
 10
468.2502520282196201
 20
33.2982342983526465
 30
0.0
 11
468.2058918859195842
 21
33.2970650358526612
 31
0.0
  0
LINE
  5
FDA6
  8
0
 10
468.2058918859195842
 20
33.2970650358526612
 30
0.0
 11
468.2462824079195798
 21
33.2956554270530134
 31
0.0
  0
LINE
  5
FDA7
  8
0
 10
468.2462824079195798
 20
33.2956554270530134
 30
0.0
 11
468.2462824079195798
 21
33.2981491862526582
 31
0.0
  0
LINE
  5
FDA8
  8
0
 10
468.2570711260232201
 20
33.298371697940361
 30
0.0
 11
468.3082662565195733
 21
33.2991278010526628
 31
0.0
  0
LINE
  5
FDA9
  8
0
 10
468.3082662565195733
 20
33.2991278010526628
 30
0.0
 11
468.3230502137623148
 21
33.2972022394340712
 31
0.0
  0
LINE
  5
FDAA
  8
0
 10
468.3230502137623148
 20
33.2972022394340712
 30
0.0
 11
468.2856187062196227
 21
33.2966460622526625
 31
0.0
  0
LINE
  5
FDAB
  8
0
 10
468.2856187062196227
 20
33.2966460622526625
 30
0.0
 11
468.257071126023277
 21
33.298371697940361
 31
0.0
  0
LINE
  5
FDAC
  8
0
 10
468.2856187062196227
 20
33.2966460622526625
 30
0.0
 11
468.2856187062196227
 21
33.2987933183957807
 31
0.0
  0
LINE
  5
FDAD
  8
0
 10
468.2664460675196096
 20
33.2926913867526508
 30
0.0
 11
468.321045444119477
 21
33.2915912511526528
 31
0.0
  0
LINE
  5
FDAE
  8
0
 10
468.3208945900491926
 20
33.2894391852945404
 30
0.0
 11
468.2664460675196096
 21
33.2883285346526634
 31
0.0
  0
LINE
  5
FDAF
  8
0
 10
468.2664460675196096
 20
33.2883285346526634
 30
0.0
 11
468.2664460675196096
 21
33.2926896161901027
 31
0.0
  0
LINE
  5
FDB0
  8
0
 10
468.2058918859195842
 20
33.2839548855526601
 30
0.0
 11
468.2462824079195798
 21
33.2853644944526508
 31
0.0
  0
LINE
  5
FDB1
  8
0
 10
468.2462824079195798
 20
33.2853644944526508
 30
0.0
 11
468.2787996086001954
 21
33.2845112587936711
 31
0.0
  0
LINE
  5
FDB2
  8
0
 10
468.2787996086001954
 20
33.2845112587936711
 30
0.0
 11
468.2502520282196201
 21
33.2827856231526482
 31
0.0
  0
LINE
  5
FDB3
  8
0
 10
468.2502520282196201
 20
33.2827856231526482
 30
0.0
 11
468.2058918859195842
 21
33.2839548855526601
 31
0.0
  0
LINE
  5
FDB4
  8
0
 10
468.2502520282196201
 20
33.2827856231526482
 30
0.0
 11
468.2502520282196201
 21
33.2852603335309993
 31
0.0
  0
LINE
  5
FDB5
  8
0
 10
468.2158138373195015
 20
33.2869910232526465
 30
0.0
 11
468.2652665698195733
 21
33.2879874579526529
 31
0.0
  0
LINE
  5
FDB6
  8
0
 10
468.2158138373195015
 20
33.2869910232526465
 30
0.0
 11
468.281752949519614
 21
33.2846897814526628
 31
0.0
  0
LINE
  5
FDB7
  8
0
 10
468.281752949519614
 20
33.2846897814526628
 30
0.0
 11
468.3103044978461753
 21
33.2864156569482219
 31
0.0
  0
LINE
  5
FDB8
  8
0
 10
468.281752949519614
 20
33.2846897814526628
 30
0.0
 11
468.281752949519614
 21
33.2872313129746473
 31
0.0
  0
LINE
  5
FDB9
  8
0
 10
468.2570711262986833
 20
33.2826482235816172
 30
0.0
 11
468.2856187062399158
 21
33.284373859153888
 31
0.0
  0
LINE
  5
FDBA
  8
0
 10
468.2856187062399158
 20
33.284373859153888
 30
0.0
 11
468.3230502136412952
 21
33.283817681992133
 31
0.0
  0
LINE
  5
FDBB
  8
0
 10
468.3230502136412952
 20
33.283817681992133
 30
0.0
 11
468.3082662565238934
 21
33.2818921204905678
 31
0.0
  0
LINE
  5
FDBC
  8
0
 10
468.3082662565238934
 20
33.2818921204905678
 30
0.0
 11
468.3082662565195733
 21
33.2840006537582482
 31
0.0
  0
LINE
  5
FDBD
  8
0
 10
468.2885720471196009
 20
33.284552381852663
 30
0.0
 11
468.3171235955196039
 21
33.286278257352663
 31
0.0
  0
LINE
  5
FDBE
  8
0
 10
468.3171235955196039
 20
33.286278257352663
 30
0.0
 11
468.3786465494196136
 21
33.2857029382526477
 31
0.0
  0
LINE
  5
FDBF
  8
0
 10
468.3786465494196136
 20
33.2857029382526477
 30
0.0
 11
468.3786465494196136
 21
33.2837100688526633
 31
0.0
  0
LINE
  5
FDC0
  8
0
 10
468.3786465494196136
 20
33.2815113362526631
 30
0.0
 11
468.3786465494196136
 21
33.2835039286526566
 31
0.0
  0
LINE
  5
FDC1
  8
0
 10
468.3786465494196136
 20
33.2835039286526566
 30
0.0
 11
468.3382616440196102
 21
33.2836754354526576
 31
0.0
  0
LINE
  5
FDC2
  8
0
 10
468.3382616440196102
 20
33.2836754354526576
 30
0.0
 11
468.323477686821775
 21
33.281749873931993
 31
0.0
  0
LINE
  5
FDC3
  8
0
 10
468.3261689246195942
 20
33.2895319044526588
 30
0.0
 11
468.3569930061195237
 21
33.2901529861526626
 31
0.0
  0
LINE
  5
FDC4
  8
0
 10
468.3569930061195237
 20
33.2901529861526626
 30
0.0
 11
468.3550245021194769
 21
33.290509960752658
 31
0.0
  0
LINE
  5
FDC5
  8
0
 10
468.3550245021194769
 20
33.290509960752658
 30
0.0
 11
468.3569929999845272
 21
33.2908669354762665
 31
0.0
  0
LINE
  5
FDC6
  8
0
 10
468.3550245021194769
 20
33.2909065991984079
 30
0.0
 11
468.3550245016277245
 21
33.2905099606634565
 31
0.0
  0
LINE
  5
FDC7
  8
0
 10
468.3786465494196136
 20
33.2883158651526614
 30
0.0
 11
468.3786715679000281
 21
33.2895575243494619
 31
0.0
  0
LINE
  5
FDC8
  8
0
 10
468.3786715679000281
 20
33.2895575243494619
 30
0.0
 11
468.360930014019516
 21
33.2899150030526627
 31
0.0
  0
LINE
  5
FDC9
  8
0
 10
468.360930014019516
 20
33.2899150030526627
 30
0.0
 11
468.3301059325194728
 21
33.2892939214526606
 31
0.0
  0
LINE
  5
FDCA
  8
0
 10
468.3786465494196136
 20
33.2881093967526596
 30
0.0
 11
468.3786465494196136
 21
33.2859091255526565
 31
0.0
  0
LINE
  5
FDCB
  8
0
 10
468.3786465494196136
 20
33.2927040562526599
 30
0.0
 11
468.3786465494196136
 21
33.2914618930526629
 31
0.0
  0
LINE
  5
FDCC
  8
0
 10
468.3786465494196136
 20
33.2914618930526629
 30
0.0
 11
468.360930014019516
 21
33.2911049184526604
 31
0.0
  0
LINE
  5
FDCD
  8
0
 10
468.360930014019516
 20
33.2911049184526604
 30
0.0
 11
468.3301059325194728
 21
33.2917260000526625
 31
0.0
  0
LINE
  5
FDCE
  8
0
 10
468.360930014019516
 20
33.2911049184526604
 30
0.0
 11
468.360930014019516
 21
33.2925730228526575
 31
0.0
  0
LINE
  5
FDCF
  8
0
 10
468.360930014019516
 20
33.2925730228526575
 30
0.0
 11
468.3786465494196136
 21
33.2927040562526599
 31
0.0
  0
LINE
  5
FDD0
  8
0
 10
468.3786465494196136
 20
33.2951107959526595
 30
0.0
 11
468.3786465494196136
 21
33.2929105247526635
 31
0.0
  0
LINE
  5
FDD1
  8
0
 10
468.3261689246195942
 20
33.2914850669354934
 30
0.0
 11
468.3261689246195942
 21
33.2895319044526588
 31
0.0
  0
LINE
  5
FDD2
  8
0
 10
468.3249824183088776
 20
33.2946509417420984
 30
0.0
 11
468.3249824519195954
 21
33.2918292342526598
 31
0.0
  0
LINE
  5
FDD3
  8
0
 10
468.3249824519195954
 20
33.2918292342526598
 30
0.0
 11
468.2703830754196019
 21
33.2929293698526578
 31
0.0
  0
LINE
  5
FDD4
  8
0
 10
468.2703830754196019
 20
33.2929293698526578
 30
0.0
 11
468.3249824183088776
 21
33.2946509417420984
 31
0.0
  0
LINE
  5
FDD5
  8
0
 10
468.3171235955196039
 20
33.2969160349526589
 30
0.0
 11
468.3171235955196039
 21
33.2947423800153288
 31
0.0
  0
LINE
  5
FDD6
  8
0
 10
468.3171235955196039
 20
33.2947423800153288
 30
0.0
 11
468.2885720471196009
 21
33.2964675396526602
 31
0.0
  0
LINE
  5
FDD7
  8
0
 10
468.2885720471196009
 20
33.2964675396526602
 30
0.0
 11
468.3171235955196039
 21
33.2969160349526589
 31
0.0
  0
ARC
  5
FDD8
  8
0
 10
468.3216250014277193
 20
33.2620606441181295
 30
0.0
 40
0.0295362935812131
 50
91.124322495048645
 51
105.5923209028996013
  0
ARC
  5
FDD9
  8
0
 10
468.3215276172197719
 20
33.3185013285336993
 30
0.0
 40
0.0290690366724093
 50
254.3499436959477009
 51
268.7521893795330925
  0
LINE
  5
FDDA
  8
0
 10
468.313685919519628
 20
33.2917395399338787
 30
0.0
 11
468.3136859195200259
 21
33.290509960752793
 31
0.0
  0
ARC
  5
FDDB
  8
0
 10
468.6636607270064019
 20
33.2904990578803108
 30
0.0
 40
0.0004149065500421
 50
327.474819177294421
 51
27.4559067639125089
  0
ARC
  5
FDDC
  8
0
 10
468.6618272486866772
 20
33.2885206318113518
 30
0.0
 40
0.0030911131609206
 50
44.5815400797980814
 51
76.4726191938265174
  0
ARC
  5
FDDD
  8
0
 10
468.6626813693505937
 20
33.291413469453353
 30
0.0
 40
0.0017479551124316
 50
293.1602810367051006
 51
315.4173118109030725
  0
ARC
  5
FDDE
  8
0
 10
468.6117727723307098
 20
32.9950395903512614
 30
0.0
 40
0.3008031629080926
 50
80.2815683146049679
 51
88.0209348262634563
  0
ARC
  5
FDDF
  8
0
 10
468.5363508973920261
 20
31.7637591119133091
 30
0.0
 40
1.5343056630221521
 50
86.7939162246217535
 51
87.5373182223450073
  0
ARC
  5
FDE0
  8
0
 10
468.4723384996755158
 20
30.2078111492384416
 30
0.0
 40
3.0915684748374441
 50
87.5911330162534654
 51
88.5507308471978263
  0
ARC
  5
FDE1
  8
0
 10
468.415806840338405
 20
28.0169817517443285
 30
0.0
 40
5.2831269533729444
 50
88.538763225924427
 51
89.1715601759016465
  0
ARC
  5
FDE2
  8
0
 10
468.3844895663567058
 20
25.84305628514932
 30
0.0
 40
7.4572779821991029
 50
89.1724644759271285
 51
90.0146457846967678
  0
ARC
  5
FDE3
  8
0
 10
468.6397320378163158
 20
33.3804583998013626
 30
0.0
 40
0.0936829043211996
 50
272.7889737623975179
 51
284.614044024529619
  0
ARC
  5
FDE4
  8
0
 10
468.5174811872660143
 20
35.0741741826411513
 30
0.0
 40
1.791780673245587
 50
271.5158262099587887
 51
274.05837216626702
  0
ARC
  5
FDE5
  8
0
 10
468.4067243571305994
 20
38.9028014497676011
 30
0.0
 40
5.6220059185850513
 50
270.3610868162537031
 51
271.612023528054408
  0
ARC
  5
FDE6
  8
0
 10
468.3829478820991881
 20
41.2013547362061274
 30
0.0
 40
7.9206688495419471
 50
269.9973631412103146
 51
270.4282898461904097
  0
LINE
  5
FDE7
  8
0
 10
468.4416893996690874
 20
33.2992688697503496
 30
0.0
 11
468.3865205419485278
 21
33.2995085067456387
 31
0.0
  0
LINE
  5
FDE8
  8
0
 10
468.3865205021994029
 20
33.2975159144011599
 30
0.0
 11
468.4269054041739082
 21
33.2973436027846503
 31
0.0
  0
LINE
  5
FDE9
  8
0
 10
468.4269054041739082
 20
33.2973436027846503
 30
0.0
 11
468.4416893997412785
 21
33.2992688697597501
 31
0.0
  0
ARC
  5
FDEA
  8
0
 10
468.4381389347784079
 20
33.2613951172823477
 30
0.0
 40
0.0301040355768459
 50
75.7493222597340718
 51
88.3647412310936033
  0
ARC
  5
FDEB
  8
0
 10
468.4387862071736777
 20
33.3119791510272023
 30
0.0
 40
0.0224493695095631
 50
270.5404684224595826
 51
287.5337876435469866
  0
ARC
  5
FDEC
  8
0
 10
471.4449272890714724
 20
-117.5225754438689023
 30
0.0
 40
150.8440125411916881
 50
91.141808957754364
 51
91.1535420196653661
  0
ARC
  5
FDED
  8
0
 10
468.3885323626079185
 20
34.5216784877752119
 30
0.0
 40
1.233570810374844
 50
269.9065461826314731
 51
272.3997902038842085
  0
ARC
  5
FDEE
  8
0
 10
468.393294590856101
 20
35.6396607374202574
 30
0.0
 40
2.3537614388633088
 50
269.8350977837623077
 51
272.4712385433326176
  0
LINE
  5
FDEF
  8
0
 10
468.4947837883586885
 20
33.288088315854182
 30
0.0
 11
468.4401844337917851
 21
33.2891895394469728
 31
0.0
  0
ARC
  5
FDF0
  8
0
 10
468.3880774857826736
 20
34.4171670223266375
 30
0.0
 40
1.1288523096215251
 50
269.9209647536449097
 51
272.3853716647777787
  0
ARC
  5
FDF1
  8
0
 10
468.3860280046372964
 20
38.163318686707882
 30
0.0
 40
4.879608721130035
 50
270.0057796169398898
 51
271.0634848656090981
  0
ARC
  5
FDF2
  8
0
 10
468.3996413734096791
 20
38.9000083254603624
 30
0.0
 40
5.6184094669652032
 50
270.5839307679577814
 51
271.1060705217403211
  0
ARC
  5
FDF3
  8
0
 10
468.3833420136804193
 20
40.4293305828361724
 30
0.0
 40
7.1478200315697631
 50
270.025475944774314
 51
270.4677056887471167
  0
ARC
  5
FDF4
  8
0
 10
468.3859164841232996
 20
30.1005751154006198
 30
0.0
 40
3.1945356591953731
 50
89.0266246675834765
 51
89.9891674583295753
  0
ARC
  5
FDF5
  8
0
 10
468.384535942001321
 20
29.8007137453671689
 30
0.0
 40
3.4946037227845639
 50
88.9587060619743255
 51
89.9674579808866639
  0
ARC
  5
FDF6
  8
0
 10
468.3852011231197139
 20
28.3009333746173191
 30
0.0
 40
4.9963765736851542
 50
89.2793388057161934
 51
89.9848701119179566
  0
ARC
  5
FDF7
  8
0
 10
468.3884832960491167
 20
32.0593411996435265
 30
0.0
 40
1.23357080835342
 50
87.5979263464877533
 51
90.0911703718269479
  0
ARC
  5
FDF8
  8
0
 10
468.396762828027704
 20
32.4599010767795022
 30
0.0
 40
0.8327050579543243
 50
87.3638947448674941
 51
89.4857233469764139
  0
ARC
  5
FDF9
  8
0
 10
468.4319120761398949
 20
34.590807148768107
 30
0.0
 40
1.3045948166419929
 50
271.0079916372839079
 51
272.9872901590453012
  0
ARC
  5
FDFA
  8
0
 10
468.4975320614095722
 20
33.2261490381876499
 30
0.0
 40
0.0665506534525061
 50
75.2525541488119529
 51
88.9764433216403177
  0
ARC
  5
FDFB
  8
0
 10
468.4975346252836061
 20
33.3548663067045368
 30
0.0
 40
0.0665506581333331
 50
271.0212740666732998
 51
284.7451622814865004
  0
ARC
  5
FDFC
  8
0
 10
468.5017778998870881
 20
33.2126346776281522
 30
0.0
 40
0.0801838397175662
 50
76.627880562686741
 51
88.5282147844452254
  0
ARC
  5
FDFD
  8
0
 10
468.5017810056565963
 20
33.3683804690562624
 30
0.0
 40
0.0801838152466516
 50
271.4695006205811865
 51
283.3698384948925195
  0
ARC
  5
FDFE
  8
0
 10
468.5506866252266036
 20
33.1795914931776679
 30
0.0
 40
0.114225694961254
 50
76.462137783595054
 51
88.6939560619345002
  0
ARC
  5
FDFF
  8
0
 10
468.5506910466793897
 20
33.4014217204370567
 30
0.0
 40
0.1142256866660643
 50
271.3037600446464808
 51
283.5355792146598901
  0
ARC
  5
FE00
  8
0
 10
468.5773745424784806
 20
33.2791436604324034
 30
0.0
 40
0.0129513035910334
 50
62.6128174634639407
 51
85.3793379936997781
  0
ARC
  5
FE01
  8
0
 10
468.5773749949426019
 20
33.3018684992130574
 30
0.0
 40
0.0129513049071771
 50
274.6183797310864065
 51
297.3848979168284927
  0
ARC
  5
FE02
  8
0
 10
468.5818430243892863
 20
32.84737173276568
 30
0.0
 40
0.4482691909532238
 50
83.895044070268554
 51
86.6738612636895738
  0
ARC
  5
FE03
  8
0
 10
468.632302234880683
 20
33.2748943853251475
 30
0.0
 40
0.0177203652433525
 50
62.708567229488672
 51
85.8248810533809063
  0
ARC
  5
FE04
  8
0
 10
468.6323280784014855
 20
33.3060260419912098
 30
0.0
 40
0.0176292352572296
 50
274.1122580307603016
 51
297.3497267912331949
  0
ARC
  5
FE05
  8
0
 10
468.5818606846559078
 20
33.7336402503594428
 30
0.0
 40
0.448269194161675
 50
273.3238552986741183
 51
276.10267247220321
  0
LINE
  5
FE06
  8
0
 10
468.6335923678468021
 20
33.2925677240387969
 30
0.0
 11
468.5784178784763867
 21
33.2920528708919008
 31
0.0
  0
LINE
  5
FE07
  8
0
 10
468.5833321861911145
 20
33.2920987280773488
 30
0.0
 11
468.5833321571902843
 21
33.2906433600655731
 31
0.0
  0
LINE
  5
FE08
  8
0
 10
468.5833321571902843
 20
33.2906433600655731
 30
0.0
 11
468.6404273178789026
 21
33.2906422223394713
 31
0.0
  0
LINE
  5
FE09
  8
0
 10
468.5784178168368044
 20
33.2889592458924426
 30
0.0
 11
468.633592285637917
 21
33.2884421938396287
 31
0.0
  0
LINE
  5
FE0A
  8
0
 10
468.633592285637917
 20
33.2884421938396287
 30
0.0
 11
468.6335923240043826
 21
33.2903675593392521
 31
0.0
  0
LINE
  5
FE0B
  8
0
 10
468.6404273124030055
 20
33.2903674231395286
 30
0.0
 11
468.5833321517143872
 21
33.2903685608656232
 31
0.0
  0
LINE
  5
FE0C
  8
0
 10
468.6295163846601781
 20
33.2879114037593524
 30
0.0
 11
468.5743419157524841
 21
33.2884284559122321
 31
0.0
  0
LINE
  5
FE0D
  8
0
 10
468.5743419157524841
 20
33.2884284559122321
 30
0.0
 11
468.5584053515244136
 21
33.2871224326773216
 31
0.0
  0
LINE
  5
FE0E
  8
0
 10
468.5584053515244136
 20
33.2871224326773216
 30
0.0
 11
468.6078511913614761
 21
33.2861251511778065
 31
0.0
  0
LINE
  5
FE0F
  8
0
 10
468.6078511913614761
 20
33.2861251511778065
 30
0.0
 11
468.6078512310015753
 21
33.2881144326774177
 31
0.0
  0
LINE
  5
FE10
  8
0
 10
468.6039141787200037
 20
33.2858872465299882
 30
0.0
 11
468.554468338982872
 21
33.2868845280294892
 31
0.0
  0
LINE
  5
FE11
  8
0
 10
468.554468338982872
 20
33.2868845280294892
 30
0.0
 11
468.5300199490740738
 21
33.2857501813084014
 31
0.0
  0
LINE
  5
FE12
  8
0
 10
468.5300199490740738
 20
33.2857501813084014
 30
0.0
 11
468.570410443077094
 21
33.2843397675532415
 31
0.0
  0
LINE
  5
FE13
  8
0
 10
468.570410443077094
 20
33.2843397675532415
 30
0.0
 11
468.6039141787200037
 21
33.2858872465299882
 31
0.0
  0
LINE
  5
FE14
  8
0
 10
468.5704104873788083
 20
33.2865629881437926
 30
0.0
 11
468.5703329482377058
 21
33.2843424736302467
 31
0.0
  0
LINE
  5
FE15
  8
0
 10
468.6078513659334135
 20
33.2948857925760819
 30
0.0
 11
468.5584054863901997
 21
33.2938904816759731
 31
0.0
  0
LINE
  5
FE16
  8
0
 10
468.5584054863901997
 20
33.2938904816759731
 30
0.0
 11
468.5743419985557807
 21
33.2925838233114035
 31
0.0
  0
LINE
  5
FE17
  8
0
 10
468.5743419985557807
 20
33.2925838233114035
 30
0.0
 11
468.6295164880261268
 21
33.2930986765583228
 31
0.0
  0
LINE
  5
FE18
  8
0
 10
468.5743419985557807
 20
33.2925838233114035
 30
0.0
 11
468.5743420309856901
 21
33.2942112731110669
 31
0.0
  0
LINE
  5
FE19
  8
0
 10
468.5704106888326805
 20
33.2966726683507872
 30
0.0
 11
468.5300201386517074
 21
33.2952638643065129
 31
0.0
  0
LINE
  5
FE1A
  8
0
 10
468.5300201386517074
 20
33.2952638643065129
 30
0.0
 11
468.5544684833332099
 21
33.2941285432280623
 31
0.0
  0
LINE
  5
FE1B
  8
0
 10
468.5544684833332099
 20
33.2941285432280623
 30
0.0
 11
468.6039143627763792
 21
33.2951238541281498
 31
0.0
  0
LINE
  5
FE1C
  8
0
 10
468.6039143627763792
 20
33.2951238541281498
 30
0.0
 11
468.5704106888326805
 21
33.2966726683507872
 31
0.0
  0
LINE
  5
FE1D
  8
0
 10
468.5544685229490938
 20
33.2961166128459567
 30
0.0
 11
468.5544684833332099
 21
33.2941285432280623
 31
0.0
  0
LINE
  5
FE1E
  8
0
 10
468.5532901478372878
 20
33.2937875135084766
 30
0.0
 11
468.5038373955912903
 21
33.2927920642453401
 31
0.0
  0
LINE
  5
FE1F
  8
0
 10
468.5203224280069776
 20
33.2931238963508065
 30
0.0
 11
468.5203223786028275
 21
33.290644615847711
 31
0.0
  0
LINE
  5
FE20
  8
0
 10
468.5203223786028275
 20
33.290644615847711
 30
0.0
 11
468.5774254753915216
 21
33.2906434777670626
 31
0.0
  0
LINE
  5
FE21
  8
0
 10
468.5774254699156245
 20
33.2903686785671198
 30
0.0
 11
468.5203223731268736
 21
33.29036981645136
 31
0.0
  0
LINE
  5
FE22
  8
0
 10
468.5532900797203979
 20
33.2903691595091686
 30
0.0
 11
468.5532900171047004
 21
33.2872268804488485
 31
0.0
  0
LINE
  5
FE23
  8
0
 10
468.5532900171047004
 20
33.2872268804488485
 30
0.0
 11
468.503837304559795
 21
33.2882230248459479
 31
0.0
  0
LINE
  5
FE24
  8
0
 10
468.5493531447804116
 20
33.2940255750605587
 30
0.0
 11
468.4999004503652031
 21
33.2959372990968419
 31
0.0
  0
LINE
  5
FE25
  8
0
 10
468.4999004503652031
 20
33.2959372990968419
 30
0.0
 11
468.4834140784499823
 21
33.2963281308182033
 31
0.0
  0
LINE
  5
FE26
  8
0
 10
468.4834140784499823
 20
33.2963281308182033
 30
0.0
 11
468.4548624957377001
 21
33.2946028242650911
 31
0.0
  0
LINE
  5
FE27
  8
0
 10
468.4548624957377001
 20
33.2946028242650911
 30
0.0
 11
468.4999003924344265
 21
33.2930301258609802
 31
0.0
  0
LINE
  5
FE28
  8
0
 10
468.4999003924344265
 20
33.2930301258609802
 30
0.0
 11
468.5493531447804116
 21
33.2940255750605587
 31
0.0
  0
LINE
  5
FE29
  8
0
 10
468.4999004503652031
 20
33.2959372990968419
 30
0.0
 11
468.4999003924344265
 21
33.2930301258609802
 31
0.0
  0
LINE
  5
FE2A
  8
0
 10
468.5188846065980215
 20
33.2956527109025515
 30
0.0
 11
468.4863674243060245
 21
33.2965065946519729
 31
0.0
  0
LINE
  5
FE2B
  8
0
 10
468.4863674243060245
 20
33.2965065946519729
 30
0.0
 11
468.5149150376875014
 21
33.2982316614040172
 31
0.0
  0
LINE
  5
FE2C
  8
0
 10
468.5149150376875014
 20
33.2982316614040172
 30
0.0
 11
468.5592751566790071
 21
33.297061514946833
 31
0.0
  0
LINE
  5
FE2D
  8
0
 10
468.5592751566790071
 20
33.297061514946833
 30
0.0
 11
468.5188846065980215
 21
33.2956527110029015
 31
0.0
  0
LINE
  5
FE2E
  8
0
 10
468.5188846065980215
 20
33.2956527110029015
 30
0.0
 11
468.5188846562907088
 21
33.2981464702020631
 31
0.0
  0
LINE
  5
FE2F
  8
0
 10
468.5080959426232994
 20
33.2983691968747593
 30
0.0
 11
468.4569008272036967
 21
33.2991263201440475
 31
0.0
  0
LINE
  5
FE30
  8
0
 10
468.4569008272036967
 20
33.2991263201440475
 30
0.0
 11
468.4421168315935802
 21
33.2972010531233877
 31
0.0
  0
LINE
  5
FE31
  8
0
 10
468.4421168315935802
 20
33.2972010531233877
 30
0.0
 11
468.4795483280460076
 21
33.2966441300504528
 31
0.0
  0
LINE
  5
FE32
  8
0
 10
468.4795483280460076
 20
33.2966441300504528
 30
0.0
 11
468.508095942623072
 21
33.2983691968747593
 31
0.0
  0
LINE
  5
FE33
  8
0
 10
468.4795483280460076
 20
33.2966441300504528
 30
0.0
 11
468.4795483708340953
 21
33.2987913861931375
 31
0.0
  0
LINE
  5
FE34
  8
0
 10
468.4987208879380205
 20
33.2926890725011404
 30
0.0
 11
468.4441214894267205
 21
33.2915900248943615
 31
0.0
  0
LINE
  5
FE35
  8
0
 10
468.4442723006130791
 20
33.2894379560306319
 30
0.0
 11
468.4987208010002178
 21
33.2883262204020127
 31
0.0
  0
LINE
  5
FE36
  8
0
 10
468.4987208010002178
 20
33.2883262204020127
 30
0.0
 11
468.4987208879027776
 21
33.2926873019385923
 31
0.0
  0
LINE
  5
FE37
  8
0
 10
468.5592748954351805
 20
33.2839513646494325
 30
0.0
 11
468.5188844015322047
 21
33.2853617784045923
 31
0.0
  0
LINE
  5
FE38
  8
0
 10
468.5188844015322047
 20
33.2853617784045923
 30
0.0
 11
468.4863671838559185
 21
33.2845091907107999
 31
0.0
  0
LINE
  5
FE39
  8
0
 10
468.4863671838559185
 20
33.2845091907107999
 30
0.0
 11
468.514914729844179
 21
33.2827829862070885
 31
0.0
  0
LINE
  5
FE3A
  8
0
 10
468.514914729844179
 20
33.2827829862070885
 30
0.0
 11
468.5592748954351805
 21
33.2839513646494325
 31
0.0
  0
LINE
  5
FE3B
  8
0
 10
468.514914729844179
 20
33.2827829862070885
 30
0.0
 11
468.5149147791574933
 21
33.2852576965849423
 31
0.0
  0
LINE
  5
FE3C
  8
0
 10
468.5493530045378066
 20
33.2869877000619567
 30
0.0
 11
468.4999002919033728
 21
33.2879851201984209
 31
0.0
  0
LINE
  5
FE3D
  8
0
 10
468.5493530045378066
 20
33.2869877000619567
 30
0.0
 11
468.4834138464943862
 21
33.2846877722205079
 31
0.0
  0
LINE
  5
FE3E
  8
0
 10
468.4834138464943862
 20
33.2846877722205079
 30
0.0
 11
468.4548623325645735
 21
33.2864142166578532
 31
0.0
  0
LINE
  5
FE3F
  8
0
 10
468.4834138464943862
 20
33.2846877722205079
 30
0.0
 11
468.4834138971390871
 21
33.2872293037420022
 31
0.0
  0
LINE
  5
FE40
  8
0
 10
468.508095629028503
 20
33.282645722519149
 30
0.0
 11
468.4795480834794148
 21
33.2843719269541225
 31
0.0
  0
LINE
  5
FE41
  8
0
 10
468.4795480834794148
 20
33.2843719269541225
 30
0.0
 11
468.4421165650027206
 21
33.2838164956840998
 31
0.0
  0
LINE
  5
FE42
  8
0
 10
468.4421165650027206
 20
33.2838164956840998
 30
0.0
 11
468.4569004837467219
 21
33.2818906395853773
 31
0.0
  0
LINE
  5
FE43
  8
0
 10
468.4569004837467219
 20
33.2818906395853773
 30
0.0
 11
468.4569005257674803
 21
33.2839991728526527
 31
0.0
  0
LINE
  5
FE44
  8
0
 10
468.4765947461577866
 20
33.2845505085035995
 30
0.0
 11
468.4480432321548165
 21
33.2862769529453715
 31
0.0
  0
LINE
  5
FE45
  8
0
 10
468.4480432321548165
 20
33.2862769529453715
 30
0.0
 11
468.3865202668026768
 21
33.2857028598035072
 31
0.0
  0
LINE
  5
FE46
  8
0
 10
468.3865202229832789
 20
33.2835038502039495
 30
0.0
 11
468.4269051317929211
 21
33.2836745522603934
 31
0.0
  0
LINE
  5
FE47
  8
0
 10
468.4269051317929211
 20
33.2836745522603934
 30
0.0
 11
468.4416890506174127
 21
33.2817486961425573
 31
0.0
  0
LINE
  5
FE48
  8
0
 10
468.438997967891396
 20
33.289530780289553
 30
0.0
 11
468.4081738987737253
 21
33.2901524762159369
 31
0.0
  0
LINE
  5
FE49
  8
0
 10
468.4081738987737253
 20
33.2901524762159369
 30
0.0
 11
468.4101424098868165
 21
33.2905094115898095
 31
0.0
  0
LINE
  5
FE4A
  8
0
 10
468.4101424098868165
 20
33.2905094115898095
 30
0.0
 11
468.4081739191356064
 21
33.2908664255392921
 31
0.0
  0
LINE
  5
FE4B
  8
0
 10
468.410142417790496
 20
33.2909060500354812
 30
0.0
 11
468.4101424103785121
 21
33.2905094115006079
 31
0.0
  0
LINE
  5
FE4C
  8
0
 10
468.3865205650178041
 20
33.2895574413944928
 30
0.0
 11
468.4042368861323098
 21
33.2899145715681186
 31
0.0
  0
LINE
  5
FE4D
  8
0
 10
468.4042368861323098
 20
33.2899145715681186
 30
0.0
 11
468.4350609552499805
 21
33.2892928757417224
 31
0.0
  0
LINE
  5
FE4E
  8
0
 10
468.3865203815603877
 20
33.2914618146023571
 30
0.0
 11
468.4042369098435756
 21
33.2911044869678818
 31
0.0
  0
LINE
  5
FE4F
  8
0
 10
468.4042369098435756
 20
33.2911044869678818
 30
0.0
 11
468.4350610037134857
 21
33.291724954341241
 31
0.0
  0
LINE
  5
FE50
  8
0
 10
468.4042369098435756
 20
33.2911044869678818
 30
0.0
 11
468.4042369390982117
 21
33.2925725913675876
 31
0.0
  0
LINE
  5
FE51
  8
0
 10
468.4042369390982117
 20
33.2925725913675876
 30
0.0
 11
468.3865204063129113
 21
33.2927039778021197
 31
0.0
  0
LINE
  5
FE52
  8
0
 10
468.438998006811687
 20
33.2914839427719897
 30
0.0
 11
468.438997967891396
 21
33.289530780289553
 31
0.0
  0
LINE
  5
FE53
  8
0
 10
468.4401845762080825
 20
33.29464979393466
 30
0.0
 11
468.4401844863696738
 21
33.2918280864464435
 31
0.0
  0
LINE
  5
FE54
  8
0
 10
468.4401844863696738
 20
33.2918280864464435
 30
0.0
 11
468.4947838847809862
 21
33.2929271340532225
 31
0.0
  0
LINE
  5
FE55
  8
0
 10
468.4947838847809862
 20
33.2929271340532225
 30
0.0
 11
468.4401845762080825
 21
33.29464979393466
 31
0.0
  0
LINE
  5
FE56
  8
0
 10
468.4480434441319971
 20
33.2969147305432713
 30
0.0
 11
468.4480434008178804
 21
33.2947410756063675
 31
0.0
  0
LINE
  5
FE57
  8
0
 10
468.4480434008178804
 20
33.2947410756063675
 30
0.0
 11
468.4765949835892798
 21
33.2964656663012306
 31
0.0
  0
LINE
  5
FE58
  8
0
 10
468.4765949835892798
 20
33.2964656663012306
 30
0.0
 11
468.4480434441319971
 21
33.2969147305432713
 31
0.0
  0
ARC
  5
FE59
  8
0
 10
468.4435413436669933
 20
33.2620594294144496
 30
0.0
 40
0.0295362935812131
 50
74.4065373733076001
 51
88.8745357811568937
  0
ARC
  5
FE5A
  8
0
 10
468.4436398525592722
 20
33.3185001118782509
 30
0.0
 40
0.0290690366724093
 50
271.2466688966736115
 51
285.6489145802573262
  0
LINE
  5
FE5B
  8
0
 10
468.4514810169800967
 20
33.2917381670235031
 30
0.0
 11
468.4514809924780252
 21
33.2905085878426519
 31
0.0
  0
LINE
  5
FE5C
  8
0
 10
468.3865205651625274
 20
33.281511336307787
 30
0.0
 11
468.3865205652002146
 21
33.2835039286921699
 31
0.0
  0
LINE
  5
FE5D
  8
0
 10
468.3865205651196106
 20
33.2857028625872076
 30
0.0
 11
468.3865205651196106
 21
33.283710076259041
 31
0.0
  0
LINE
  5
FE5E
  8
0
 10
468.3865202709113191
 20
33.2859090471034591
 30
0.0
 11
468.386520314755785
 21
33.2881093183030288
 31
0.0
  0
LINE
  5
FE5F
  8
0
 10
468.3865203188699979
 20
33.288315786702988
 30
0.0
 11
468.3865205651196106
 21
33.2895579544613298
 31
0.0
  0
LINE
  5
FE60
  8
0
 10
468.3865205651731003
 20
33.2995085852281107
 30
0.0
 11
468.3865205651630959
 21
33.2975159928241311
 31
0.0
  0
LINE
  5
FE61
  8
0
 10
468.3865205651196106
 20
33.2973097740835016
 30
0.0
 11
468.3865205651196106
 21
33.295316983252647
 31
0.0
  0
LINE
  5
FE62
  8
0
 10
468.3865205651196106
 20
33.2951107174806822
 30
0.0
 11
468.3865205651196106
 21
33.2929105247526635
 31
0.0
  0
LINE
  5
FE63
  8
0
 10
468.3865205651196106
 20
33.2927039766244022
 30
0.0
 11
468.3865205651196106
 21
33.2914618930526629
 31
0.0
  0
LINE
  5
FE64
  8
0
 10
468.4269054706196016
 20
33.2993330867104689
 30
0.0
 11
468.4269054041739082
 21
33.2973436027846503
 31
0.0
  0
ENDSEC
  0
EOF
