  0
SECTION
  2
HEADER
  9
$ACADVER
  1
AC1009
  9
$INSBASE
 10
3524.0551390934251685
 20
198.675130036739489
 30
0.0
  9
$EXTMIN
 10
3517.3481374830080313
 20
198.6602232410627948
 30
-0.0000000349181948
  9
$EXTMAX
 10
3525.936457473460905
 20
203.4555657750568969
 30
0.0000000814935746
  9
$LIMMIN
 10
0.0
 20
0.0
  9
$LIMMAX
 10
11.6929133858000007
 20
8.2677165353999982
  9
$ORTHOMODE
 70
     0
  9
$REGENMODE
 70
     1
  9
$FILLMODE
 70
     1
  9
$QTEXTMODE
 70
     0
  9
$MIRRTEXT
 70
     0
  9
$DRAGMODE
 70
     2
  9
$LTSCALE
 40
0.6431102362
  9
$OSMODE
 70
  4095
  9
$ATTMODE
 70
     1
  9
$TEXTSIZE
 40
0.2
  9
$TRACEWID
 40
0.05
  9
$TEXTSTYLE
  7
STANDARD
  9
$CLAYER
  8
0
  9
$CELTYPE
  6
BYLAYER
  9
$CECOLOR
 62
   256
  9
$DIMSCALE
 40
1.0
  9
$DIMASZ
 40
0.1875
  9
$DIMEXO
 40
0.0625
  9
$DIMDLI
 40
0.4443307087
  9
$DIMRND
 40
0.0
  9
$DIMDLE
 40
0.0
  9
$DIMEXE
 40
0.125
  9
$DIMTP
 40
0.01
  9
$DIMTM
 40
0.01
  9
$DIMTXT
 40
2.0
  9
$DIMCEN
 40
0.1052362205
  9
$DIMTSZ
 40
0.0
  9
$DIMTOL
 70
     1
  9
$DIMLIM
 70
     0
  9
$DIMTIH
 70
     1
  9
$DIMTOH
 70
     1
  9
$DIMSE1
 70
     0
  9
$DIMSE2
 70
     0
  9
$DIMTAD
 70
     0
  9
$DIMZIN
 70
     0
  9
$DIMBLK
  1

  9
$DIMASO
 70
     1
  9
$DIMSHO
 70
     1
  9
$DIMPOST
  1
\X
  9
$DIMAPOST
  1

  9
$DIMALT
 70
     1
  9
$DIMALTD
 70
     2
  9
$DIMALTF
 40
25.3999999999999986
  9
$DIMLFAC
 40
1.0
  9
$DIMTOFL
 70
     0
  9
$DIMTVP
 40
0.0
  9
$DIMTIX
 70
     0
  9
$DIMSOXD
 70
     0
  9
$DIMSAH
 70
     0
  9
$DIMBLK1
  1

  9
$DIMBLK2
  1

  9
$DIMSTYLE
  2
STANDARD
  9
$DIMCLRD
 70
     0
  9
$DIMCLRE
 70
     0
  9
$DIMCLRT
 70
     0
  9
$DIMTFAC
 40
1.0
  9
$DIMGAP
 40
0.09
  9
$LUNITS
 70
     2
  9
$LUPREC
 70
     4
  9
$SKETCHINC
 40
0.1
  9
$FILLETRAD
 40
0.0
  9
$AUNITS
 70
     0
  9
$AUPREC
 70
     0
  9
$MENU
  1
.
  9
$ELEVATION
 40
0.0
  9
$PELEVATION
 40
0.0
  9
$THICKNESS
 40
0.0
  9
$LIMCHECK
 70
     0
  9
$BLIPMODE
 70
     0
  9
$CHAMFERA
 40
0.0
  9
$CHAMFERB
 40
0.0
  9
$SKPOLY
 70
     0
  9
$TDCREATE
 40
2458060.468368056230247
  9
$TDUPDATE
 40
2459857.8227314818650484
  9
$TDINDWG
 40
0.6808751157
  9
$TDUSRTIMER
 40
0.6808751157
  9
$USRTIMER
 70
     1
  9
$ANGBASE
 50
0.0
  9
$ANGDIR
 70
     0
  9
$PDMODE
 70
     0
  9
$PDSIZE
 40
0.3125
  9
$PLINEWID
 40
0.0
  9
$COORDS
 70
     1
  9
$SPLFRAME
 70
     0
  9
$SPLINETYPE
 70
     6
  9
$SPLINESEGS
 70
     8
  9
$ATTDIA
 70
     1
  9
$ATTREQ
 70
     1
  9
$HANDLING
 70
     1
  9
$HANDSEED
  5
993C
  9
$SURFTAB1
 70
     6
  9
$SURFTAB2
 70
     6
  9
$SURFTYPE
 70
     6
  9
$SURFU
 70
     6
  9
$SURFV
 70
     6
  9
$UCSNAME
  2

  9
$UCSORG
 10
0.0
 20
0.0
 30
0.0
  9
$UCSXDIR
 10
1.0
 20
0.0
 30
0.0
  9
$UCSYDIR
 10
0.0
 20
1.0
 30
0.0
  9
$PUCSNAME
  2

  9
$PUCSORG
 10
0.0
 20
0.0
 30
0.0
  9
$PUCSXDIR
 10
1.0
 20
0.0
 30
0.0
  9
$PUCSYDIR
 10
0.0
 20
1.0
 30
0.0
  9
$USERI1
 70
     0
  9
$USERI2
 70
     0
  9
$USERI3
 70
     0
  9
$USERI4
 70
     0
  9
$USERI5
 70
     0
  9
$USERR1
 40
0.0
  9
$USERR2
 40
0.0
  9
$USERR3
 40
0.0
  9
$USERR4
 40
0.0
  9
$USERR5
 40
0.0
  9
$WORLDVIEW
 70
     1
  9
$SHADEDGE
 70
     3
  9
$SHADEDIF
 70
    70
  9
$TILEMODE
 70
     1
  9
$MAXACTVP
 70
    64
  9
$PLIMCHECK
 70
     0
  9
$PEXTMIN
 10
1.0000000000000000E+20
 20
1.0000000000000000E+20
 30
1.0000000000000000E+20
  9
$PEXTMAX
 10
-1.0000000000000000E+20
 20
-1.0000000000000000E+20
 30
-1.0000000000000000E+20
  9
$PLIMMIN
 10
0.0
 20
0.0
  9
$PLIMMAX
 10
12.0
 20
9.0
  9
$UNITMODE
 70
     0
  9
$VISRETAIN
 70
     1
  9
$PLINEGEN
 70
     0
  9
$PSLTSCALE
 70
     1
  0
ENDSEC
  0
SECTION
  2
TABLES
  0
TABLE
  2
VPORT
 70
     1
  0
VPORT
  2
*ACTIVE
 70
     0
 10
0.0
 20
0.0
 11
1.0
 21
1.0
 12
17.7586304860469717
 22
2.2636454749491
 13
0.0
 23
0.0
 14
1.0
 24
1.0
 15
0.0
 25
0.0
 16
0.0
 26
0.0
 36
32.9864434523030923
 17
3503.8836669921879547
 27
198.7942490331107024
 37
0.0
 40
4.8327574302281544
 41
2.1471354166666661
 42
50.0
 43
0.0
 44
0.0
 50
0.0
 51
0.0
 71
     0
 72
   100
 73
     1
 74
     1
 75
     0
 76
     0
 77
     0
 78
     0
  0
ENDTAB
  0
TABLE
  2
LTYPE
 70
     2
  0
LTYPE
  2
CONTINUOUS
 70
     0
  3
Solid line
 72
    65
 73
     0
 40
0.0
  0
LTYPE
  2
PHANTOM2
 70
     0
  3
___ _ _ ___ _ _ ___ _ _ ___ _ _
 72
    65
 73
     6
 40
1.25
 49
0.625
 49
-0.125
 49
0.125
 49
-0.125
 49
0.125
 49
-0.125
  0
ENDTAB
  0
TABLE
  2
LAYER
 70
     2
  0
LAYER
  2
0
 70
     0
 62
   255
  6
CONTINUOUS
  0
LAYER
  2
DEFPOINTS
 70
     0
 62
     7
  6
CONTINUOUS
  0
ENDTAB
  0
TABLE
  2
STYLE
 70
     1
  0
STYLE
  2
STANDARD
 70
     0
 40
0.0
 41
0.8
 50
0.0
 71
     0
 42
0.2
  3
txt
  4

  0
ENDTAB
  0
TABLE
  2
VIEW
 70
     0
  0
ENDTAB
  0
TABLE
  2
UCS
 70
     0
  0
ENDTAB
  0
TABLE
  2
APPID
 70
     9
  0
APPID
  2
ACAD
 70
     0
  0
APPID
  2
ACAD_MLEADERVER
 70
     0
  0
APPID
  2
ACAD_EXEMPT_FROM_CAD_STANDARDS
 70
     0
  0
APPID
  2
ACAD_NAV_VCDISPLAY
 70
     0
  0
APPID
  2
ACAECLAYERSTANDARD
 70
     0
  0
APPID
  2
ACCMTRANSPARENCY
 70
     0
  0
APPID
  2
ACAD_DSTYLE_DIMJAG
 70
     0
  0
APPID
  2
ACAD_DSTYLE_DIMTALN
 70
     0
  0
APPID
  2
ACDBATTR
 70
     0
  0
ENDTAB
  0
TABLE
  2
DIMSTYLE
 70
     1
  0
DIMSTYLE
  2
STANDARD
 70
     0
  3

  4

  5

  6

  7

 40
1.0
 41
0.1875
 42
0.0625
 43
0.38
 44
0.125
 45
0.0
 46
0.0
 47
0.01
 48
0.01
140
0.15625
141
0.09
142
0.0
143
25.3999999999999986
144
1.0
145
0.0
146
1.0
147
0.09
 71
     1
 72
     0
 73
     1
 74
     1
 75
     0
 76
     0
 77
     0
 78
     4
170
     0
171
     2
172
     0
173
     0
174
     0
175
     0
176
     0
177
     0
178
     0
  0
ENDTAB
  0
ENDSEC
  0
SECTION
  2
BLOCKS
  0
BLOCK
  8
0
  2
$MODEL_SPACE
 70
     0
 10
0.0
 20
0.0
 30
0.0
  3
$MODEL_SPACE
  1

  0
ENDBLK
  5
21
  8
0
  0
BLOCK
 67
     1
  8
0
  2
$PAPER_SPACE
 70
     0
 10
0.0
 20
0.0
 30
0.0
  3
$PAPER_SPACE
  1

  0
ENDBLK
  5
1D
 67
     1
  8
0
  0
BLOCK
  8
0
  2
_FILLED
 70
     0
 10
0.0
 20
0.0
 30
0.0
  3
_FILLED
  1

  0
SOLID
  5
9850
  8
0
  6
BYBLOCK
 62
     0
 10
0.0
 20
0.0
 30
0.0
 11
-1.0
 21
0.1666666667
 31
0.0
 12
-1.0
 22
-0.1666666667
 32
0.0
 13
-1.0
 23
-0.1666666667
 33
0.0
  0
ENDBLK
  5
9851
  8
0
  6
BYBLOCK
 62
     0
  0
ENDSEC
  0
SECTION
  2
ENTITIES
  0
ATTDEF
  5
3930
  8
DEFPOINTS
 10
3524.0502467823312145
 20
198.6730804248095126
 30
0.0
 40
0.001
  1
K-73050W-ND
  3

  2
MODELNUMBER
 70
     0
1001
ACDBATTR
1070
     0
1070
     1
  0
ATTDEF
  5
3931
  8
DEFPOINTS
 10
3524.0502467823312145
 20
198.6714137581429043
 30
0.0
 40
0.001
  1
COMPOSED
  3

  2
TRADENAME
 70
     0
1001
ACDBATTR
1070
     0
1070
     1
  0
ATTDEF
  5
3932
  8
DEFPOINTS
 10
3524.0502467823312145
 20
198.6697470914762107
 30
0.0
 40
0.001
  1
BATHROOM SINK FAUCET
  3

  2
PRODUCT
 70
     0
1001
ACDBATTR
1070
     0
1070
     1
  0
LINE
  5
9888
  8
0
 10
3525.0590717762747772
 20
198.675130036739489
 30
0.0
 11
3523.0512064105751051
 21
198.675130036739489
 31
0.0
  0
LINE
  5
9889
  8
0
 10
3523.0512064105751051
 20
198.675130036739489
 30
0.0
 11
3523.0512064105751051
 21
198.8129253123395017
 31
0.0
  0
ARC
  5
988A
  8
0
 10
3523.070891449976898
 20
198.8129253123395017
 30
0.0
 40
0.0196850394014305
 50
90.0006904045749536
 51
180.0000000000032117
  0
LINE
  5
988B
  8
0
 10
3523.0708912127752228
 20
198.832610351739504
 30
0.0
 11
3525.0393867368320571
 21
198.8326340717813991
 31
0.0
  0
ARC
  5
988C
  8
0
 10
3525.0393869741019444
 20
198.8129492550486077
 30
0.0
 40
0.019684816734298
 50
359.9303109326688173
 51
90.0006906102539546
  0
ARC
  5
988D
  8
0
 10
3524.7129049756031236
 20
198.8634559366032022
 30
0.0
 40
0.0308368702327628
 50
271.5360708869081918
 51
358.8036210448790939
  0
ARC
  5
988E
  8
0
 10
3524.7129323057079091
 20
202.6095202214023061
 30
0.0
 40
0.0308100085351846
 50
358.7621003762287728
 51
88.4109913677833958
  0
ARC
  5
988F
  8
0
 10
3391.0101794457200413
 20
-3522.0968005471509059
 30
0.0
 40
3727.1360667021490372
 50
87.9441865651315169
 51
88.0558134347277957
  0
ARC
  5
9890
  8
0
 10
3517.4578826163178746
 20
202.9251903078113912
 30
0.0
 40
0.0314709917865247
 50
178.954989456557314
 51
268.0186721938276264
  0
ARC
  5
9891
  8
0
 10
6634.955160507981418
 20
94.4264518046382477
 30
0.0
 40
3119.4162223537891805
 50
177.9977532603570864
 51
178.0067402455293859
  0
ARC
  5
9892
  8
0
 10
3517.475075636974907
 20
203.4129493994896052
 30
0.0
 40
0.0316535849743578
 50
90.2612802540701153
 51
176.7298326552756862
  0
LINE
  5
9893
  8
0
 10
3517.4749312907752028
 20
203.4446026553395086
 30
0.0
 11
3524.7128505268278786
 21
203.1918681600016043
 31
0.0
  0
ARC
  5
9894
  8
0
 10
3524.7117450829928202
 20
203.1603773204643062
 30
0.0
 40
0.0315102418579365
 50
0.0729883904907322
 51
87.9323841761162015
  0
LINE
  5
9895
  8
0
 10
3524.7432552992831916
 20
203.1604174609639983
 30
0.0
 11
3524.7437247240832221
 21
202.6719174734639921
 31
0.0
  0
ARC
  5
9896
  8
0
 10
3524.7121993161958926
 20
202.67190181899241
 30
0.0
 40
0.0315254117736584
 50
269.9463442396794903
 51
0.0284511807754756
  0
ARC
  5
9897
  8
0
 10
3523.3993822689390072
 20
202.6540720597772918
 30
0.0
 40
0.0332310719366544
 50
91.2880117593472988
 51
178.8078095721436114
  0
ARC
  5
9898
  8
0
 10
3523.3976544535748872
 20
198.8641064146395081
 30
0.0
 40
0.0314960630000041
 50
179.9999999999984084
 51
269.0946933854946792
  0
CIRCLE
  5
9899
  8
0
 10
3524.0551347684749999
 20
201.5885158326395015
 30
0.0
 40
0.5525436999999993
  0
CIRCLE
  5
989A
  8
0
 10
3524.0551347684749999
 20
201.5885158326395015
 30
0.0
 40
0.3195317864000007
  0
LINE
  5
989B
  8
0
 10
3525.0590717762747772
 20
198.675130036739489
 30
0.0
 11
3525.0590717762747772
 21
198.8129253123395017
 31
0.0
  0
LINE
  5
989D
  8
0
 10
3524.7437351235530514
 20
202.6088546098837071
 30
0.0
 11
3524.7437351235530514
 21
200.5579856189091004
 31
0.0
  0
LINE
  5
989E
  8
0
 10
3524.7437351235530514
 20
199.822716301545114
 30
0.0
 11
3524.7437351235530514
 21
198.8628120863569961
 31
0.0
  0
LINE
  5
989F
  8
0
 10
3523.3661583905750376
 20
202.6547634703395033
 30
0.0
 11
3523.3661583905750376
 21
198.8641064146395081
 31
0.0
  0
LINE
  5
98A0
  8
0
 10
3524.7411676592710137
 20
199.8662372776458938
 30
0.0
 11
3524.989120120817006
 21
200.5474810669456076
 31
0.0
  0
ARC
  5
98A1
  8
0
 10
3525.2573394712749177
 20
200.4498572071395017
 30
0.0
 40
0.2854330708999999
 50
90.0
 51
160.0000000027723104
  0
LINE
  5
98A2
  8
0
 10
3525.2573394712749177
 20
200.7352902780395141
 30
0.0
 11
3525.7100953767749161
 21
200.7352902780395141
 31
0.0
  0
ARC
  5
98A3
  8
0
 10
3525.7100953767749161
 20
200.754975317439488
 30
0.0
 40
0.0196850394000006
 50
270.0
 51
359.9999999999968168
  0
LINE
  5
98A4
  8
0
 10
3525.72978041617489
 20
200.754975317439488
 30
0.0
 11
3525.72978041617489
 21
200.9321406717394893
 31
0.0
  0
ARC
  5
98A5
  8
0
 10
3525.7100953767749161
 20
200.9321406717394893
 30
0.0
 40
0.0196850393999988
 50
359.9999999999984084
 51
90.0000000000260485
  0
LINE
  5
98A6
  8
0
 10
3525.7100953767749161
 20
200.9518257111394917
 30
0.0
 11
3525.2573394711639594
 21
200.9518257111392927
 31
0.0
  0
ARC
  5
98A7
  8
0
 10
3525.2573394711648689
 20
200.4498572074492131
 30
0.0
 40
0.5019685036901116
 50
90.0000000000260485
 51
160.0000000241184068
  0
LINE
  5
98A8
  8
0
 10
3524.7856433723068221
 20
200.621540546827589
 30
0.0
 11
3524.7402892634040654
 21
200.4981605790810875
 31
0.0
  0
ARC
  5
98A9
  8
0
 10
3530.6053495100950386
 20
200.1903509602271072
 30
0.0
 40
5.8731319122573638
 50
176.4111662015911861
 51
183.5888337984087002
  0
CIRCLE
  5
98AA
  8
DEFPOINTS
 10
3524.0551347684749999
 20
201.5885158326987892
 30
0.0
 40
0.6692566808292995
  0
LINE
  5
98AB
  8
0
 10
3517.6259926962479767
 20
202.8879907703754952
 30
0.0
 11
3517.6201320372251757
 21
202.7201634532395076
 31
0.0
  0
LINE
  5
98AC
  8
0
 10
3517.6201320372251757
 20
202.7201634532395076
 30
0.0
 11
3517.6394084465250671
 21
202.7081182158395052
 31
0.0
  0
LINE
  5
98AD
  8
0
 10
3517.6394084465250671
 20
202.7081182158395052
 30
0.0
 11
3518.54436864422496
 21
202.6765163093394904
 31
0.0
  0
LINE
  5
98AE
  8
0
 10
3518.54436864422496
 20
202.6765163093394904
 30
0.0
 11
3518.5644383304252187
 21
202.6871875508394965
 31
0.0
  0
LINE
  5
98AF
  8
0
 10
3518.5644383304252187
 20
202.6871875508394965
 30
0.0
 11
3518.5703254345321511
 21
202.8557721532430094
 31
0.0
  0
LINE
  5
98B0
  8
0
 10
3517.9574135633251899
 20
202.7083853228394901
 30
0.0
 11
3517.9611389127248913
 21
202.8150653700394912
 31
0.0
  0
LINE
  5
98B1
  8
0
 10
3517.9611389127248913
 20
202.8150653700394912
 30
0.0
 11
3518.2308821536271353
 21
202.8056457286060095
 31
0.0
  0
LINE
  5
98B2
  8
0
 10
3518.2308821536271353
 20
202.8056457286060095
 30
0.0
 11
3518.2271568043252046
 21
202.698965681239514
 31
0.0
  0
ARC
  5
98B3
  8
0
 10
3518.08020957992494
 20
202.3578754504395079
 30
0.0
 40
0.4724409448587643
 50
71.4021579111755784
 51
104.5978421293203979
  0
LINE
  5
98B4
  8
0
 10
3517.9574135633251899
 20
202.7083853228394901
 30
0.0
 11
3517.6201320372251757
 21
202.7201634532395076
 31
0.0
  0
LINE
  5
98B5
  8
0
 10
3518.2271568043252046
 20
202.698965681239514
 30
0.0
 11
3518.5644383304252187
 21
202.6871875508394965
 31
0.0
  0
ARC
  5
98B6
  8
0
 10
3518.1226198688759723
 20
203.5202607345306092
 30
0.0
 40
0.8285136130296015
 50
258.4980763603595051
 51
267.8742906174809946
  0
ARC
  5
98B7
  8
0
 10
3518.118725132092095
 20
203.5242133590664082
 30
0.0
 40
0.8323407699385306
 50
268.3423563162335199
 51
277.4853781571546278
  0
ENDSEC
  0
EOF
