  0
SECTION
  2
HEADER
  9
$ACADVER
  1
AC1009
  9
$INSBASE
 10
3491.7135677772098461
 20
195.7278143284279963
 30
0.0
  9
$EXTMIN
 10
3490.7096276761299123
 20
195.7226431827882038
 30
0.0
  9
$EXTMAX
 10
3494.6112024794101671
 20
200.4974263912565959
 30
0.0
  9
$LIMMIN
 10
0.0
 20
0.0
  9
$LIMMAX
 10
11.6929133858000007
 20
8.2677165353999982
  9
$ORTHOMODE
 70
     0
  9
$REGENMODE
 70
     1
  9
$FILLMODE
 70
     1
  9
$QTEXTMODE
 70
     0
  9
$MIRRTEXT
 70
     0
  9
$DRAGMODE
 70
     2
  9
$LTSCALE
 40
0.6431102362
  9
$OSMODE
 70
  3839
  9
$ATTMODE
 70
     1
  9
$TEXTSIZE
 40
0.2
  9
$TRACEWID
 40
0.05
  9
$TEXTSTYLE
  7
STANDARD
  9
$CLAYER
  8
0
  9
$CELTYPE
  6
BYLAYER
  9
$CECOLOR
 62
   256
  9
$DIMSCALE
 40
1.0
  9
$DIMASZ
 40
0.1875
  9
$DIMEXO
 40
0.0625
  9
$DIMDLI
 40
0.4443307087
  9
$DIMRND
 40
0.0
  9
$DIMDLE
 40
0.0
  9
$DIMEXE
 40
0.125
  9
$DIMTP
 40
0.01
  9
$DIMTM
 40
0.01
  9
$DIMTXT
 40
2.0
  9
$DIMCEN
 40
0.1052362205
  9
$DIMTSZ
 40
0.0
  9
$DIMTOL
 70
     1
  9
$DIMLIM
 70
     0
  9
$DIMTIH
 70
     1
  9
$DIMTOH
 70
     1
  9
$DIMSE1
 70
     0
  9
$DIMSE2
 70
     0
  9
$DIMTAD
 70
     0
  9
$DIMZIN
 70
     0
  9
$DIMBLK
  1

  9
$DIMASO
 70
     1
  9
$DIMSHO
 70
     1
  9
$DIMPOST
  1
\X
  9
$DIMAPOST
  1

  9
$DIMALT
 70
     1
  9
$DIMALTD
 70
     2
  9
$DIMALTF
 40
25.3999999999999986
  9
$DIMLFAC
 40
1.0
  9
$DIMTOFL
 70
     0
  9
$DIMTVP
 40
0.0
  9
$DIMTIX
 70
     0
  9
$DIMSOXD
 70
     0
  9
$DIMSAH
 70
     0
  9
$DIMBLK1
  1

  9
$DIMBLK2
  1

  9
$DIMSTYLE
  2
STANDARD
  9
$DIMCLRD
 70
     0
  9
$DIMCLRE
 70
     0
  9
$DIMCLRT
 70
     0
  9
$DIMTFAC
 40
1.0
  9
$DIMGAP
 40
0.09
  9
$LUNITS
 70
     2
  9
$LUPREC
 70
     4
  9
$SKETCHINC
 40
0.1
  9
$FILLETRAD
 40
0.0
  9
$AUNITS
 70
     0
  9
$AUPREC
 70
     0
  9
$MENU
  1
.
  9
$ELEVATION
 40
0.0
  9
$PELEVATION
 40
0.0
  9
$THICKNESS
 40
0.0
  9
$LIMCHECK
 70
     0
  9
$BLIPMODE
 70
     0
  9
$CHAMFERA
 40
0.0
  9
$CHAMFERB
 40
0.0
  9
$SKPOLY
 70
     0
  9
$TDCREATE
 40
2458060.468368056230247
  9
$TDUPDATE
 40
2459029.6472453698515892
  9
$TDINDWG
 40
0.6821482639000001
  9
$TDUSRTIMER
 40
0.6821482639000001
  9
$USRTIMER
 70
     1
  9
$ANGBASE
 50
0.0
  9
$ANGDIR
 70
     0
  9
$PDMODE
 70
     0
  9
$PDSIZE
 40
0.3125
  9
$PLINEWID
 40
0.0
  9
$COORDS
 70
     1
  9
$SPLFRAME
 70
     0
  9
$SPLINETYPE
 70
     6
  9
$SPLINESEGS
 70
     8
  9
$ATTDIA
 70
     1
  9
$ATTREQ
 70
     1
  9
$HANDLING
 70
     1
  9
$HANDSEED
  5
9C73
  9
$SURFTAB1
 70
     6
  9
$SURFTAB2
 70
     6
  9
$SURFTYPE
 70
     6
  9
$SURFU
 70
     6
  9
$SURFV
 70
     6
  9
$UCSNAME
  2

  9
$UCSORG
 10
0.0
 20
0.0
 30
0.0
  9
$UCSXDIR
 10
1.0
 20
0.0
 30
0.0
  9
$UCSYDIR
 10
0.0
 20
1.0
 30
0.0
  9
$PUCSNAME
  2

  9
$PUCSORG
 10
0.0
 20
0.0
 30
0.0
  9
$PUCSXDIR
 10
1.0
 20
0.0
 30
0.0
  9
$PUCSYDIR
 10
0.0
 20
1.0
 30
0.0
  9
$USERI1
 70
     0
  9
$USERI2
 70
     0
  9
$USERI3
 70
     0
  9
$USERI4
 70
     0
  9
$USERI5
 70
     0
  9
$USERR1
 40
0.0
  9
$USERR2
 40
0.0
  9
$USERR3
 40
0.0
  9
$USERR4
 40
0.0
  9
$USERR5
 40
0.0
  9
$WORLDVIEW
 70
     1
  9
$SHADEDGE
 70
     3
  9
$SHADEDIF
 70
    70
  9
$TILEMODE
 70
     1
  9
$MAXACTVP
 70
    64
  9
$PLIMCHECK
 70
     0
  9
$PEXTMIN
 10
1.0000000000000000E+20
 20
1.0000000000000000E+20
 30
1.0000000000000000E+20
  9
$PEXTMAX
 10
-1.0000000000000000E+20
 20
-1.0000000000000000E+20
 30
-1.0000000000000000E+20
  9
$PLIMMIN
 10
0.0
 20
0.0
  9
$PLIMMAX
 10
12.0
 20
9.0
  9
$UNITMODE
 70
     0
  9
$VISRETAIN
 70
     1
  9
$PLINEGEN
 70
     0
  9
$PSLTSCALE
 70
     1
  0
ENDSEC
  0
SECTION
  2
TABLES
  0
TABLE
  2
VPORT
 70
     1
  0
VPORT
  2
*ACTIVE
 70
     0
 10
0.0
 20
0.0
 11
1.0
 21
1.0
 12
0.0
 22
0.0
 13
0.0
 23
0.0
 14
1.0
 24
1.0
 15
0.0
 25
0.0
 16
0.0
 26
0.0
 36
25.5978723590485586
 17
3492.660400390625
 27
198.109963559167511
 37
0.0
 40
6.1658624903256856
 41
3.314341846758349
 42
50.0
 43
0.0
 44
0.0
 50
0.0
 51
0.0
 71
     0
 72
   100
 73
     1
 74
     1
 75
     0
 76
     0
 77
     0
 78
     0
  0
ENDTAB
  0
TABLE
  2
LTYPE
 70
     2
  0
LTYPE
  2
CONTINUOUS
 70
     0
  3
Solid line
 72
    65
 73
     0
 40
0.0
  0
LTYPE
  2
PHANTOM2
 70
     0
  3
___ _ _ ___ _ _ ___ _ _ ___ _ _
 72
    65
 73
     6
 40
1.25
 49
0.625
 49
-0.125
 49
0.125
 49
-0.125
 49
0.125
 49
-0.125
  0
ENDTAB
  0
TABLE
  2
LAYER
 70
     2
  0
LAYER
  2
0
 70
     0
 62
   255
  6
CONTINUOUS
  0
LAYER
  2
DEFPOINTS
 70
     0
 62
     7
  6
CONTINUOUS
  0
ENDTAB
  0
TABLE
  2
STYLE
 70
     1
  0
STYLE
  2
STANDARD
 70
     0
 40
0.0
 41
0.8
 50
0.0
 71
     0
 42
0.2
  3
txt
  4

  0
ENDTAB
  0
TABLE
  2
VIEW
 70
     0
  0
ENDTAB
  0
TABLE
  2
UCS
 70
     0
  0
ENDTAB
  0
TABLE
  2
APPID
 70
     9
  0
APPID
  2
ACAD
 70
     0
  0
APPID
  2
ACAD_MLEADERVER
 70
     0
  0
APPID
  2
ACAD_EXEMPT_FROM_CAD_STANDARDS
 70
     0
  0
APPID
  2
ACAD_NAV_VCDISPLAY
 70
     0
  0
APPID
  2
ACAECLAYERSTANDARD
 70
     0
  0
APPID
  2
ACCMTRANSPARENCY
 70
     0
  0
APPID
  2
ACAD_DSTYLE_DIMJAG
 70
     0
  0
APPID
  2
ACAD_DSTYLE_DIMTALN
 70
     0
  0
APPID
  2
ACDBATTR
 70
     0
  0
ENDTAB
  0
TABLE
  2
DIMSTYLE
 70
     1
  0
DIMSTYLE
  2
STANDARD
 70
     0
  3

  4

  5

  6

  7

 40
1.0
 41
0.1875
 42
0.0625
 43
0.38
 44
0.125
 45
0.0
 46
0.0
 47
0.01
 48
0.01
140
0.15625
141
0.09
142
0.0
143
25.3999999999999986
144
1.0
145
0.0
146
1.0
147
0.09
 71
     1
 72
     0
 73
     1
 74
     1
 75
     0
 76
     0
 77
     0
 78
     4
170
     0
171
     2
172
     0
173
     0
174
     0
175
     0
176
     0
177
     0
178
     0
  0
ENDTAB
  0
ENDSEC
  0
SECTION
  2
BLOCKS
  0
BLOCK
  8
0
  2
$MODEL_SPACE
 70
     0
 10
0.0
 20
0.0
 30
0.0
  3
$MODEL_SPACE
  1

  0
ENDBLK
  5
21
  8
0
  0
BLOCK
 67
     1
  8
0
  2
$PAPER_SPACE
 70
     0
 10
0.0
 20
0.0
 30
0.0
  3
$PAPER_SPACE
  1

  0
ENDBLK
  5
1D
 67
     1
  8
0
  0
BLOCK
  8
0
  2
_FILLED
 70
     0
 10
0.0
 20
0.0
 30
0.0
  3
_FILLED
  1

  0
SOLID
  5
6F59
  8
0
  6
BYBLOCK
 62
     0
 10
0.0
 20
0.0
 30
0.0
 11
-1.0
 21
0.1666666667
 31
0.0
 12
-1.0
 22
-0.1666666667
 32
0.0
 13
-1.0
 23
-0.1666666667
 33
0.0
  0
ENDBLK
  5
6F5A
  8
0
  6
BYBLOCK
 62
     0
  0
ENDSEC
  0
SECTION
  2
ENTITIES
  0
ATTDEF
  5
3930
  8
DEFPOINTS
 10
3491.7138499511870577
 20
195.7259765161215057
 30
0.0
 40
0.001
  1
K-73050T-7
  3

  2
MODELNUMBER
 70
     0
1001
ACDBATTR
1070
     0
1070
     1
  0
ATTDEF
  5
3931
  8
DEFPOINTS
 10
3491.7138499511870577
 20
195.7243098494548974
 30
0.0
 40
0.001
  1
COMPOSED
  3

  2
TRADENAME
 70
     0
1001
ACDBATTR
1070
     0
1070
     1
  0
ATTDEF
  5
3932
  8
DEFPOINTS
 10
3491.7138499511870577
 20
195.7226431827882038
 30
0.0
 40
0.001
  1
BATHROOM SINK FAUCET
  3

  2
PRODUCT
 70
     0
1001
ACDBATTR
1070
     0
1070
     1
  0
LINE
  5
9A4C
  8
0
 10
3492.7175047851101226
 20
195.7278143284279963
 30
0.0
 11
3490.7096276761299123
 21
195.7278143284279963
 31
0.0
  0
LINE
  5
9A4D
  8
0
 10
3490.7096276761299123
 20
195.7278143284279963
 30
0.0
 11
3490.7096276761299123
 21
195.865609604028009
 31
0.0
  0
ARC
  5
9A4E
  8
0
 10
3490.7293179963348848
 20
195.8656043226363863
 30
0.0
 40
0.0196903209130639
 50
90.0063656465076036
 51
179.9846319696713124
  0
LINE
  5
9A4F
  8
0
 10
3490.7293158087109077
 20
195.8852946434280113
 30
0.0
 11
3492.6978197457110582
 21
195.8852946434278124
 31
0.0
  0
ARC
  5
9A50
  8
0
 10
3492.6978197457110582
 20
195.8656096040278101
 30
0.0
 40
0.0196850394000023
 50
0.0000000005276159
 51
90.0
  0
LINE
  5
9A51
  8
0
 10
3492.7175047851101226
 20
195.865609604028009
 30
0.0
 11
3492.7175047851119416
 21
195.7278143284279963
 31
0.0
  0
ARC
  5
9A52
  8
0
 10
3491.0560874622601659
 20
195.916790706327987
 30
0.0
 40
0.0314960629999996
 50
180.0
 51
269.9999995764222263
  0
ARC
  5
9A53
  8
0
 10
3491.0600365989730562
 20
199.6832988448871049
 30
0.0
 40
0.0354682339992342
 50
96.3927347612603853
 51
178.0786195909041965
  0
ARC
  5
9A54
  8
0
 10
3491.7135780415610498
 20
189.1308342472642892
 30
0.0
 40
10.6081075331575008
 50
86.4466406724904033
 51
93.5534704192872937
  0
ARC
  5
9A55
  8
0
 10
3492.3671462588108625
 20
199.6833419012181992
 30
0.0
 40
0.0354214706945353
 50
1.8504271626537829
 51
83.6757798096977155
  0
LINE
  5
9A56
  8
0
 10
3492.4025492582009065
 20
199.6844856758278866
 30
0.0
 11
3492.4025492582009065
 21
199.4973659292280104
 31
0.0
  0
LINE
  5
9A57
  8
0
 10
3492.4025492582009065
 20
197.7848901596279063
 30
0.0
 11
3492.4025492582009065
 21
195.8852946434278124
 31
0.0
  0
ARC
  5
9A58
  8
0
 10
3492.3710480921608905
 20
195.916790706327987
 30
0.0
 40
0.0314960629999979
 50
270.0
 51
359.9879438264038072
  0
ARC
  5
9A59
  8
0
 10
3493.2552378560608304
 20
197.7723781689034013
 30
0.0
 40
0.8527803907409706
 50
170.838043797562193
 51
179.1593263724082874
  0
ARC
  5
9A5A
  8
0
 10
3492.4877085046828142
 20
197.8882652563611089
 30
0.0
 40
0.0769871480703125
 50
94.3858990140677747
 51
165.0217797316348083
  0
ARC
  5
9A5B
  8
0
 10
3492.5966405677490911
 20
197.0481860130124119
 30
0.0
 40
0.9240026207088625
 50
88.5813543633451843
 51
97.1382102780173255
  0
ARC
  5
9A5C
  8
0
 10
3493.5816855258140095
 20
197.3285221849135098
 30
0.0
 40
0.6604951487391836
 50
78.7890376393489049
 51
102.2109623633840982
  0
ARC
  5
9A5D
  8
0
 10
3493.7508951059239735
 20
199.5293568735191059
 30
0.0
 40
1.348725303977339
 50
181.3591485240262955
 51
184.9275710379853024
  0
ARC
  5
9A5E
  8
0
 10
3492.5165189702229327
 20
199.4237274244528066
 30
0.0
 40
0.1098409777217997
 50
185.3393274952744889
 51
263.9898570264635964
  0
ARC
  5
9A5F
  8
0
 10
3492.5971094406158954
 20
200.3091590480335924
 30
0.0
 40
0.9989228825342618
 50
264.7103557125643079
 51
271.2853260518635921
  0
ARC
  5
9A60
  8
0
 10
3492.3688578336527826
 20
199.7479624888468948
 30
0.0
 40
0.0336987918610386
 50
289.765168125855098
 51
358.8019003819571822
  0
LINE
  5
9A61
  8
0
 10
3492.4025492582009065
 20
199.7472578720723106
 30
0.0
 11
3492.4025492582009065
 21
200.461645008127789
 31
0.0
  0
ARC
  5
9A62
  8
0
 10
3492.3704089376610682
 20
200.4614839451249964
 30
0.0
 40
0.032140724101485
 50
0.2871207533714633
 51
78.9940104141467287
  0
ARC
  5
9A63
  8
0
 10
3492.2716436088271621
 20
199.2427145957018126
 30
0.0
 40
1.2547117955547551
 50
85.2041339155351665
 51
90.8542203908342287
  0
LINE
  5
9A64
  8
0
 10
3492.2529378559111137
 20
200.4972869470279875
 30
0.0
 11
3491.1741976985108522
 21
200.4972869470279875
 31
0.0
  0
ARC
  5
9A65
  8
0
 10
3491.0567242153870211
 20
200.4614879924131117
 30
0.0
 40
0.0321362928432414
 50
101.003164525621699
 51
179.7200556514160041
  0
ARC
  5
9A66
  8
0
 10
3491.1554919455938943
 20
199.2427145957018126
 30
0.0
 40
1.2547117955547551
 50
89.1457796091657713
 51
94.7958660844648477
  0
LINE
  5
9A67
  8
0
 10
3491.0245883061302266
 20
200.461645008127789
 30
0.0
 11
3491.0245883061302266
 21
195.8852946434278977
 31
0.0
  0
ARC
  5
9A68
  8
0
 10
3491.0582441943188314
 20
199.7479646292777034
 30
0.0
 40
0.0336626866771353
 50
181.1515339020230044
 51
250.3691192741347891
  0
LINE
  5
9A69
  8
0
 10
3494.6112024793301316
 20
198.015503188798192
 30
0.0
 11
3494.6112024793301316
 21
199.2669034872982081
 31
0.0
  0
ARC
  5
9A6A
  8
0
 10
3494.5797119139201641
 20
199.2669057504245984
 30
0.0
 40
0.0314905654910824
 50
359.9958823352915829
 51
89.5042876891036627
  0
LINE
  5
9A6B
  8
0
 10
3494.5799843609720483
 20
199.2983951373279865
 30
0.0
 11
3493.2018254664599226
 21
199.3104221477829014
 31
0.0
  0
ARC
  5
9A6C
  8
0
 10
3493.2017567549219166
 20
199.3025484285548998
 30
0.0
 40
0.0078740190346266
 50
89.5000099528639339
 51
180.0573928415579132
  0
LINE
  5
9A6D
  8
0
 10
3493.1938827398371359
 20
199.3025405411981978
 30
0.0
 11
3493.1938827398371359
 21
197.9798518169014869
 31
0.0
  0
ARC
  5
9A6E
  8
0
 10
3493.2017569535578332
 20
197.979852016556606
 30
0.0
 40
0.0078742137233848
 50
180.0014527666282049
 51
270.4985322742809899
  0
LINE
  5
9A6F
  8
0
 10
3493.2018254664599226
 20
197.9719781009015094
 30
0.0
 11
3493.4419830074061792
 21
197.9740739240160963
 31
0.0
  0
LINE
  5
9A70
  8
0
 10
3493.7101003354941895
 20
197.9764137484972082
 30
0.0
 11
3494.5799843609611344
 21
197.9840051114015012
 31
0.0
  0
ARC
  5
9A71
  8
0
 10
3494.5797008190747874
 20
198.0155054956547929
 30
0.0
 40
0.0315016603388848
 50
270.5157179821446221
 51
359.9958042481285929
  0
ARC
  5
9A72
  8
0
 10
3492.7766119800039633
 20
198.6412902845557937
 30
0.0
 40
0.7046216768361774
 50
53.6873425779938813
 51
69.3517102466798008
  0
LINE
  5
9A73
  8
0
 10
3493.0250830378090541
 20
197.9817513055014899
 30
0.0
 11
3493.0250830379609397
 21
199.3006489432729893
 31
0.0
  0
ARC
  5
9A74
  8
0
 10
3492.7764387814258953
 20
198.6413893482506978
 30
0.0
 40
0.7049441918865
 50
290.6534551780674178
 51
306.3108628465918173
  0
LINE
  5
9A75
  8
0
 10
3493.0250830378090541
 20
197.9817513055014899
 30
0.0
 11
3493.0127803756608955
 21
197.9817513055014899
 31
0.0
  0
LINE
  5
9A76
  8
0
 10
3493.0127803756608955
 20
197.9817513055014899
 30
0.0
 11
3493.0127803756608955
 21
199.3006489432729893
 31
0.0
  0
LINE
  5
9A77
  8
0
 10
3493.0127803756608955
 20
199.3006489432729893
 30
0.0
 11
3493.0250830379609397
 21
199.3006489432729893
 31
0.0
  0
ARC
  5
9A78
  8
0
 10
3492.9921691599670339
 20
197.9933576265270858
 30
0.0
 40
0.0214654839495119
 50
272.4646583305316767
 51
343.7813254054839831
  0
LINE
  5
9A79
  8
0
 10
3492.9930922424568962
 20
197.9719119993982019
 30
0.0
 11
3492.6195165695248761
 21
197.9719054139235936
 31
0.0
  0
ARC
  5
9A7A
  8
0
 10
3492.9929177710691874
 20
199.2903428860898885
 30
0.0
 40
0.0201525457743592
 50
9.7827204490383135
 51
89.5039516234144656
  0
LINE
  5
9A7B
  8
0
 10
3492.9930922431299223
 20
199.3104946765982106
 30
0.0
 11
3492.6195165695248761
 21
199.3104875075235896
 31
0.0
  0
LINE
  5
9A7C
  8
0
 10
3491.4322250172540407
 20
199.7859921781289927
 30
0.0
 11
3491.7135677771611881
 21
199.7864523543281052
 31
0.0
  0
ARC
  5
9A7D
  8
0
 10
3491.752462645344167
 20
209.113378197933514
 30
0.0
 40
9.3369683264399193
 50
268.4864760191784967
 51
269.7613231448364104
  0
ARC
  5
9A7E
  8
0
 10
3491.5095348500221917
 20
200.2474362843178994
 30
0.0
 40
0.4678754890029837
 50
260.4890606870417855
 51
269.9527918854681729
  0
ARC
  5
9A7F
  8
0
 10
3491.4369864231780412
 20
199.781507872704708
 30
0.0
 40
0.006540640961408
 50
95.8905024315011332
 51
136.7166803967083126
  0
ARC
  5
9A80
  8
0
 10
3491.5401237083738124
 20
198.8637065177410079
 30
0.0
 40
0.9301185372277886
 50
90.6006423463646939
 51
96.4080097291800655
  0
ARC
  5
9A81
  8
0
 10
3491.705568600452807
 20
193.3196094779434873
 30
0.0
 40
6.4765344875836552
 50
89.9292338854439492
 51
91.6660713684701847
  0
LINE
  5
9A82
  8
0
 10
3491.7096307693600465
 20
199.779308922628104
 30
0.0
 11
3491.7096307693600465
 21
199.7773163302281887
 31
0.0
  0
ARC
  5
9A83
  8
0
 10
3491.7129514101561654
 20
206.9251435864809991
 30
0.0
 40
7.1478280275820048
 50
269.5311528092541948
 51
270.0049406935689831
  0
LINE
  5
9A84
  8
0
 10
3491.654461906754932
 20
199.7775548679074973
 30
0.0
 11
3491.6692458638608514
 21
199.779480429428105
 31
0.0
  0
LINE
  5
9A85
  8
0
 10
3491.6692458638608514
 20
199.779480429428105
 30
0.0
 11
3491.6692458638608514
 21
199.779480429428105
 31
0.0
  0
LINE
  5
9A86
  8
0
 10
3491.6692458638608514
 20
199.779480429428105
 30
0.0
 11
3491.7135677771611881
 21
199.7792922029254896
 31
0.0
  0
ARC
  5
9A87
  8
0
 10
3491.4630695742212083
 20
199.7975557376994971
 30
0.0
 40
0.0133133495568216
 50
236.5122432488410027
 51
267.8012970424881019
  0
LINE
  5
9A88
  8
0
 10
3491.4625588050607803
 20
199.7842521896280914
 30
0.0
 11
3491.5177332842599753
 21
199.7847681422281028
 31
0.0
  0
ARC
  5
9A89
  8
0
 10
3491.5208260494318893
 20
199.8007680329496907
 30
0.0
 40
0.0162960639269226
 50
241.4589020732840083
 51
259.0597029566579863
  0
LINE
  5
9A8A
  8
0
 10
3491.4684002208468883
 20
199.7837378282717111
 30
0.0
 11
3491.5218091747610742
 21
199.784237271028104
 31
0.0
  0
LINE
  5
9A8B
  8
0
 10
3491.5218091747610742
 20
199.784237271028104
 30
0.0
 11
3491.537745712861124
 21
199.7829309302281047
 31
0.0
  0
LINE
  5
9A8C
  8
0
 10
3491.537745712861124
 20
199.7829309302281047
 30
0.0
 11
3491.4890712229462224
 21
199.7819501765364976
 31
0.0
  0
LINE
  5
9A8D
  8
0
 10
3491.4890712229462224
 20
199.7819501765364976
 30
0.0
 11
3491.4684002208468883
 21
199.7837378282717111
 31
0.0
  0
LINE
  5
9A8E
  8
0
 10
3491.4930793328881009
 20
199.7816577218083012
 30
0.0
 11
3491.5416827207609458
 21
199.7826929471281119
 31
0.0
  0
LINE
  5
9A8F
  8
0
 10
3491.5369159187807782
 20
199.7829142105130131
 30
0.0
 11
3491.5661310879609118
 21
199.7815581132281011
 31
0.0
  0
LINE
  5
9A90
  8
0
 10
3491.614407936643147
 20
199.7832429509622045
 30
0.0
 11
3491.5257405659599499
 21
199.7801485043281104
 31
0.0
  0
LINE
  5
9A91
  8
0
 10
3491.5257405659599499
 20
199.7801485043281104
 30
0.0
 11
3491.4930793328881009
 21
199.7816577218083012
 31
0.0
  0
LINE
  5
9A92
  8
0
 10
3491.5257867219238506
 20
199.7793728656070869
 30
0.0
 11
3491.5772666278608085
 21
199.7811694884281053
 31
0.0
  0
LINE
  5
9A93
  8
0
 10
3491.5643304160748812
 20
199.7814952706850988
 30
0.0
 11
3491.6166029261607946
 21
199.780178853128092
 31
0.0
  0
LINE
  5
9A94
  8
0
 10
3491.6166029261607946
 20
199.780178853128092
 30
0.0
 11
3491.5806214683930193
 21
199.7785630088258131
 31
0.0
  0
LINE
  5
9A95
  8
0
 10
3491.5812362481610762
 20
199.7785906171675947
 30
0.0
 11
3491.4654468040639586
 21
199.781642641796509
 31
0.0
  0
LINE
  5
9A96
  8
0
 10
3491.5742086912218838
 20
199.7778334090050976
 30
0.0
 11
3491.6170240454857776
 21
199.779749924054812
 31
0.0
  0
LINE
  5
9A97
  8
0
 10
3491.6170240454857776
 20
199.779749924054812
 30
0.0
 11
3491.6540344335599002
 21
199.7796226760281115
 31
0.0
  0
LINE
  5
9A98
  8
0
 10
3491.6540344335599002
 20
199.7796226760281115
 30
0.0
 11
3491.6392504764598925
 21
199.7776971144280935
 31
0.0
  0
LINE
  5
9A99
  8
0
 10
3491.6392504764598925
 20
199.7776971144280935
 30
0.0
 11
3491.4928060455008563
 21
199.7798599586670889
 31
0.0
  0
ARC
  5
9A9A
  8
0
 10
3491.5410033706239119
 20
199.8629956078204941
 30
0.0
 40
0.0799831835016217
 50
253.8275134385638978
 51
271.3308637937552135
  0
LINE
  5
9A9B
  8
0
 10
3491.5423718167271545
 20
199.7830241316661102
 30
0.0
 11
3491.5954563892751139
 21
199.7840949386198872
 31
0.0
  0
ARC
  5
9A9C
  8
0
 10
3491.5925447274821636
 20
199.850185651097604
 30
0.0
 40
0.0661548187980672
 50
255.363867602268698
 51
275.6788244858295229
  0
LINE
  5
9A9D
  8
0
 10
3491.5817367878598816
 20
199.7861775551280914
 30
0.0
 11
3491.5187256592598715
 21
199.7861775551280914
 31
0.0
  0
LINE
  5
9A9E
  8
0
 10
3491.6862913865597875
 20
199.7861775551280914
 30
0.0
 11
3491.696520033059187
 21
199.78555925692811
 31
0.0
  0
LINE
  5
9A9F
  8
0
 10
3491.696520033059187
 20
199.78555925692811
 30
0.0
 11
3491.6787237413609546
 21
199.7844835120280891
 31
0.0
  0
LINE
  5
9AA0
  8
0
 10
3491.6787237413609546
 20
199.7844835120280891
 30
0.0
 11
3491.6506988030610046
 21
199.7861775551280914
 31
0.0
  0
LINE
  5
9AA1
  8
0
 10
3491.6506988030610046
 20
199.7861775551280914
 30
0.0
 11
3491.6862913865597875
 21
199.7861775551280914
 31
0.0
  0
LINE
  5
9AA2
  8
0
 10
3491.5758287560602184
 20
199.7861775551280914
 30
0.0
 11
3491.6447827173610676
 21
199.7861775551280914
 31
0.0
  0
ARC
  5
9AA3
  8
0
 10
3491.6764273996182055
 20
200.0524670336116912
 30
0.0
 40
0.2681631448693593
 50
263.2230011519073969
 51
269.8586206831774916
  0
LINE
  5
9AA4
  8
0
 10
3491.6757656984591449
 20
199.7843047051279939
 30
0.0
 11
3491.6442427336610308
 21
199.7823992143281089
 31
0.0
  0
ARC
  5
9AA5
  8
0
 10
3491.6437648871660713
 20
200.2934082563614027
 30
0.0
 40
0.5110092654512127
 50
262.7786481742560909
 51
270.0535774852561985
  0
LINE
  5
9AA6
  8
0
 10
3491.6195562670609434
 20
199.7803573758280891
 30
0.0
 11
3491.6481078154611168
 21
199.7820832513280891
 31
0.0
  0
LINE
  5
9AA7
  8
0
 10
3491.6481078154611168
 20
199.7820832513280891
 30
0.0
 11
3491.7135677771611881
 21
199.7814711161190075
 31
0.0
  0
LINE
  5
9AA8
  8
0
 10
3491.7096307693600465
 20
199.7815079322280951
 30
0.0
 11
3491.7096307693600465
 21
199.7795150628280965
 31
0.0
  0
LINE
  5
9AA9
  8
0
 10
3491.6195562670609434
 20
199.7803573758280891
 30
0.0
 11
3491.7135677771611881
 21
199.7794782467173889
 31
0.0
  0
LINE
  5
9AAA
  8
0
 10
3491.7135677771611881
 20
199.7817120683695009
 30
0.0
 11
3491.6510618313609484
 21
199.7822618147280878
 31
0.0
  0
LINE
  5
9AAB
  8
0
 10
3491.6510618313609484
 20
199.7822618147280878
 30
0.0
 11
3491.6831758563048425
 21
199.784157393393599
 31
0.0
  0
LINE
  5
9AAC
  8
0
 10
3491.674495440930059
 20
199.784227920978708
 30
0.0
 11
3491.7135677771611881
 21
199.7839104618018951
 31
0.0
  0
LINE
  5
9AAD
  8
0
 10
3491.7135677771611881
 20
199.7841165612026941
 30
0.0
 11
3491.6660166385868251
 21
199.7845060507783899
 31
0.0
  0
LINE
  5
9AAE
  8
0
 10
3491.6855428389949338
 20
199.7843461124101907
 30
0.0
 11
3491.7135677771611881
 21
199.7860401554935947
 31
0.0
  0
LINE
  5
9AAF
  8
0
 10
3491.7033391306608792
 20
199.7854218573280889
 30
0.0
 11
3491.7135677771611881
 21
199.7853527658002974
 31
0.0
  0
LINE
  5
9AB0
  8
0
 10
3491.7096307693600465
 20
199.7935957860279927
 30
0.0
 11
3491.7096307693600465
 21
199.7955883784279933
 31
0.0
  0
ARC
  5
9AB1
  8
0
 10
3491.7129514101488894
 20
192.6477611221750976
 30
0.0
 40
7.1478280275820048
 50
89.9950593063527862
 51
90.4688471906676028
  0
LINE
  5
9AB2
  8
0
 10
3491.654461906754932
 20
199.7953498407485995
 30
0.0
 11
3491.6692458638608514
 21
199.7934242792279917
 31
0.0
  0
LINE
  5
9AB3
  8
0
 10
3491.6692458638608514
 20
199.7934242792279917
 30
0.0
 11
3491.6692458638608514
 21
199.7934242792279917
 31
0.0
  0
LINE
  5
9AB4
  8
0
 10
3491.6692458638608514
 20
199.7934242792279917
 30
0.0
 11
3491.7135677771611881
 21
199.7936125057306072
 31
0.0
  0
ARC
  5
9AB5
  8
0
 10
3491.4630695742212083
 20
199.7753489709569124
 30
0.0
 40
0.0133133495568216
 50
92.1987029574336674
 51
123.4877567510965974
  0
LINE
  5
9AB6
  8
0
 10
3491.4625588050607803
 20
199.7886525190282043
 30
0.0
 11
3491.5177332842599753
 21
199.788136566428193
 31
0.0
  0
ARC
  5
9AB7
  8
0
 10
3491.5208260494318893
 20
199.772136675706605
 30
0.0
 40
0.0162960639269226
 50
100.9402970432624045
 51
118.5410979266570024
  0
LINE
  5
9AB8
  8
0
 10
3491.4684002208468883
 20
199.7891668803846983
 30
0.0
 11
3491.5218091747610742
 21
199.7886674376281917
 31
0.0
  0
LINE
  5
9AB9
  8
0
 10
3491.5218091747610742
 20
199.7886674376281917
 30
0.0
 11
3491.537745712861124
 21
199.7899737784281911
 31
0.0
  0
LINE
  5
9ABA
  8
0
 10
3491.537745712861124
 20
199.7899737784281911
 30
0.0
 11
3491.4890712229462224
 21
199.7909545321197982
 31
0.0
  0
LINE
  5
9ABB
  8
0
 10
3491.4890712229462224
 20
199.7909545321197982
 30
0.0
 11
3491.4684002208468883
 21
199.7891668803846983
 31
0.0
  0
LINE
  5
9ABC
  8
0
 10
3491.4930793328881009
 20
199.7912469868481082
 30
0.0
 11
3491.5416827207609458
 21
199.7902117615280986
 31
0.0
  0
LINE
  5
9ABD
  8
0
 10
3491.5369159187807782
 20
199.789990498143311
 30
0.0
 11
3491.5661310879609118
 21
199.7913465954281094
 31
0.0
  0
LINE
  5
9ABE
  8
0
 10
3491.614407936643147
 20
199.7896617576940059
 30
0.0
 11
3491.5257405659599499
 21
199.7927562043282137
 31
0.0
  0
LINE
  5
9ABF
  8
0
 10
3491.5257405659599499
 20
199.7927562043282137
 30
0.0
 11
3491.4930793328881009
 21
199.7912469868481082
 31
0.0
  0
LINE
  5
9AC0
  8
0
 10
3491.5257867219238506
 20
199.7935318430492089
 30
0.0
 11
3491.5772666278608085
 21
199.7917352202281052
 31
0.0
  0
LINE
  5
9AC1
  8
0
 10
3491.5643304160748812
 20
199.7914094379711116
 30
0.0
 11
3491.6166029261607946
 21
199.7927258555280901
 31
0.0
  0
LINE
  5
9AC2
  8
0
 10
3491.6166029261607946
 20
199.7927258555280901
 30
0.0
 11
3491.5806214683930193
 21
199.7943416998305111
 31
0.0
  0
LINE
  5
9AC3
  8
0
 10
3491.5812362481610762
 20
199.7943140914885873
 30
0.0
 11
3491.4743546658792184
 21
199.7914968638559969
 31
0.0
  0
LINE
  5
9AC4
  8
0
 10
3491.5782189499559536
 20
199.7948917911232058
 30
0.0
 11
3491.6170240454857776
 21
199.7931547846013984
 31
0.0
  0
LINE
  5
9AC5
  8
0
 10
3491.6170240454857776
 20
199.7931547846013984
 30
0.0
 11
3491.6540344335599002
 21
199.7932820326280137
 31
0.0
  0
LINE
  5
9AC6
  8
0
 10
3491.6540344335599002
 20
199.7932820326280137
 30
0.0
 11
3491.6392504764598925
 21
199.7952075942280885
 31
0.0
  0
LINE
  5
9AC7
  8
0
 10
3491.6392504764598925
 20
199.7952075942280885
 30
0.0
 11
3491.5079491583701383
 21
199.7932683992889054
 31
0.0
  0
ARC
  5
9AC8
  8
0
 10
3491.5410033706239119
 20
199.7099091008358016
 30
0.0
 40
0.0799831835016217
 50
88.6691362061927038
 51
106.1724865613820015
  0
LINE
  5
9AC9
  8
0
 10
3491.5423718167271545
 20
199.789880576990214
 30
0.0
 11
3491.5954563892751139
 21
199.7888097700362948
 31
0.0
  0
ARC
  5
9ACA
  8
0
 10
3491.5925447274821636
 20
199.7227190575586064
 30
0.0
 40
0.0661548187980672
 50
84.3211755140921042
 51
104.6361323976775992
  0
LINE
  5
9ACB
  8
0
 10
3491.5817367878598816
 20
199.7867271535280906
 30
0.0
 11
3491.5187256592598715
 21
199.7867271535282043
 31
0.0
  0
LINE
  5
9ACC
  8
0
 10
3491.6862913865597875
 20
199.7867271535280054
 30
0.0
 11
3491.696520033059187
 21
199.7873454517279868
 31
0.0
  0
LINE
  5
9ACD
  8
0
 10
3491.696520033059187
 20
199.7873454517279868
 30
0.0
 11
3491.6787237413609546
 21
199.7884211966280077
 31
0.0
  0
LINE
  5
9ACE
  8
0
 10
3491.6787237413609546
 20
199.7884211966280077
 30
0.0
 11
3491.6506988030610046
 21
199.7867271535280054
 31
0.0
  0
LINE
  5
9ACF
  8
0
 10
3491.6506988030610046
 20
199.7867271535280054
 30
0.0
 11
3491.6862913865597875
 21
199.7867271535280054
 31
0.0
  0
LINE
  5
9AD0
  8
0
 10
3491.5758287560602184
 20
199.7867271535280906
 30
0.0
 11
3491.6447827173610676
 21
199.7867271535280054
 31
0.0
  0
ARC
  5
9AD1
  8
0
 10
3491.6764273996168413
 20
199.5204376750444055
 30
0.0
 40
0.2681631448693593
 50
90.141379316770383
 51
96.7769988480140029
  0
LINE
  5
9AD2
  8
0
 10
3491.6757656984591449
 20
199.7886000035281029
 30
0.0
 11
3491.6442427336610308
 21
199.7905054943281016
 31
0.0
  0
ARC
  5
9AD3
  8
0
 10
3491.6437648871651618
 20
199.2794964522948078
 30
0.0
 40
0.5110092654512127
 50
89.946422514691605
 51
97.2213518256651383
  0
LINE
  5
9AD4
  8
0
 10
3491.6195562670609434
 20
199.792547332828093
 30
0.0
 11
3491.6481078154611168
 21
199.7908214573280077
 31
0.0
  0
LINE
  5
9AD5
  8
0
 10
3491.6481078154611168
 20
199.7908214573280077
 30
0.0
 11
3491.7135677771611881
 21
199.7914335925370892
 31
0.0
  0
LINE
  5
9AD6
  8
0
 10
3491.7096307693600465
 20
199.7913967764280017
 30
0.0
 11
3491.7096307693600465
 21
199.7933896458280003
 31
0.0
  0
LINE
  5
9AD7
  8
0
 10
3491.6195562670609434
 20
199.792547332828093
 30
0.0
 11
3491.7135677771611881
 21
199.7934264619387079
 31
0.0
  0
LINE
  5
9AD8
  8
0
 10
3491.7135677771611881
 20
199.7911926402865959
 30
0.0
 11
3491.6510618313609484
 21
199.790642893928009
 31
0.0
  0
LINE
  5
9AD9
  8
0
 10
3491.6510618313609484
 20
199.790642893928009
 30
0.0
 11
3491.6831758563048425
 21
199.7887473152624978
 31
0.0
  0
LINE
  5
9ADA
  8
0
 10
3491.674495440930059
 20
199.7886767876773888
 30
0.0
 11
3491.7135677771611881
 21
199.7889942468542017
 31
0.0
  0
LINE
  5
9ADB
  8
0
 10
3491.7135677771611881
 20
199.788788147453289
 30
0.0
 11
3491.6660166385868251
 21
199.7883986578777069
 31
0.0
  0
LINE
  5
9ADC
  8
0
 10
3491.6855428389949338
 20
199.7885585962459913
 30
0.0
 11
3491.7135677771611881
 21
199.786864553162502
 31
0.0
  0
LINE
  5
9ADD
  8
0
 10
3491.7033391306608792
 20
199.7874828513280079
 30
0.0
 11
3491.7135677771611881
 21
199.7875519428557993
 31
0.0
  0
ARC
  5
9ADE
  8
0
 10
3491.5408653409572253
 20
199.8914212352572122
 30
0.0
 40
0.1513869413828589
 50
187.4016511620334029
 51
224.1405673177825975
  0
ARC
  5
9ADF
  8
0
 10
3491.7049247216918957
 20
193.0248096888836074
 30
0.0
 40
6.8584351667052443
 50
89.927790127915074
 51
92.1110630831606869
  0
ARC
  5
9AE0
  8
0
 10
3491.6936689386429862
 20
192.8492340482177099
 30
0.0
 40
7.0351327009701352
 50
89.8379338346996263
 51
92.1124230132397344
  0
ARC
  5
9AE1
  8
0
 10
3491.4699081095591282
 20
199.4287787693394023
 30
0.0
 40
0.4501564435936902
 50
92.2439128005521809
 51
100.1291946366928016
  0
ARC
  5
9AE2
  8
0
 10
3491.4847764341461698
 20
199.0220612291633131
 30
0.0
 40
0.8590059224810568
 50
93.3652999938048538
 51
98.402307454689435
  0
ARC
  5
9AE3
  8
0
 10
3491.394963575311067
 20
199.9947746337552132
 30
0.0
 40
0.128008750762261
 50
253.8026809098062984
 51
268.4597274653110048
  0
ARC
  5
9AE4
  8
0
 10
3491.9637078105151886
 20
200.0478766463093905
 30
0.0
 40
0.6295620777358861
 50
191.4377823588187084
 51
196.2367236016307004
  0
ARC
  5
9AE5
  8
0
 10
3491.654958461375827
 20
196.3772348407169943
 30
0.0
 40
3.559175973525353
 50
89.0564517621778151
 51
94.9694170276135594
  0
ARC
  5
9AE6
  8
0
 10
3491.7002979387448249
 20
191.0350798247297064
 30
0.0
 40
8.9045786599242351
 50
89.9146122414961724
 51
92.4760881319761125
  0
ARC
  5
9AE7
  8
0
 10
3491.4167823351549487
 20
198.8189963217361935
 30
0.0
 40
1.116940881353425
 50
95.1975629775000556
 51
97.7078755671600447
  0
ARC
  5
9AE8
  8
0
 10
3491.267969625382193
 20
199.9121234530180118
 30
0.0
 40
0.0137578968611213
 50
94.1435352751254015
 51
128.1949902813236122
  0
ARC
  5
9AE9
  8
0
 10
3491.3535500914940712
 20
200.3873384185968121
 30
0.0
 40
0.4738376601310211
 50
258.5469501506411802
 51
269.407257690708775
  0
ARC
  5
9AEA
  8
0
 10
3491.2857722167382235
 20
199.8873605155320092
 30
0.0
 40
0.0442471228801562
 50
112.3116737025932963
 51
126.4846145091866987
  0
ARC
  5
9AEB
  8
0
 10
3491.3805092206280278
 20
201.0534831524120989
 30
0.0
 40
1.142001615343514
 50
263.0959971338953096
 51
268.4190412767412113
  0
ARC
  5
9AEC
  8
0
 10
3491.2459282881341096
 20
199.9344055788864125
 30
0.0
 40
0.014889211864701
 50
233.5837091766713058
 51
259.5728098109109965
  0
ARC
  5
9AED
  8
0
 10
3491.3143649652529348
 20
199.5922717270800035
 30
0.0
 40
0.3390751407982058
 50
89.7915755513669183
 51
103.1735366995433054
  0
LINE
  5
9AEE
  8
0
 10
3491.9949105371601945
 20
199.7859921783280868
 30
0.0
 11
3491.7135677771611881
 21
199.7864523543281052
 31
0.0
  0
ARC
  5
9AEF
  8
0
 10
3491.6493716602340101
 20
210.7679166010009055
 30
0.0
 40
10.9916131864143498
 50
270.3346358182379277
 51
271.4175650177688226
  0
ARC
  5
9AF0
  8
0
 10
3491.9176007043001846
 20
200.2474362843178994
 30
0.0
 40
0.4678754890029837
 50
270.0472081145318271
 51
279.5109393129582145
  0
ARC
  5
9AF1
  8
0
 10
3491.9901491311429709
 20
199.781507872704708
 30
0.0
 40
0.006540640961408
 50
43.2833196032916874
 51
84.1094975684988668
  0
ARC
  5
9AF2
  8
0
 10
3491.8870118459471996
 20
198.8637065177410079
 30
0.0
 40
0.9301185372277886
 50
83.5919902708199487
 51
89.3993576536353345
  0
ARC
  5
9AF3
  8
0
 10
3491.7215669538668408
 20
193.3196094779434873
 30
0.0
 40
6.4765344875836552
 50
88.3339286315298153
 51
90.0707661145560508
  0
LINE
  5
9AF4
  8
0
 10
3491.717504784960056
 20
199.779308922628104
 30
0.0
 11
3491.717504784960056
 21
199.7773163302281887
 31
0.0
  0
ARC
  5
9AF5
  8
0
 10
3491.7141841441662109
 20
206.9251435864809991
 30
0.0
 40
7.1478280275820048
 50
269.9950593064309032
 51
270.4688471907456915
  0
LINE
  5
9AF6
  8
0
 10
3491.7726736475669895
 20
199.7775548679074973
 30
0.0
 11
3491.7578896904601606
 21
199.779480429428105
 31
0.0
  0
LINE
  5
9AF7
  8
0
 10
3491.7578896904601606
 20
199.779480429428105
 30
0.0
 11
3491.7578896904601606
 21
199.779480429428105
 31
0.0
  0
LINE
  5
9AF8
  8
0
 10
3491.7578896904601606
 20
199.779480429428105
 30
0.0
 11
3491.7135677771611881
 21
199.7792922029254896
 31
0.0
  0
ARC
  5
9AF9
  8
0
 10
3491.964065980101168
 20
199.7975557376994971
 30
0.0
 40
0.0133133495568216
 50
272.1987029575118981
 51
303.4877567511589973
  0
LINE
  5
9AFA
  8
0
 10
3491.9645767492611412
 20
199.7842521896280914
 30
0.0
 11
3491.9094022700601272
 21
199.7847681422281028
 31
0.0
  0
ARC
  5
9AFB
  8
0
 10
3491.9063095048891228
 20
199.8007680329496907
 30
0.0
 40
0.0162960639269226
 50
280.9402970433420137
 51
298.5410979267160201
  0
LINE
  5
9AFC
  8
0
 10
3491.9587353334741238
 20
199.7837378282717111
 30
0.0
 11
3491.9053263795608473
 21
199.784237271028104
 31
0.0
  0
LINE
  5
9AFD
  8
0
 10
3491.9053263795608473
 20
199.784237271028104
 30
0.0
 11
3491.889389841459888
 21
199.7829309302281047
 31
0.0
  0
LINE
  5
9AFE
  8
0
 10
3491.889389841459888
 20
199.7829309302281047
 30
0.0
 11
3491.9380643313747896
 21
199.7819501765364976
 31
0.0
  0
LINE
  5
9AFF
  8
0
 10
3491.9380643313747896
 20
199.7819501765364976
 30
0.0
 11
3491.9587353334741238
 21
199.7837378282717111
 31
0.0
  0
LINE
  5
9B00
  8
0
 10
3491.9340562214329111
 20
199.7816577218083012
 30
0.0
 11
3491.8854528335600662
 21
199.7826929471281119
 31
0.0
  0
LINE
  5
9B01
  8
0
 10
3491.8902196355397791
 20
199.7829142105130131
 30
0.0
 11
3491.8610044663601002
 21
199.7815581132281011
 31
0.0
  0
LINE
  5
9B02
  8
0
 10
3491.8127276176778651
 20
199.7832429509622045
 30
0.0
 11
3491.9013949883601526
 21
199.7801485043281104
 31
0.0
  0
LINE
  5
9B03
  8
0
 10
3491.9013949883601526
 20
199.7801485043281104
 30
0.0
 11
3491.9340562214329111
 21
199.7816577218083012
 31
0.0
  0
LINE
  5
9B04
  8
0
 10
3491.9013488323971615
 20
199.7793728656070869
 30
0.0
 11
3491.8498689264602035
 21
199.7811694884281053
 31
0.0
  0
LINE
  5
9B05
  8
0
 10
3491.8628051382461308
 20
199.7814952706850988
 30
0.0
 11
3491.8105326281611269
 21
199.780178853128092
 31
0.0
  0
LINE
  5
9B06
  8
0
 10
3491.8105326281611269
 20
199.780178853128092
 30
0.0
 11
3491.8465140859279927
 21
199.7785630088258131
 31
0.0
  0
LINE
  5
9B07
  8
0
 10
3491.8458993061608453
 20
199.7785906171675947
 30
0.0
 11
3491.9616887502570535
 21
199.781642641796509
 31
0.0
  0
LINE
  5
9B08
  8
0
 10
3491.8529268630991282
 20
199.7778334090050976
 30
0.0
 11
3491.8101115088347797
 21
199.779749924054812
 31
0.0
  0
LINE
  5
9B09
  8
0
 10
3491.8101115088347797
 20
199.779749924054812
 30
0.0
 11
3491.7731011207602023
 21
199.7796226760281115
 31
0.0
  0
LINE
  5
9B0A
  8
0
 10
3491.7731011207602023
 20
199.7796226760281115
 30
0.0
 11
3491.78788507786021
 21
199.7776971144280935
 31
0.0
  0
LINE
  5
9B0B
  8
0
 10
3491.78788507786021
 20
199.7776971144280935
 30
0.0
 11
3491.9343295088210652
 21
199.7798599586670889
 31
0.0
  0
ARC
  5
9B0C
  8
0
 10
3491.8861321836961906
 20
199.8629956078204941
 30
0.0
 40
0.0799831835016217
 50
268.6691362062447865
 51
286.1724865614360738
  0
LINE
  5
9B0D
  8
0
 10
3491.884763737592948
 20
199.7830241316661102
 30
0.0
 11
3491.8316791650458981
 21
199.7840949386198872
 31
0.0
  0
ARC
  5
9B0E
  8
0
 10
3491.8345908268388484
 20
199.850185651097604
 30
0.0
 40
0.0661548187980672
 50
264.3211755141705908
 51
284.6361323977312736
  0
LINE
  5
9B0F
  8
0
 10
3491.8453987664611304
 20
199.7861775551280914
 30
0.0
 11
3491.9084098950611406
 21
199.7861775551280914
 31
0.0
  0
LINE
  5
9B10
  8
0
 10
3491.7408441677598603
 20
199.7861775551280914
 30
0.0
 11
3491.7306155212609156
 21
199.78555925692811
 31
0.0
  0
LINE
  5
9B11
  8
0
 10
3491.7306155212609156
 20
199.78555925692811
 30
0.0
 11
3491.7484118129600574
 21
199.7844835120280891
 31
0.0
  0
LINE
  5
9B12
  8
0
 10
3491.7484118129600574
 20
199.7844835120280891
 30
0.0
 11
3491.7764367512609169
 21
199.7861775551280914
 31
0.0
  0
LINE
  5
9B13
  8
0
 10
3491.7764367512609169
 20
199.7861775551280914
 30
0.0
 11
3491.7408441677598603
 21
199.7861775551280914
 31
0.0
  0
LINE
  5
9B14
  8
0
 10
3491.8513067982598841
 20
199.7861775551280914
 30
0.0
 11
3491.7823528369599444
 21
199.7861775551280914
 31
0.0
  0
ARC
  5
9B15
  8
0
 10
3491.7507081547028065
 20
200.0524670336116912
 30
0.0
 40
0.2681631448693593
 50
270.1413793168225084
 51
276.7769988480926031
  0
LINE
  5
9B16
  8
0
 10
3491.7513698558618671
 20
199.7843047051279939
 30
0.0
 11
3491.7828928206608907
 21
199.7823992143281089
 31
0.0
  0
ARC
  5
9B17
  8
0
 10
3491.7833706671549407
 20
200.2934082563614027
 30
0.0
 40
0.5110092654512127
 50
269.9464225147436878
 51
277.2213518257439091
  0
LINE
  5
9B18
  8
0
 10
3491.8075792872600687
 20
199.7803573758280891
 30
0.0
 11
3491.7790277388608047
 21
199.7820832513280891
 31
0.0
  0
LINE
  5
9B19
  8
0
 10
3491.7790277388608047
 20
199.7820832513280891
 30
0.0
 11
3491.7135677771611881
 21
199.7814711161190075
 31
0.0
  0
LINE
  5
9B1A
  8
0
 10
3491.717504784960056
 20
199.7815079322280951
 30
0.0
 11
3491.717504784960056
 21
199.7795150628280965
 31
0.0
  0
LINE
  5
9B1B
  8
0
 10
3491.8075792872600687
 20
199.7803573758280891
 30
0.0
 11
3491.7135677771611881
 21
199.7794782467173889
 31
0.0
  0
LINE
  5
9B1C
  8
0
 10
3491.7135677771611881
 20
199.7817120683695009
 30
0.0
 11
3491.7760737229600636
 21
199.7822618147280878
 31
0.0
  0
LINE
  5
9B1D
  8
0
 10
3491.7760737229600636
 20
199.7822618147280878
 30
0.0
 11
3491.7439596980161696
 21
199.784157393393599
 31
0.0
  0
LINE
  5
9B1E
  8
0
 10
3491.7526401133918625
 20
199.784227920978708
 30
0.0
 11
3491.7135677771611881
 21
199.7839104618018951
 31
0.0
  0
LINE
  5
9B1F
  8
0
 10
3491.7135677771611881
 20
199.7841165612026941
 30
0.0
 11
3491.7611189157341869
 21
199.7845060507783899
 31
0.0
  0
LINE
  5
9B20
  8
0
 10
3491.7415927153269877
 20
199.7843461124101907
 30
0.0
 11
3491.7135677771611881
 21
199.7860401554935947
 31
0.0
  0
LINE
  5
9B21
  8
0
 10
3491.7237964236610424
 20
199.7854218573280889
 30
0.0
 11
3491.7135677771611881
 21
199.7853527658002974
 31
0.0
  0
LINE
  5
9B22
  8
0
 10
3491.717504784960056
 20
199.7935957860279927
 30
0.0
 11
3491.717504784960056
 21
199.7955883784279933
 31
0.0
  0
ARC
  5
9B23
  8
0
 10
3491.7141841441730321
 20
192.6477611221750976
 30
0.0
 40
7.1478280275820048
 50
89.531152809332383
 51
90.0049406936472565
  0
LINE
  5
9B24
  8
0
 10
3491.7726736475669895
 20
199.7953498407485995
 30
0.0
 11
3491.7578896904601606
 21
199.7934242792279917
 31
0.0
  0
LINE
  5
9B25
  8
0
 10
3491.7578896904601606
 20
199.7934242792279917
 30
0.0
 11
3491.7578896904601606
 21
199.7934242792279917
 31
0.0
  0
LINE
  5
9B26
  8
0
 10
3491.7578896904601606
 20
199.7934242792279917
 30
0.0
 11
3491.7135677771611881
 21
199.7936125057306072
 31
0.0
  0
ARC
  5
9B27
  8
0
 10
3491.964065980101168
 20
199.7753489709569124
 30
0.0
 40
0.0133133495568216
 50
56.5122432489033173
 51
87.8012970425663468
  0
LINE
  5
9B28
  8
0
 10
3491.9645767492611412
 20
199.7886525190282043
 30
0.0
 11
3491.9094022700601272
 21
199.788136566428193
 31
0.0
  0
ARC
  5
9B29
  8
0
 10
3491.9063095048891228
 20
199.772136675706605
 30
0.0
 40
0.0162960639269226
 50
61.4589020733430118
 51
79.0597029567375529
  0
LINE
  5
9B2A
  8
0
 10
3491.9587353334741238
 20
199.7891668803846983
 30
0.0
 11
3491.9053263795608473
 21
199.7886674376281917
 31
0.0
  0
LINE
  5
9B2B
  8
0
 10
3491.9053263795608473
 20
199.7886674376281917
 30
0.0
 11
3491.889389841459888
 21
199.7899737784281911
 31
0.0
  0
LINE
  5
9B2C
  8
0
 10
3491.889389841459888
 20
199.7899737784281911
 30
0.0
 11
3491.9380643313747896
 21
199.7909545321197982
 31
0.0
  0
LINE
  5
9B2D
  8
0
 10
3491.9380643313747896
 20
199.7909545321197982
 30
0.0
 11
3491.9587353334741238
 21
199.7891668803846983
 31
0.0
  0
LINE
  5
9B2E
  8
0
 10
3491.9340562214329111
 20
199.7912469868481082
 30
0.0
 11
3491.8854528335600662
 21
199.7902117615280986
 31
0.0
  0
LINE
  5
9B2F
  8
0
 10
3491.8902196355397791
 20
199.789990498143311
 30
0.0
 11
3491.8610044663601002
 21
199.7913465954281094
 31
0.0
  0
LINE
  5
9B30
  8
0
 10
3491.8127276176778651
 20
199.7896617576940059
 30
0.0
 11
3491.9013949883601526
 21
199.7927562043282137
 31
0.0
  0
LINE
  5
9B31
  8
0
 10
3491.9013949883601526
 20
199.7927562043282137
 30
0.0
 11
3491.9340562214329111
 21
199.7912469868481082
 31
0.0
  0
LINE
  5
9B32
  8
0
 10
3491.9013488323971615
 20
199.7935318430492089
 30
0.0
 11
3491.8498689264602035
 21
199.7917352202281052
 31
0.0
  0
LINE
  5
9B33
  8
0
 10
3491.8628051382461308
 20
199.7914094379711116
 30
0.0
 11
3491.8105326281611269
 21
199.7927258555280901
 31
0.0
  0
LINE
  5
9B34
  8
0
 10
3491.8105326281611269
 20
199.7927258555280901
 30
0.0
 11
3491.8465140859279927
 21
199.7943416998305111
 31
0.0
  0
LINE
  5
9B35
  8
0
 10
3491.8458993061608453
 20
199.7943140914885873
 30
0.0
 11
3491.9527808884417936
 21
199.7914968638559969
 31
0.0
  0
LINE
  5
9B36
  8
0
 10
3491.8489166043650584
 20
199.7948917911232058
 30
0.0
 11
3491.8101115088347797
 21
199.7931547846013984
 31
0.0
  0
LINE
  5
9B37
  8
0
 10
3491.8101115088347797
 20
199.7931547846013984
 30
0.0
 11
3491.7731011207602023
 21
199.7932820326280137
 31
0.0
  0
LINE
  5
9B38
  8
0
 10
3491.7731011207602023
 20
199.7932820326280137
 30
0.0
 11
3491.78788507786021
 21
199.7952075942280885
 31
0.0
  0
LINE
  5
9B39
  8
0
 10
3491.78788507786021
 20
199.7952075942280885
 30
0.0
 11
3491.9191863959508737
 21
199.7932683992889054
 31
0.0
  0
ARC
  5
9B3A
  8
0
 10
3491.8861321836961906
 20
199.7099091008358016
 30
0.0
 40
0.0799831835016217
 50
73.827513438618027
 51
91.3308637938073247
  0
LINE
  5
9B3B
  8
0
 10
3491.884763737592948
 20
199.789880576990214
 30
0.0
 11
3491.8316791650458981
 21
199.7888097700362948
 31
0.0
  0
ARC
  5
9B3C
  8
0
 10
3491.8345908268388484
 20
199.7227190575586064
 30
0.0
 40
0.0661548187980672
 50
75.3638676023224008
 51
95.6788244859078816
  0
LINE
  5
9B3D
  8
0
 10
3491.8453987664611304
 20
199.7867271535280906
 30
0.0
 11
3491.9084098950611406
 21
199.7867271535282043
 31
0.0
  0
LINE
  5
9B3E
  8
0
 10
3491.7408441677598603
 20
199.7867271535280054
 30
0.0
 11
3491.7306155212609156
 21
199.7873454517279868
 31
0.0
  0
LINE
  5
9B3F
  8
0
 10
3491.7306155212609156
 20
199.7873454517279868
 30
0.0
 11
3491.7484118129600574
 21
199.7884211966280077
 31
0.0
  0
LINE
  5
9B40
  8
0
 10
3491.7484118129600574
 20
199.7884211966280077
 30
0.0
 11
3491.7764367512609169
 21
199.7867271535280054
 31
0.0
  0
LINE
  5
9B41
  8
0
 10
3491.7764367512609169
 20
199.7867271535280054
 30
0.0
 11
3491.7408441677598603
 21
199.7867271535280054
 31
0.0
  0
LINE
  5
9B42
  8
0
 10
3491.8513067982598841
 20
199.7867271535280906
 30
0.0
 11
3491.7823528369599444
 21
199.7867271535280054
 31
0.0
  0
ARC
  5
9B43
  8
0
 10
3491.7507081547041707
 20
199.5204376750444055
 30
0.0
 40
0.2681631448693593
 50
83.2230011519859829
 51
89.8586206832296455
  0
LINE
  5
9B44
  8
0
 10
3491.7513698558618671
 20
199.7886000035281029
 30
0.0
 11
3491.7828928206608907
 21
199.7905054943281016
 31
0.0
  0
ARC
  5
9B45
  8
0
 10
3491.7833706671549407
 20
199.2794964522948078
 30
0.0
 40
0.5110092654512127
 50
82.7786481743348475
 51
90.053577485308395
  0
LINE
  5
9B46
  8
0
 10
3491.8075792872600687
 20
199.792547332828093
 30
0.0
 11
3491.7790277388608047
 21
199.7908214573280077
 31
0.0
  0
LINE
  5
9B47
  8
0
 10
3491.7790277388608047
 20
199.7908214573280077
 30
0.0
 11
3491.7135677771611881
 21
199.7914335925370892
 31
0.0
  0
LINE
  5
9B48
  8
0
 10
3491.717504784960056
 20
199.7913967764280017
 30
0.0
 11
3491.717504784960056
 21
199.7933896458280003
 31
0.0
  0
LINE
  5
9B49
  8
0
 10
3491.8075792872600687
 20
199.792547332828093
 30
0.0
 11
3491.7135677771611881
 21
199.7934264619387079
 31
0.0
  0
LINE
  5
9B4A
  8
0
 10
3491.7135677771611881
 20
199.7911926402865959
 30
0.0
 11
3491.7760737229600636
 21
199.790642893928009
 31
0.0
  0
LINE
  5
9B4B
  8
0
 10
3491.7760737229600636
 20
199.790642893928009
 30
0.0
 11
3491.7439596980161696
 21
199.7887473152624978
 31
0.0
  0
LINE
  5
9B4C
  8
0
 10
3491.7526401133918625
 20
199.7886767876773888
 30
0.0
 11
3491.7135677771611881
 21
199.7889942468542017
 31
0.0
  0
LINE
  5
9B4D
  8
0
 10
3491.7135677771611881
 20
199.788788147453289
 30
0.0
 11
3491.7611189157341869
 21
199.7883986578777069
 31
0.0
  0
LINE
  5
9B4E
  8
0
 10
3491.7415927153269877
 20
199.7885585962459913
 30
0.0
 11
3491.7135677771611881
 21
199.786864553162502
 31
0.0
  0
LINE
  5
9B4F
  8
0
 10
3491.7237964236610424
 20
199.7874828513280079
 30
0.0
 11
3491.7135677771611881
 21
199.7875519428557993
 31
0.0
  0
ARC
  5
9B50
  8
0
 10
3491.8862997203018494
 20
199.8914091842869993
 30
0.0
 40
0.1513573740654432
 50
315.8549276525855021
 51
352.6014950157575072
  0
ARC
  5
9B51
  8
0
 10
3491.7222120890778569
 20
193.0248096888836074
 30
0.0
 40
6.8584351667052443
 50
87.8889369168392847
 51
90.072209872084926
  0
ARC
  5
9B52
  8
0
 10
3491.7334678721281307
 20
192.8492340482177099
 30
0.0
 40
7.0351327009701352
 50
87.8875769867602656
 51
90.1620661653003737
  0
ARC
  5
9B53
  8
0
 10
3491.9572287012110792
 20
199.4287787693394023
 30
0.0
 40
0.4501564435936902
 50
79.87080536330717
 51
87.7560871994478333
  0
ARC
  5
9B54
  8
0
 10
3491.9423603766240376
 20
199.0220612291633131
 30
0.0
 40
0.8590059224810568
 50
81.597692545310565
 51
86.634700006195132
  0
ARC
  5
9B55
  8
0
 10
3492.0321732354600499
 20
199.9947746337552132
 30
0.0
 40
0.128008750762261
 50
271.5402725346891089
 51
286.1973190901936164
  0
ARC
  5
9B56
  8
0
 10
3491.4634290002559283
 20
200.0478766463093905
 30
0.0
 40
0.6295620777358861
 50
343.7632763983676796
 51
348.5622176411811779
  0
ARC
  5
9B57
  8
0
 10
3491.7721783493948351
 20
196.3772348407169943
 30
0.0
 40
3.559175973525353
 50
85.0305829723864548
 51
90.9435482378221991
  0
ARC
  5
9B58
  8
0
 10
3491.7268388720249277
 20
191.0350798247297064
 30
0.0
 40
8.9045786599242351
 50
87.5239118680238875
 51
90.0853877585038418
  0
ARC
  5
9B59
  8
0
 10
3492.0103544756161682
 20
198.8189963217361935
 30
0.0
 40
1.116940881353425
 50
82.2921244328399553
 51
84.8024370224999444
  0
ARC
  5
9B5A
  8
0
 10
3492.1591671853880143
 20
199.9121234530180118
 30
0.0
 40
0.0137578968611213
 50
51.8050097186763381
 51
85.8564647248745842
  0
ARC
  5
9B5B
  8
0
 10
3492.0735867192770456
 20
200.3873384185968121
 30
0.0
 40
0.4738376601310211
 50
270.592742309291225
 51
281.4530498493588198
  0
ARC
  5
9B5C
  8
0
 10
3492.1413645940328934
 20
199.8873605155320092
 30
0.0
 40
0.0442471228801436
 50
53.5153854908123208
 51
67.6883262973782536
  0
ARC
  5
9B5D
  8
0
 10
3492.0466275901439985
 20
201.0534831524120989
 30
0.0
 40
1.142001615343514
 50
271.5809587232587887
 51
276.9040028661048041
  0
ARC
  5
9B5E
  8
0
 10
3492.1812085226370073
 20
199.9344055788864125
 30
0.0
 40
0.014889211864701
 50
280.4271901890888898
 51
306.4162908233287226
  0
ARC
  5
9B5F
  8
0
 10
3492.1127718455181821
 20
199.5922717270800035
 30
0.0
 40
0.3390751407982058
 50
76.826463300456652
 51
90.2084244486330817
  0
ARC
  5
9B60
  8
0
 10
3491.0560804823380749
 20
199.9737926126443881
 30
0.0
 40
0.0314921784899506
 50
180.0218062618598935
 51
270.0126989369529724
  0
ARC
  5
9B61
  8
0
 10
3491.1445956968977953
 20
198.9684566659522886
 30
0.0
 40
0.9778586691333041
 50
88.2652616709701334
 51
95.1930798828478828
  0
LINE
  5
9B62
  8
0
 10
3491.1741976985108522
 20
199.9464224227278919
 30
0.0
 11
3492.2529378559111137
 21
199.9464224227278919
 31
0.0
  0
ARC
  5
9B63
  8
0
 10
3492.2716861521839746
 20
198.7888597474934897
 30
0.0
 40
1.1577144923119591
 50
85.0759660171904244
 51
90.9279016667034909
  0
ARC
  5
9B64
  8
0
 10
3492.3735591865020069
 20
199.9711973169513897
 30
0.0
 40
0.0290037760050378
 50
265.0536709164891249
 51
358.2386081738968073
  0
ENDSEC
  0
EOF
