  0
SECTION
  2
HEADER
  9
$ACADVER
  1
AC1009
  9
$INSBASE
 10
474.404739271464905
 20
40.580238116021782
 30
0.0
  9
$EXTMIN
 10
464.3840284239585117
 20
33.9514381160217766
 30
0.0
  9
$EXTMAX
 10
477.6527145910698096
 20
45.6044428054537505
 30
0.0
  9
$LIMMIN
 10
0.0
 20
0.0
  9
$LIMMAX
 10
11.6929133858000007
 20
8.2677165353999982
  9
$ORTHOMODE
 70
     0
  9
$REGENMODE
 70
     1
  9
$FILLMODE
 70
     1
  9
$QTEXTMODE
 70
     0
  9
$MIRRTEXT
 70
     0
  9
$DRAGMODE
 70
     2
  9
$LTSCALE
 40
0.6431102362
  9
$OSMODE
 70
  4095
  9
$ATTMODE
 70
     1
  9
$TEXTSIZE
 40
0.2
  9
$TRACEWID
 40
0.05
  9
$TEXTSTYLE
  7
STANDARD
  9
$CLAYER
  8
0
  9
$CELTYPE
  6
BYLAYER
  9
$CECOLOR
 62
   256
  9
$DIMSCALE
 40
1.0
  9
$DIMASZ
 40
0.1875
  9
$DIMEXO
 40
0.0625
  9
$DIMDLI
 40
0.4443307087
  9
$DIMRND
 40
0.0
  9
$DIMDLE
 40
0.0
  9
$DIMEXE
 40
0.125
  9
$DIMTP
 40
0.01
  9
$DIMTM
 40
0.01
  9
$DIMTXT
 40
1.0
  9
$DIMCEN
 40
0.1052362205
  9
$DIMTSZ
 40
0.0
  9
$DIMTOL
 70
     1
  9
$DIMLIM
 70
     0
  9
$DIMTIH
 70
     0
  9
$DIMTOH
 70
     1
  9
$DIMSE1
 70
     0
  9
$DIMSE2
 70
     0
  9
$DIMTAD
 70
     0
  9
$DIMZIN
 70
     0
  9
$DIMBLK
  1

  9
$DIMASO
 70
     1
  9
$DIMSHO
 70
     1
  9
$DIMPOST
  1
\X
  9
$DIMAPOST
  1

  9
$DIMALT
 70
     1
  9
$DIMALTD
 70
     2
  9
$DIMALTF
 40
25.3999999999999986
  9
$DIMLFAC
 40
1.0
  9
$DIMTOFL
 70
     0
  9
$DIMTVP
 40
0.0
  9
$DIMTIX
 70
     0
  9
$DIMSOXD
 70
     0
  9
$DIMSAH
 70
     0
  9
$DIMBLK1
  1

  9
$DIMBLK2
  1

  9
$DIMSTYLE
  2
STANDARD
  9
$DIMCLRD
 70
     0
  9
$DIMCLRE
 70
     0
  9
$DIMCLRT
 70
     0
  9
$DIMTFAC
 40
1.0
  9
$DIMGAP
 40
0.09
  9
$LUNITS
 70
     2
  9
$LUPREC
 70
     4
  9
$SKETCHINC
 40
0.1
  9
$FILLETRAD
 40
0.0
  9
$AUNITS
 70
     0
  9
$AUPREC
 70
     0
  9
$MENU
  1
.
  9
$ELEVATION
 40
0.0
  9
$PELEVATION
 40
0.0
  9
$THICKNESS
 40
0.0
  9
$LIMCHECK
 70
     0
  9
$BLIPMODE
 70
     0
  9
$CHAMFERA
 40
0.0
  9
$CHAMFERB
 40
0.0
  9
$SKPOLY
 70
     0
  9
$TDCREATE
 40
2458172.5207638889551163
  9
$TDUPDATE
 40
2459115.6068981480784714
  9
$TDINDWG
 40
0.273573588
  9
$TDUSRTIMER
 40
0.273573588
  9
$USRTIMER
 70
     1
  9
$ANGBASE
 50
0.0
  9
$ANGDIR
 70
     0
  9
$PDMODE
 70
     0
  9
$PDSIZE
 40
0.3125
  9
$PLINEWID
 40
0.0
  9
$COORDS
 70
     1
  9
$SPLFRAME
 70
     0
  9
$SPLINETYPE
 70
     6
  9
$SPLINESEGS
 70
     8
  9
$ATTDIA
 70
     1
  9
$ATTREQ
 70
     1
  9
$HANDLING
 70
     1
  9
$HANDSEED
  5
FDF6
  9
$SURFTAB1
 70
     6
  9
$SURFTAB2
 70
     6
  9
$SURFTYPE
 70
     6
  9
$SURFU
 70
     6
  9
$SURFV
 70
     6
  9
$UCSNAME
  2

  9
$UCSORG
 10
0.0
 20
0.0
 30
0.0
  9
$UCSXDIR
 10
1.0
 20
0.0
 30
0.0
  9
$UCSYDIR
 10
0.0
 20
1.0
 30
0.0
  9
$PUCSNAME
  2

  9
$PUCSORG
 10
0.0
 20
0.0
 30
0.0
  9
$PUCSXDIR
 10
1.0
 20
0.0
 30
0.0
  9
$PUCSYDIR
 10
0.0
 20
1.0
 30
0.0
  9
$USERI1
 70
     0
  9
$USERI2
 70
     0
  9
$USERI3
 70
     0
  9
$USERI4
 70
     0
  9
$USERI5
 70
     0
  9
$USERR1
 40
0.0
  9
$USERR2
 40
0.0
  9
$USERR3
 40
0.0
  9
$USERR4
 40
0.0
  9
$USERR5
 40
0.0
  9
$WORLDVIEW
 70
     1
  9
$SHADEDGE
 70
     3
  9
$SHADEDIF
 70
    70
  9
$TILEMODE
 70
     1
  9
$MAXACTVP
 70
    64
  9
$PLIMCHECK
 70
     0
  9
$PEXTMIN
 10
1.0000000000000000E+20
 20
1.0000000000000000E+20
 30
1.0000000000000000E+20
  9
$PEXTMAX
 10
-1.0000000000000000E+20
 20
-1.0000000000000000E+20
 30
-1.0000000000000000E+20
  9
$PLIMMIN
 10
0.0
 20
0.0
  9
$PLIMMAX
 10
12.0
 20
9.0
  9
$UNITMODE
 70
     0
  9
$VISRETAIN
 70
     1
  9
$PLINEGEN
 70
     0
  9
$PSLTSCALE
 70
     1
  0
ENDSEC
  0
SECTION
  2
TABLES
  0
TABLE
  2
VPORT
 70
     1
  0
VPORT
  2
*ACTIVE
 70
     0
 10
0.0
 20
0.0
 11
1.0
 21
1.0
 12
59.6232649701121531
 22
-34.4030869458147421
 13
0.0
 23
0.0
 14
1.0
 24
1.0
 15
0.0
 25
0.0
 16
0.0
 26
0.0
 36
14.6338572656650907
 17
429.6292891080536833
 27
69.7025415122186871
 37
0.0
 40
51.1082921264868304
 41
2.005224660397074
 42
50.0
 43
0.0
 44
0.0
 50
0.0
 51
0.0
 71
     0
 72
   100
 73
     1
 74
     1
 75
     0
 76
     0
 77
     0
 78
     0
  0
ENDTAB
  0
TABLE
  2
LTYPE
 70
     2
  0
LTYPE
  2
CONTINUOUS
 70
     0
  3
Solid line
 72
    65
 73
     0
 40
0.0
  0
LTYPE
  2
PHANTOM2
 70
     0
  3
___ _ _ ___ _ _ ___ _ _ ___ _ _
 72
    65
 73
     6
 40
1.25
 49
0.625
 49
-0.125
 49
0.125
 49
-0.125
 49
0.125
 49
-0.125
  0
ENDTAB
  0
TABLE
  2
LAYER
 70
     2
  0
LAYER
  2
0
 70
     0
 62
   255
  6
CONTINUOUS
  0
LAYER
  2
DEFPOINTS
 70
     0
 62
     7
  6
CONTINUOUS
  0
ENDTAB
  0
TABLE
  2
STYLE
 70
     1
  0
STYLE
  2
STANDARD
 70
     0
 40
0.0
 41
0.8
 50
0.0
 71
     0
 42
0.2
  3
txt
  4

  0
ENDTAB
  0
TABLE
  2
VIEW
 70
     0
  0
ENDTAB
  0
TABLE
  2
UCS
 70
     0
  0
ENDTAB
  0
TABLE
  2
APPID
 70
    10
  0
APPID
  2
ACAD
 70
     0
  0
APPID
  2
ACAD_MLEADERVER
 70
     0
  0
APPID
  2
ACAD_EXEMPT_FROM_CAD_STANDARDS
 70
     0
  0
APPID
  2
ACAD_DSTYLE_DIMJAG
 70
     0
  0
APPID
  2
ACAD_DSTYLE_DIMTALN
 70
     0
  0
APPID
  2
ACAD_NAV_VCDISPLAY
 70
     0
  0
APPID
  2
ACAECLAYERSTANDARD
 70
     0
  0
APPID
  2
ACCMTRANSPARENCY
 70
     0
  0
APPID
  2
DCO15
 70
     0
  0
APPID
  2
ACDBATTR
 70
     0
  0
ENDTAB
  0
TABLE
  2
DIMSTYLE
 70
     1
  0
DIMSTYLE
  2
STANDARD
 70
     0
  3

  4

  5

  6

  7

 40
1.0
 41
0.1875
 42
0.0625
 43
0.38
 44
0.125
 45
0.0
 46
0.0
 47
0.01
 48
0.01
140
0.15625
141
0.09
142
0.0
143
25.3999999999999986
144
1.0
145
0.0
146
1.0
147
0.09
 71
     1
 72
     0
 73
     1
 74
     1
 75
     0
 76
     0
 77
     0
 78
     4
170
     0
171
     2
172
     0
173
     0
174
     0
175
     0
176
     0
177
     0
178
     0
  0
ENDTAB
  0
ENDSEC
  0
SECTION
  2
BLOCKS
  0
BLOCK
  8
0
  2
$MODEL_SPACE
 70
     0
 10
0.0
 20
0.0
 30
0.0
  3
$MODEL_SPACE
  1

  0
ENDBLK
  5
21
  8
0
  0
BLOCK
 67
     1
  8
0
  2
$PAPER_SPACE
 70
     0
 10
0.0
 20
0.0
 30
0.0
  3
$PAPER_SPACE
  1

  0
ENDBLK
  5
1D
 67
     1
  8
0
  0
BLOCK
  8
0
  2
_FILLED
 70
     0
 10
0.0
 20
0.0
 30
0.0
  3
_FILLED
  1

  0
SOLID
  5
87E2
  8
0
  6
BYBLOCK
 62
     0
 10
0.0
 20
0.0
 30
0.0
 11
-1.0
 21
0.1666666667
 31
0.0
 12
-1.0
 22
-0.1666666667
 32
0.0
 13
-1.0
 23
-0.1666666667
 33
0.0
  0
ENDBLK
  5
87E3
  8
0
  6
BYBLOCK
 62
     0
  0
ENDSEC
  0
SECTION
  2
ENTITIES
  0
ATTDEF
  5
C848
  8
DEFPOINTS
 10
474.4067239577216242
 20
40.5842200297279021
 30
0.0
 40
0.001
  1
K-73050T-7GCH
  3

  2
MODELNUMBER
 70
     0
1001
ACDBATTR
1070
     0
1070
     1
  0
ATTDEF
  5
C849
  8
DEFPOINTS
 10
474.4067239577216242
 20
40.582553363061237
 30
0.0
 40
0.001
  1
COMPOSED
  3

  2
TRADENAME
 70
     0
1001
ACDBATTR
1070
     0
1070
     1
  0
ATTDEF
  5
C84A
  8
DEFPOINTS
 10
474.4067239577216242
 20
40.5808866963945718
 30
0.0
 40
0.001
  1
BATHROOM SINK FAUCET
  3

  2
PRODUCT
 70
     0
1001
ACDBATTR
1070
     0
1070
     1
  0
LINE
  5
FD23
  8
0
 10
473.8152872476460971
 20
33.9514381160217766
 30
0.0
 11
474.9950083246553731
 21
33.9514381160217908
 31
0.0
  0
LINE
  5
FD24
  8
0
 10
473.7155538349264816
 20
34.1000613017529233
 30
0.0
 11
473.7155549345325767
 21
40.5788938063646896
 31
0.0
  0
LINE
  5
FD25
  8
0
 10
475.0936419257157013
 20
40.5788710857033834
 30
0.0
 11
475.0936419257157013
 21
34.1000613018487613
 31
0.0
  0
LINE
  5
FD26
  8
0
 10
475.3101116227813918
 20
41.2494845444442575
 30
0.0
 11
475.3101116227813918
 21
39.9101311737255813
 31
0.0
  0
LINE
  5
FD27
  8
0
 10
475.7038131524570872
 20
41.2396412893119901
 30
0.0
 11
475.7038131524570872
 21
39.9207436515518523
 31
0.0
  0
LINE
  5
FD28
  8
0
 10
475.0936419257157013
 20
39.9096855414609806
 30
0.0
 11
475.6841254394071257
 21
39.9109011319523006
 31
0.0
  0
LINE
  5
FD29
  8
0
 10
475.6841254641911974
 20
41.2494838089522915
 30
0.0
 11
475.3101066548484823
 21
41.2494845444540275
 31
0.0
  0
ARC
  5
FD2A
  8
0
 10
474.404597880307108
 20
40.5792832129033698
 30
0.0
 40
1.0039370079000001
 50
313.3359227383892858
 51
318.1896851118767131
  0
ARC
  5
FD2B
  8
0
 10
474.3989037259892143
 20
40.5690420140411234
 30
0.0
 40
1.0156455605699539
 50
42.3291619160861714
 51
83.5574829287797911
  0
ARC
  5
FD2C
  8
0
 10
474.4050221422234017
 20
40.5800935815371631
 30
0.0
 40
1.0040811612508449
 50
96.2144566169478566
 51
226.6333135917450079
  0
ARC
  5
FD2D
  8
0
 10
474.404598450597689
 20
40.5801242348728692
 30
0.0
 40
0.6890446146554092
 50
359.8957974613452961
 51
180.102313255888987
  0
ARC
  5
FD2E
  8
0
 10
475.6841083181520844
 20
39.9306289437709907
 30
0.0
 40
0.0197278193482241
 50
270.0497255046847727
 51
357.2339315227384873
  0
ARC
  5
FD2F
  8
0
 10
475.6841090096585845
 20
41.2297600293020992
 30
0.0
 40
0.0197237866137754
 50
2.5573575661578158
 51
89.9522010961562444
  0
ARC
  5
FD30
  8
0
 10
473.8894745027885165
 20
34.1089959727939203
 30
0.0
 40
0.1741500130812286
 50
182.9408196625801111
 51
244.7862599485106898
  0
ARC
  5
FD31
  8
0
 10
474.9213577177628167
 20
34.1073568830761502
 30
0.0
 40
0.1724386088305269
 50
295.284422397431797
 51
357.5751902587517179
  0
LINE
  5
FD32
  8
0
 10
474.2963301637071822
 20
41.2606096932328725
 30
0.0
 11
474.2963301637071822
 21
42.2351530767217795
 31
0.0
  0
LINE
  5
FD33
  8
0
 10
474.5128655968072167
 20
41.2667989881483379
 30
0.0
 11
474.5128655968072167
 21
42.2351530767217795
 31
0.0
  0
LINE
  5
FD34
  8
0
 10
474.4931805574070722
 20
42.2548381160217801
 30
0.0
 11
474.3160205506071065
 21
42.2548381160217801
 31
0.0
  0
ARC
  5
FD35
  8
0
 10
474.4931805574070722
 20
42.2351530767217795
 30
0.0
 40
0.0196850394
 50
0.0
 51
90.0
  0
ARC
  5
FD36
  8
0
 10
474.3160152031070993
 20
42.2351530767217795
 30
0.0
 40
0.0196850394
 50
90.0
 51
180.0
  0
LINE
  5
FD37
  8
0
 10
475.3101097161912776
 20
41.2494838089522915
 30
0.0
 11
474.4353385694540748
 21
41.268482781529201
 31
0.0
  0
LINE
  5
FD38
  8
0
 10
475.8364903178572263
 20
41.2416096060217825
 30
0.0
 11
475.8364903178572263
 21
39.9187749604217785
 31
0.0
  0
LINE
  5
FD39
  8
0
 10
475.7038131524570872
 20
41.2396412893119901
 30
0.0
 11
475.7161158148571189
 21
41.2396411021217872
 31
0.0
  0
ARC
  5
FD3A
  8
0
 10
475.467600716882373
 20
40.5801779547039274
 30
0.0
 40
0.70470799406869
 50
290.6494715698564733
 51
301.5649299522519868
  0
ARC
  5
FD3B
  8
0
 10
475.4675857578769183
 20
40.5801762736431328
 30
0.0
 40
0.7047418315579767
 50
58.4353328007274015
 51
69.3502655074314163
  0
ARC
  5
FD3C
  8
0
 10
475.8463328373863988
 20
39.918774960251092
 30
0.0
 40
0.0098425195292924
 50
179.9999990062974007
 51
270.0000004116088235
  0
ARC
  5
FD3D
  8
0
 10
475.846332837215698
 20
41.2416096063632125
 30
0.0
 40
0.0098425193585765
 50
89.9999985946072343
 51
180.0000019875085115
  0
ARC
  5
FD3E
  8
0
 10
476.0950003008780982
 20
41.2682999852973467
 30
0.0
 40
0.0008772841883909
 50
17.795538431704081
 51
81.9669396416429663
  0
ARC
  5
FD3F
  8
0
 10
476.0934032626224734
 20
41.2680072041872208
 30
0.0
 40
0.0024961809122849
 50
343.2450929703360885
 51
12.9853760525722102
  0
ARC
  5
FD40
  8
0
 10
476.0848002814979054
 20
41.2702437600379071
 30
0.0
 40
0.0113837195966339
 50
332.2821504515737843
 51
344.9487903059005021
  0
ARC
  5
FD41
  8
0
 10
476.2588121846002878
 20
41.1768633291217796
 30
0.0
 40
0.1861010396594093
 50
151.7498680463116045
 51
208.2501319536883102
  0
ARC
  5
FD42
  8
0
 10
476.0789595345781891
 20
41.0830134898217878
 30
0.0
 40
0.0169296758452442
 50
340.0940101786848118
 51
19.9059898213209117
  0
ARC
  5
FD43
  8
0
 10
476.6088477047467791
 20
40.9246804721715307
 30
0.0
 40
0.5361365597673873
 50
163.4668018904098972
 51
196.5331981118968088
  0
ARC
  5
FD44
  8
0
 10
476.0651586790435204
 20
40.7642376183717872
 30
0.0
 40
0.0307444408490081
 50
345.1605222854018962
 51
14.8394777146024701
  0
LINE
  5
FD45
  8
0
 10
475.846332837457112
 20
41.2514521257217766
 30
0.0
 11
476.0530257508571026
 21
41.2514521257217766
 31
0.0
  0
LINE
  5
FD46
  8
0
 10
476.0530257508571026
 20
41.2514521257217766
 30
0.0
 11
476.0530257508571026
 21
39.9089382009217886
 31
0.0
  0
LINE
  5
FD47
  8
0
 10
476.0530257508571026
 20
39.9089382009217886
 30
0.0
 11
475.846332837457112
 21
39.9089324407217916
 31
0.0
  0
LINE
  5
FD48
  8
0
 10
476.0530257508571026
 20
41.2494836218217884
 30
0.0
 11
476.0727107902571902
 21
41.2691686612217765
 31
0.0
  0
LINE
  5
FD49
  8
0
 10
476.0727107902571902
 20
41.2691686612217765
 30
0.0
 11
477.2341281130571815
 21
41.2691686612217765
 31
0.0
  0
LINE
  5
FD4A
  8
0
 10
477.2341281130571815
 20
41.2691686612217765
 30
0.0
 11
477.2538131524570986
 21
41.2494836218217884
 31
0.0
  0
LINE
  5
FD4B
  8
0
 10
477.2538131524570986
 20
41.2494836218217884
 30
0.0
 11
477.2538131524570986
 21
39.9109013148217926
 31
0.0
  0
ARC
  5
FD4C
  8
0
 10
477.211838602436103
 20
41.2682999852973467
 30
0.0
 40
0.0008772841883909
 50
98.0330603583570337
 51
162.2044615682954998
  0
ARC
  5
FD4D
  8
0
 10
477.2134356406917846
 20
41.2680072041872208
 30
0.0
 40
0.0024961809122849
 50
167.0146239474277934
 51
196.7549070296639115
  0
ARC
  5
FD4E
  8
0
 10
477.2220386218164094
 20
41.2702437600379071
 30
0.0
 40
0.0113837195966339
 50
195.0512096940991
 51
207.7178495484261873
  0
ARC
  5
FD4F
  8
0
 10
477.0480267187140271
 20
41.1768633291217796
 30
0.0
 40
0.1861010396594093
 50
331.7498680463116898
 51
28.2501319536883386
  0
ARC
  5
FD50
  8
0
 10
477.2278793687361258
 20
41.0830134898217878
 30
0.0
 40
0.0169296758452442
 50
160.094010178679099
 51
199.905989821315103
  0
ARC
  5
FD51
  8
0
 10
476.6979911985674221
 20
40.9246804721715307
 30
0.0
 40
0.5361365597673873
 50
343.4668018881033049
 51
16.5331981095901099
  0
ARC
  5
FD52
  8
0
 10
477.2416802242707945
 20
40.7642376183717872
 30
0.0
 40
0.0307444408490081
 50
165.1605222853974908
 51
194.8394777145981038
  0
LINE
  5
FD53
  8
0
 10
477.2119611980569971
 20
41.2649489888219492
 30
0.0
 11
476.0948777052524861
 21
41.2649489888123071
 31
0.0
  0
LINE
  5
FD54
  8
0
 10
476.0948777052666969
 20
41.0887776694217806
 30
0.0
 11
477.2119611980571108
 21
41.0887776694217806
 31
0.0
  0
LINE
  5
FD55
  8
0
 10
477.211961198063193
 20
41.0772493102006067
 30
0.0
 11
476.0948777052511218
 21
41.0772493102005996
 31
0.0
  0
LINE
  5
FD56
  8
0
 10
476.0948777052803962
 20
40.7721116340406269
 30
0.0
 11
477.2119611980577929
 21
40.7721116341243572
 31
0.0
  0
LINE
  5
FD57
  8
0
 10
476.0948777052570904
 20
40.7563636026217893
 30
0.0
 11
477.2119611980571108
 21
40.7563636026217893
 31
0.0
  0
ARC
  5
FD58
  8
0
 10
476.0950003008780982
 20
39.8920903413462185
 30
0.0
 40
0.0008772841883909
 50
278.0330603583569768
 51
342.2044615682955282
  0
ARC
  5
FD59
  8
0
 10
476.0934032626224734
 20
39.8923831224563514
 30
0.0
 40
0.0024961809122849
 50
347.0146239474278218
 51
16.7549070296639115
  0
ARC
  5
FD5A
  8
0
 10
476.0848002814979054
 20
39.8901465666056581
 30
0.0
 40
0.0113837195966339
 50
15.0512096940995193
 51
27.7178495484261802
  0
ARC
  5
FD5B
  8
0
 10
476.2588121846002878
 20
39.9835269975217784
 30
0.0
 40
0.1861010396594093
 50
151.7498680463116045
 51
208.2501319536883102
  0
ARC
  5
FD5C
  8
0
 10
476.0789595345781891
 20
40.0773768368217773
 30
0.0
 40
0.0169296758452442
 50
340.0940101786791274
 51
19.9059898213151705
  0
ARC
  5
FD5D
  8
0
 10
476.6088477047467791
 20
40.2357098544720273
 30
0.0
 40
0.5361365597673873
 50
163.4668018881031912
 51
196.5331981095901028
  0
ARC
  5
FD5E
  8
0
 10
476.0651586790435204
 20
40.396152708271778
 30
0.0
 40
0.0307444408490081
 50
345.1605222853975192
 51
14.8394777145984893
  0
LINE
  5
FD5F
  8
0
 10
476.0530257508571026
 20
39.9109067048217767
 30
0.0
 11
476.0727107902571902
 21
39.8912216654217815
 31
0.0
  0
LINE
  5
FD60
  8
0
 10
476.0727107902571902
 20
39.8912216654217815
 30
0.0
 11
477.2341281130571815
 21
39.8912216654217815
 31
0.0
  0
LINE
  5
FD61
  8
0
 10
477.2341281130571815
 20
39.8912216654217815
 30
0.0
 11
477.2538131524570986
 21
39.9109067048217767
 31
0.0
  0
ARC
  5
FD62
  8
0
 10
477.211838602436103
 20
39.8920903413462185
 30
0.0
 40
0.0008772841883909
 50
197.7955384317039886
 51
261.9669396416429095
  0
ARC
  5
FD63
  8
0
 10
477.2134356406917846
 20
39.8923831224563514
 30
0.0
 40
0.0024961809122849
 50
163.2450929703360885
 51
192.9853760525722066
  0
ARC
  5
FD64
  8
0
 10
477.2220386218164094
 20
39.8901465666056581
 30
0.0
 40
0.0113837195966339
 50
152.2821504515738127
 51
164.9487903059009
  0
ARC
  5
FD65
  8
0
 10
477.0480267187140271
 20
39.9835269975217784
 30
0.0
 40
0.1861010396594093
 50
331.7498680463116898
 51
28.2501319536883386
  0
ARC
  5
FD66
  8
0
 10
477.2278793687361258
 20
40.0773768368217773
 30
0.0
 40
0.0169296758452442
 50
160.0940101786848118
 51
199.905989821320901
  0
ARC
  5
FD67
  8
0
 10
476.6979911985674221
 20
40.2357098544720273
 30
0.0
 40
0.5361365597673873
 50
343.4668018904098972
 51
16.5331981118967803
  0
ARC
  5
FD68
  8
0
 10
477.2416802242707945
 20
40.396152708271778
 30
0.0
 40
0.0307444408490081
 50
165.1605222854018962
 51
194.8394777146023955
  0
LINE
  5
FD69
  8
0
 10
477.2119611980569971
 20
39.8954413378216088
 30
0.0
 11
476.0948777052524861
 21
39.895441337831258
 31
0.0
  0
LINE
  5
FD6A
  8
0
 10
476.0948777052666969
 20
40.0716126572217775
 30
0.0
 11
477.2119611980571108
 21
40.0716126572217775
 31
0.0
  0
LINE
  5
FD6B
  8
0
 10
477.211961198063193
 20
40.0831410164429585
 30
0.0
 11
476.0948777052511218
 21
40.0831410164429727
 31
0.0
  0
LINE
  5
FD6C
  8
0
 10
476.0948777052803962
 20
40.3882786926029382
 30
0.0
 11
477.2119611980577929
 21
40.3882786925192008
 31
0.0
  0
LINE
  5
FD6D
  8
0
 10
476.0948777052570904
 20
40.404026724021783
 30
0.0
 11
477.2119611980571108
 21
40.4040267240217901
 31
0.0
  0
ARC
  5
FD6E
  8
0
 10
476.783831194646325
 20
40.5801951633217897
 30
0.0
 40
0.7111204043950177
 50
165.6565594736833873
 51
194.3434405263205065
  0
ARC
  5
FD6F
  8
0
 10
476.5230077086679898
 20
40.5801951633217897
 30
0.0
 40
0.711120404395
 50
345.656559473679124
 51
14.3434405263209008
  0
LINE
  5
FD70
  8
0
 10
475.7038131524570872
 20
39.9207436515518523
 30
0.0
 11
475.7161158148571189
 21
39.9207436494217873
 31
0.0
  0
ENDSEC
  0
EOF
