  0
SECTION
  2
HEADER
  9
$ACADVER
  1
AC1009
  9
$INSBASE
 10
3948.6955519682001068
 20
67.3087223835430564
 30
0.0
  9
$EXTMIN
 10
3944.8546324457820447
 20
62.4893389081655926
 30
-0.0000000349181948
  9
$EXTMAX
 10
3952.392989147615026
 20
70.8521720582925241
 30
0.0000000814935746
  9
$LIMMIN
 10
0.0
 20
0.0
  9
$LIMMAX
 10
11.6929133858000007
 20
8.2677165353999982
  9
$ORTHOMODE
 70
     0
  9
$REGENMODE
 70
     1
  9
$FILLMODE
 70
     1
  9
$QTEXTMODE
 70
     0
  9
$MIRRTEXT
 70
     0
  9
$DRAGMODE
 70
     2
  9
$LTSCALE
 40
0.6431102362
  9
$OSMODE
 70
  4095
  9
$ATTMODE
 70
     1
  9
$TEXTSIZE
 40
0.2
  9
$TRACEWID
 40
0.05
  9
$TEXTSTYLE
  7
STANDARD
  9
$CLAYER
  8
0
  9
$CELTYPE
  6
BYLAYER
  9
$CECOLOR
 62
   256
  9
$DIMSCALE
 40
1.0
  9
$DIMASZ
 40
0.1875
  9
$DIMEXO
 40
0.0625
  9
$DIMDLI
 40
0.4443307087
  9
$DIMRND
 40
0.0
  9
$DIMDLE
 40
0.0
  9
$DIMEXE
 40
0.125
  9
$DIMTP
 40
0.01
  9
$DIMTM
 40
0.01
  9
$DIMTXT
 40
2.0
  9
$DIMCEN
 40
0.1052362205
  9
$DIMTSZ
 40
0.0
  9
$DIMTOL
 70
     1
  9
$DIMLIM
 70
     0
  9
$DIMTIH
 70
     1
  9
$DIMTOH
 70
     1
  9
$DIMSE1
 70
     0
  9
$DIMSE2
 70
     0
  9
$DIMTAD
 70
     0
  9
$DIMZIN
 70
     0
  9
$DIMBLK
  1

  9
$DIMASO
 70
     1
  9
$DIMSHO
 70
     1
  9
$DIMPOST
  1
\X
  9
$DIMAPOST
  1

  9
$DIMALT
 70
     1
  9
$DIMALTD
 70
     2
  9
$DIMALTF
 40
25.3999999999999986
  9
$DIMLFAC
 40
1.0
  9
$DIMTOFL
 70
     0
  9
$DIMTVP
 40
0.0
  9
$DIMTIX
 70
     0
  9
$DIMSOXD
 70
     0
  9
$DIMSAH
 70
     0
  9
$DIMBLK1
  1

  9
$DIMBLK2
  1

  9
$DIMSTYLE
  2
STANDARD
  9
$DIMCLRD
 70
     0
  9
$DIMCLRE
 70
     0
  9
$DIMCLRT
 70
     0
  9
$DIMTFAC
 40
1.0
  9
$DIMGAP
 40
0.09
  9
$LUNITS
 70
     2
  9
$LUPREC
 70
     4
  9
$SKETCHINC
 40
0.1
  9
$FILLETRAD
 40
0.0
  9
$AUNITS
 70
     0
  9
$AUPREC
 70
     0
  9
$MENU
  1
.
  9
$ELEVATION
 40
0.0
  9
$PELEVATION
 40
0.0
  9
$THICKNESS
 40
0.0
  9
$LIMCHECK
 70
     0
  9
$BLIPMODE
 70
     0
  9
$CHAMFERA
 40
0.0
  9
$CHAMFERB
 40
0.0
  9
$SKPOLY
 70
     0
  9
$TDCREATE
 40
2458060.468368056230247
  9
$TDUPDATE
 40
2459102.462060185149312
  9
$TDINDWG
 40
0.4178079861
  9
$TDUSRTIMER
 40
0.4178079861
  9
$USRTIMER
 70
     1
  9
$ANGBASE
 50
0.0
  9
$ANGDIR
 70
     0
  9
$PDMODE
 70
     0
  9
$PDSIZE
 40
0.3125
  9
$PLINEWID
 40
0.0
  9
$COORDS
 70
     1
  9
$SPLFRAME
 70
     0
  9
$SPLINETYPE
 70
     6
  9
$SPLINESEGS
 70
     8
  9
$ATTDIA
 70
     1
  9
$ATTREQ
 70
     1
  9
$HANDLING
 70
     1
  9
$HANDSEED
  5
7830
  9
$SURFTAB1
 70
     6
  9
$SURFTAB2
 70
     6
  9
$SURFTYPE
 70
     6
  9
$SURFU
 70
     6
  9
$SURFV
 70
     6
  9
$UCSNAME
  2

  9
$UCSORG
 10
0.0
 20
0.0
 30
0.0
  9
$UCSXDIR
 10
1.0
 20
0.0
 30
0.0
  9
$UCSYDIR
 10
0.0
 20
1.0
 30
0.0
  9
$PUCSNAME
  2

  9
$PUCSORG
 10
0.0
 20
0.0
 30
0.0
  9
$PUCSXDIR
 10
1.0
 20
0.0
 30
0.0
  9
$PUCSYDIR
 10
0.0
 20
1.0
 30
0.0
  9
$USERI1
 70
     0
  9
$USERI2
 70
     0
  9
$USERI3
 70
     0
  9
$USERI4
 70
     0
  9
$USERI5
 70
     0
  9
$USERR1
 40
0.0
  9
$USERR2
 40
0.0
  9
$USERR3
 40
0.0
  9
$USERR4
 40
0.0
  9
$USERR5
 40
0.0
  9
$WORLDVIEW
 70
     1
  9
$SHADEDGE
 70
     3
  9
$SHADEDIF
 70
    70
  9
$TILEMODE
 70
     1
  9
$MAXACTVP
 70
    64
  9
$PLIMCHECK
 70
     0
  9
$PEXTMIN
 10
1.0000000000000000E+20
 20
1.0000000000000000E+20
 30
1.0000000000000000E+20
  9
$PEXTMAX
 10
-1.0000000000000000E+20
 20
-1.0000000000000000E+20
 30
-1.0000000000000000E+20
  9
$PLIMMIN
 10
0.0
 20
0.0
  9
$PLIMMAX
 10
12.0
 20
9.0
  9
$UNITMODE
 70
     0
  9
$VISRETAIN
 70
     1
  9
$PLINEGEN
 70
     0
  9
$PSLTSCALE
 70
     1
  0
ENDSEC
  0
SECTION
  2
TABLES
  0
TABLE
  2
VPORT
 70
     1
  0
VPORT
  2
*ACTIVE
 70
     0
 10
0.0
 20
0.0
 11
1.0
 21
1.0
 12
156.265900640448308
 22
-53.5099009498764104
 13
0.0
 23
0.0
 14
1.0
 24
1.0
 15
0.0
 25
0.0
 16
0.0
 26
0.0
 36
5.1040778033513332
 17
3792.35791015625
 27
120.1806564331053977
 37
0.0
 40
8.4152099757018402
 41
2.005224660397074
 42
50.0
 43
0.0
 44
0.0
 50
0.0
 51
0.0
 71
     0
 72
   100
 73
     1
 74
     1
 75
     0
 76
     0
 77
     0
 78
     0
  0
ENDTAB
  0
TABLE
  2
LTYPE
 70
     2
  0
LTYPE
  2
CONTINUOUS
 70
     0
  3
Solid line
 72
    65
 73
     0
 40
0.0
  0
LTYPE
  2
PHANTOM2
 70
     0
  3
___ _ _ ___ _ _ ___ _ _ ___ _ _
 72
    65
 73
     6
 40
1.25
 49
0.625
 49
-0.125
 49
0.125
 49
-0.125
 49
0.125
 49
-0.125
  0
ENDTAB
  0
TABLE
  2
LAYER
 70
     2
  0
LAYER
  2
0
 70
     0
 62
   255
  6
CONTINUOUS
  0
LAYER
  2
DEFPOINTS
 70
     0
 62
     7
  6
CONTINUOUS
  0
ENDTAB
  0
TABLE
  2
STYLE
 70
     1
  0
STYLE
  2
STANDARD
 70
     0
 40
0.0
 41
0.8
 50
0.0
 71
     0
 42
0.2
  3
txt
  4

  0
ENDTAB
  0
TABLE
  2
VIEW
 70
     0
  0
ENDTAB
  0
TABLE
  2
UCS
 70
     0
  0
ENDTAB
  0
TABLE
  2
APPID
 70
     9
  0
APPID
  2
ACAD
 70
     0
  0
APPID
  2
ACAD_MLEADERVER
 70
     0
  0
APPID
  2
ACAD_EXEMPT_FROM_CAD_STANDARDS
 70
     0
  0
APPID
  2
ACAD_NAV_VCDISPLAY
 70
     0
  0
APPID
  2
ACAECLAYERSTANDARD
 70
     0
  0
APPID
  2
ACCMTRANSPARENCY
 70
     0
  0
APPID
  2
ACAD_DSTYLE_DIMJAG
 70
     0
  0
APPID
  2
ACAD_DSTYLE_DIMTALN
 70
     0
  0
APPID
  2
ACDBATTR
 70
     0
  0
ENDTAB
  0
TABLE
  2
DIMSTYLE
 70
     1
  0
DIMSTYLE
  2
STANDARD
 70
     0
  3

  4

  5

  6

  7

 40
1.0
 41
0.1875
 42
0.0625
 43
0.38
 44
0.125
 45
0.0
 46
0.0
 47
0.01
 48
0.01
140
0.15625
141
0.09
142
0.0
143
25.3999999999999986
144
1.0
145
0.0
146
1.0
147
0.09
 71
     1
 72
     0
 73
     1
 74
     1
 75
     0
 76
     0
 77
     0
 78
     4
170
     0
171
     2
172
     0
173
     0
174
     0
175
     0
176
     0
177
     0
178
     0
  0
ENDTAB
  0
ENDSEC
  0
SECTION
  2
BLOCKS
  0
BLOCK
  8
0
  2
$MODEL_SPACE
 70
     0
 10
0.0
 20
0.0
 30
0.0
  3
$MODEL_SPACE
  1

  0
ENDBLK
  5
21
  8
0
  0
BLOCK
 67
     1
  8
0
  2
$PAPER_SPACE
 70
     0
 10
0.0
 20
0.0
 30
0.0
  3
$PAPER_SPACE
  1

  0
ENDBLK
  5
1D
 67
     1
  8
0
  0
ENDSEC
  0
SECTION
  2
ENTITIES
  0
ATTDEF
  5
3930
  8
DEFPOINTS
 10
3948.6926062504890069
 20
67.3136321799856034
 30
0.0
 40
0.001
  1
K-72820W-4
  3

  2
MODELNUMBER
 70
     0
1001
ACDBATTR
1070
     0
1070
     1
  0
ATTDEF
  5
3931
  8
DEFPOINTS
 10
3948.6926062504890069
 20
67.3119655133189383
 30
0.0
 40
0.001
  1
MODULO
  3

  2
TRADENAME
 70
     0
1001
ACDBATTR
1070
     0
1070
     1
  0
ATTDEF
  5
3932
  8
DEFPOINTS
 10
3948.6926062504890069
 20
67.3102988466522731
 30
0.0
 40
0.001
  1
VALVE TRIM
  3

  2
PRODUCT
 70
     0
1001
ACDBATTR
1070
     0
1070
     1
  0
ARC
  5
76D3
  8
0
 10
3948.6955519660500613
 20
68.9425806516898945
 30
0.0
 40
0.3149606290623605
 50
359.9999999097540808
 51
61.2701567796519413
  0
ARC
  5
76D4
  8
0
 10
3948.6955519651919531
 20
68.9425806512055033
 30
0.0
 40
0.3149606299217094
 50
303.3711322831779853
 51
359.9999999978716119
  0
ARC
  5
76D5
  8
0
 10
3948.6955519665179963
 20
70.2433635818276372
 30
0.0
 40
0.1771653514646419
 50
358.5544646470252133
 51
89.9999994559433674
  0
LINE
  5
76D6
  8
0
 10
3948.8726609363129683
 20
70.238894289093821
 30
0.0
 11
3948.8217223594569987
 21
69.2197415315938258
 31
0.0
  0
LINE
  5
76D7
  8
0
 10
3948.5693816042139588
 20
69.2197415315938258
 30
0.0
 11
3948.5184429891828586
 21
70.2388944577938048
 31
0.0
  0
ARC
  5
76D8
  8
0
 10
3948.6955516828029431
 20
70.2433638552734294
 30
0.0
 40
0.1771650780190679
 50
89.9999077016702245
 51
181.445571470488602
  0
ARC
  5
76D9
  8
0
 10
3948.6955519643761363
 20
68.9425806516898945
 30
0.0
 40
0.3149606290624044
 50
118.7283415406734974
 51
180.0000000902435033
  0
ARC
  5
76DA
  8
0
 10
3948.6955519643938715
 20
68.9425806509935626
 30
0.0
 40
0.3149606290814475
 50
179.9999999635709003
 51
236.6292338848014936
  0
LINE
  5
76DB
  8
0
 10
3948.5479485332130025
 20
69.2197415315938258
 30
0.0
 11
3948.8431546275128312
 21
69.2197415315938258
 31
0.0
  0
LINE
  5
76DC
  8
0
 10
3948.8431546275128312
 20
69.2197415315938258
 30
0.0
 11
3948.8469473372229004
 21
69.2187683404937673
 31
0.0
  0
LINE
  5
76DD
  8
0
 10
3948.5441638319280173
 20
69.2187723083587656
 30
0.0
 11
3948.5479485332130025
 21
69.2197415315938258
 31
0.0
  0
ARC
  5
76DE
  8
0
 10
3948.5675907791519421
 20
68.6825754908601596
 30
0.0
 40
0.0196742948176352
 50
192.6980937077281055
 51
227.9846313955613084
  0
ARC
  5
76DF
  8
0
 10
3948.5359956112229156
 20
68.647493852604299
 30
0.0
 40
0.0275377377052525
 50
312.6853472536262188
 51
47.9993541979105487
  0
ARC
  5
76E0
  8
0
 10
3948.5729020901198965
 20
68.6011376819971161
 30
0.0
 40
0.0318510849148066
 50
124.9289684994063947
 51
210.4460814209390094
  0
ARC
  5
76E1
  8
0
 10
3948.6393198414471044
 20
68.6699462699664167
 30
0.0
 40
0.1266060030319754
 50
222.1417130148759895
 51
255.0243344076791914
  0
ARC
  5
76E2
  8
0
 10
3948.7022208258540559
 20
68.9282469793778176
 30
0.0
 40
0.3924334710778298
 50
255.897831921350587
 51
269.0262911041328948
  0
ARC
  5
76E3
  8
0
 10
3948.5266360298619475
 20
68.686124858976271
 30
0.0
 40
0.0078740516047549
 50
236.6424542559967108
 51
270.0502004406026799
  0
ARC
  5
76E4
  8
0
 10
3948.823513151275165
 20
68.6825754908601454
 30
0.0
 40
0.0196742948176362
 50
312.0153686044395727
 51
347.3019062922770104
  0
ARC
  5
76E5
  8
0
 10
3948.8551083192041915
 20
68.647493852604299
 30
0.0
 40
0.0275377377052525
 50
132.0006458020891955
 51
227.3146527463734969
  0
ARC
  5
76E6
  8
0
 10
3948.8182018403058464
 20
68.6011376819971161
 30
0.0
 40
0.0318510849148066
 50
329.553918579061019
 51
55.0710315005935627
  0
ARC
  5
76E7
  8
0
 10
3948.7517840889800027
 20
68.6699462699664167
 30
0.0
 40
0.1266060030319754
 50
284.9756655923208086
 51
317.858286985123982
  0
ARC
  5
76E8
  8
0
 10
3948.6894664672167892
 20
68.9238384592720621
 30
0.0
 40
0.3880160071509218
 50
270.8986424291301205
 51
284.1772345453634898
  0
ARC
  5
76E9
  8
0
 10
3948.8644679004269165
 20
68.6861248593603193
 30
0.0
 40
0.0078740519886738
 50
269.9498005639262033
 51
303.3721874388310198
  0
LINE
  5
76EA
  8
0
 10
3948.5266429288130894
 20
68.6782508103938198
 30
0.0
 11
3948.8644610016131082
 21
68.6782508103938198
 31
0.0
  0
ARC
  5
76EB
  8
0
 10
3948.6955519682001068
 20
67.3087223835430564
 30
0.0
 40
3.543307086550775
 50
275.3465285156997879
 51
264.6539801109254881
  0
ARC
  5
76EC
  8
0
 10
3948.6955501930419814
 20
67.3087223833938282
 30
0.0
 40
3.2712343312000001
 50
275.458575314090524
 51
264.5420376945597809
  0
ARC
  5
76ED
  8
0
 10
3948.6955519682001068
 20
68.9425806512922748
 30
0.0
 40
0.6692913385000026
 50
102.5100131372428933
 51
77.4899854499073655
  0
ARC
  5
76EE
  8
0
 10
3948.6955519682001068
 20
68.9425806512922748
 30
0.0
 40
0.5115277638620211
 50
105.5291941828755
 51
74.4708034119546198
  0
ARC
  5
76EF
  8
0
 10
3948.6955519682001068
 20
68.9425806512922748
 30
0.0
 40
0.6988171244807642
 50
102.0986956618401962
 51
77.9013030589970015
  0
LINE
  5
76F0
  8
0
 10
3948.5939614855419677
 20
62.4939743518938329
 30
0.0
 11
3948.7971389005429046
 21
62.4939743518938329
 31
0.0
  0
LINE
  5
76F1
  8
0
 10
3948.4805124318390881
 20
62.5918500307938288
 30
0.0
 11
3948.9106230273469009
 21
62.5918500307938288
 31
0.0
  0
LINE
  5
76F2
  8
0
 10
3948.9522684038151965
 20
62.6702039499938266
 30
0.0
 11
3948.4388670553689735
 21
62.6702039499938266
 31
0.0
  0
LINE
  5
76F3
  8
0
 10
3948.3116176832290876
 20
62.8128865220938266
 30
0.0
 11
3949.079517775955992
 21
62.8128865220938266
 31
0.0
  0
LINE
  5
76F4
  8
0
 10
3948.2822664594527851
 20
62.8859010636938294
 30
0.0
 11
3949.1088689997309302
 21
62.8859010636938223
 31
0.0
  0
LINE
  5
76F5
  8
0
 10
3948.2822664594527851
 20
63.1359010636938223
 30
0.0
 11
3949.1088689997309302
 21
63.1359010636938223
 31
0.0
  0
LINE
  5
76F6
  8
0
 10
3948.3078563668368588
 20
63.2076590322938188
 30
0.0
 11
3949.0832790923468565
 21
63.2076590322938188
 31
0.0
  0
LINE
  5
76F7
  8
0
 10
3948.4157472580559443
 20
64.7880706602938261
 30
0.0
 11
3948.9753882011291353
 21
64.7880706602938261
 31
0.0
  0
LINE
  5
76F8
  8
0
 10
3948.4555677296420981
 20
62.6214210294938312
 30
0.0
 11
3948.4555677296420981
 21
62.643302926593833
 31
0.0
  0
LINE
  5
76F9
  8
0
 10
3948.3271564706437857
 20
63.233621119320901
 30
0.0
 11
3948.4337818966419036
 21
64.7584357510822315
 31
0.0
  0
LINE
  5
76FA
  8
0
 10
3948.9555677295420537
 20
64.8839743518938263
 30
0.0
 11
3948.4355677296421163
 21
64.8839743518938263
 31
0.0
  0
LINE
  5
76FB
  8
0
 10
3949.0511501694950312
 20
65.0716957172938208
 30
0.0
 11
3948.3399852896900484
 21
65.0716957172938208
 31
0.0
  0
LINE
  5
76FC
  8
0
 10
3949.0639789885422033
 20
63.2336211192938293
 30
0.0
 11
3948.9573535625431759
 21
64.7584357510938275
 31
0.0
  0
ARC
  5
76FD
  8
0
 10
3948.325567729641989
 20
63.0109010636938223
 30
0.0
 40
0.1
 50
122.2042275029421035
 51
237.7957724970578965
  0
ARC
  5
76FE
  8
0
 10
3948.325567729641989
 20
63.160901063693828
 30
0.0
 40
0.05
 50
110.7460922029074055
 51
210.0000000009841017
  0
ARC
  5
76FF
  8
0
 10
3948.325567729641989
 20
62.8609010636938166
 30
0.0
 40
0.05
 50
149.999999999015813
 51
253.7994138500042993
  0
ARC
  5
7700
  8
0
 10
3948.2972295490130819
 20
63.2357138135417429
 30
0.0
 40
0.0300000001324438
 50
290.7460922029073913
 51
356.0000000002469847
  0
ARC
  5
7701
  8
0
 10
3948.2562856973418093
 20
63.1209010636938288
 30
0.0
 40
0.03
 50
302.2042275029427856
 51
30.0000000009844996
  0
ARC
  5
7702
  8
0
 10
3948.2562856973418093
 20
62.9009010636938228
 30
0.0
 40
0.03
 50
329.999999999015472
 51
57.7957724970572073
  0
ARC
  5
7703
  8
0
 10
3948.3032476552430126
 20
62.7840777971938167
 30
0.0
 40
0.03
 50
22.0358581851590607
 51
73.799413850004342
  0
ARC
  5
7704
  8
0
 10
3948.4255677296428075
 20
62.643302926593833
 30
0.0
 40
0.03
 50
0.0
 51
61.653654866393083
  0
ARC
  5
7705
  8
0
 10
3948.4855677296432077
 20
62.6214210294938312
 30
0.0
 40
0.03
 50
180.0
 51
260.2988082937196737
  0
ARC
  5
7706
  8
0
 10
3948.4223699071199007
 20
65.3094003109330998
 30
0.0
 40
0.0804053153964732
 50
353.1022267590362844
 51
60.0519826792866525
  0
ARC
  5
7707
  8
0
 10
3948.4355677296421163
 20
64.8339743518938292
 30
0.0
 40
0.0499999999999998
 50
90.0
 51
246.6447666786712887
  0
ARC
  5
7708
  8
0
 10
3948.4038549751430764
 20
64.7605284452938292
 30
0.0
 40
0.03
 50
356.0000000002469847
 51
66.6483069434773796
  0
ARC
  5
7709
  8
0
 10
3948.5939614855419677
 20
62.5239743518938269
 30
0.0
 40
0.03
 50
197.4646231061134074
 51
270.0
  0
ARC
  5
770A
  8
0
 10
3948.9685104978470918
 20
65.3096148055104777
 30
0.0
 40
0.0801776304756229
 50
121.678821879035695
 51
187.0644722220588108
  0
ARC
  5
770B
  8
0
 10
3948.4652591301328357
 20
62.4897755251999811
 30
0.0
 40
0.1032078868069062
 50
14.1299552773093104
 51
81.5010069441781866
  0
ARC
  5
770C
  8
0
 10
3948.5453440431629133
 20
62.8709534099288376
 30
0.0
 40
0.2272392892828732
 50
199.4374150322221055
 51
242.3279243981172044
  0
ARC
  5
770D
  8
0
 10
3948.347208231769855
 20
65.0468335047472692
 30
0.0
 40
0.0258862256123536
 50
118.2438476373980052
 51
195.1172772763246996
  0
ARC
  5
770E
  8
0
 10
3948.2366725818228588
 20
65.3168932148495855
 30
0.0
 40
0.2660739153210621
 50
291.6781398754706061
 51
356.3045146661041258
  0
ARC
  5
770F
  8
0
 10
3948.4877556573019319
 20
65.0323509510788256
 30
0.0
 40
0.1572869828660188
 50
205.0025309172206107
 51
250.6218941511139064
  0
ARC
  5
7710
  8
0
 10
3948.5674671236579343
 20
65.0753945384469006
 30
0.0
 40
0.2477784488619854
 50
188.193381948188005
 51
206.2326314567833947
  0
LINE
  5
7711
  8
0
 10
3948.9355677295420719
 20
62.6214210294938312
 30
0.0
 11
3948.9355677295420719
 21
62.643302926593833
 31
0.0
  0
ARC
  5
7712
  8
0
 10
3949.065567729542181
 20
63.0109010636938223
 30
0.0
 40
0.1
 50
302.2042275029422171
 51
57.7957724970578681
  0
ARC
  5
7713
  8
0
 10
3949.065567729542181
 20
63.160901063693828
 30
0.0
 40
0.05
 50
329.9999999990159267
 51
69.2539077970925803
  0
ARC
  5
7714
  8
0
 10
3949.065567729542181
 20
62.8609010636938166
 30
0.0
 40
0.05
 50
286.2005861499956723
 51
30.0000000009841514
  0
ARC
  5
7715
  8
0
 10
3949.0939059101710882
 20
63.2357138135417429
 30
0.0
 40
0.0300000001324438
 50
183.9999999997529869
 51
249.2539077970926087
  0
ARC
  5
7716
  8
0
 10
3949.1348497618428155
 20
63.1209010636938288
 30
0.0
 40
0.03
 50
149.9999999990155004
 51
237.795772497057186
  0
ARC
  5
7717
  8
0
 10
3949.1348497618428155
 20
62.9009010636938228
 30
0.0
 40
0.03
 50
122.2042275029427998
 51
210.0000000009844996
  0
ARC
  5
7718
  8
0
 10
3949.0878878039429765
 20
62.7840777971938167
 30
0.0
 40
0.03
 50
106.2005861499957007
 51
157.9641418148409002
  0
ARC
  5
7719
  8
0
 10
3948.9655677295431815
 20
62.643302926593833
 30
0.0
 40
0.03
 50
118.3463451336071017
 51
180.0
  0
ARC
  5
771A
  8
0
 10
3948.9055677295427813
 20
62.6214210294938312
 30
0.0
 40
0.03
 50
279.7011917062803263
 51
0.0
  0
ARC
  5
771B
  8
0
 10
3948.9555677295420537
 20
64.8339743518938292
 30
0.0
 40
0.0499999999999998
 50
293.3552333213287966
 51
90.0
  0
ARC
  5
771C
  8
0
 10
3948.9872804840420031
 20
64.7605284452938292
 30
0.0
 40
0.03
 50
113.3516930565226062
 51
183.9999999997529869
  0
ARC
  5
771D
  8
0
 10
3948.7971739736431118
 20
62.5239743518938269
 30
0.0
 40
0.03
 50
270.0
 51
342.535376893886621
  0
ARC
  5
771E
  8
0
 10
3948.9258763290508796
 20
62.4897755251999811
 30
0.0
 40
0.1032078868069062
 50
98.4989930558218418
 51
165.8700447226906931
  0
ARC
  5
771F
  8
0
 10
3948.845791416020802
 20
62.8709534099288376
 30
0.0
 40
0.2272392892828732
 50
297.6720756018827956
 51
340.5625849677778092
  0
ARC
  5
7720
  8
0
 10
3949.1544628773622208
 20
65.3168932148495855
 30
0.0
 40
0.2660739153210621
 50
183.6932635658828872
 51
248.2933119294723099
  0
ARC
  5
7721
  8
0
 10
3948.9033798018831476
 20
65.0323509510788256
 30
0.0
 40
0.1572869828660188
 50
289.3781058488860936
 51
334.9974690827793893
  0
ARC
  5
7722
  8
0
 10
3948.8236683355271452
 20
65.0753945384469006
 30
0.0
 40
0.2477784488619854
 50
333.7673685432166053
 51
351.867411114678589
  0
ARC
  5
7723
  8
0
 10
3948.6955501953689236
 20
65.7929752339609024
 30
0.0
 40
0.4750007697553137
 50
299.0785727609297737
 51
240.6192207547159967
  0
CIRCLE
  5
7724
  8
0
 10
3948.6955501930419814
 20
65.7929743518938324
 30
0.0
 40
0.3448074624000004
  0
CIRCLE
  5
7725
  8
0
 10
3948.6955519682001068
 20
65.7929743518938324
 30
0.0
 40
0.3837079315144375
  0
ARC
  5
7726
  8
0
 10
3948.6955501930419814
 20
65.7929743518938324
 30
0.0
 40
0.8956692912999994
 50
293.1473681985758049
 51
246.8556906783018121
  0
ARC
  5
7727
  8
0
 10
3948.6955501916431786
 20
65.7930287664741229
 30
0.0
 40
0.8661043866850991
 50
295.0457024917664057
 51
244.9572458753729904
  0
ARC
  5
7728
  8
0
 10
3948.6955501930419814
 20
65.7929743518938324
 30
0.0
 40
0.7081505484999996
 50
291.8826162958479244
 51
248.1196110702057922
  0
ARC
  5
7729
  8
0
 10
3949.0438957046299038
 20
65.0468335047472692
 30
0.0
 40
0.0258862256123536
 50
345.4785491694302095
 51
61.9862073337711905
  0
ENDSEC
  0
EOF
