  0
SECTION
  2
HEADER
  9
$ACADVER
  1
AC1009
  9
$INSBASE
 10
3955.1659059799681017
 20
67.5071729847299764
 30
0.0
  9
$EXTMIN
 10
3950.5596422003691259
 20
62.6924249530807387
 30
0.0
  9
$EXTMAX
 10
3955.1778440480029531
 20
71.0504800712807452
 30
0.0
  9
$LIMMIN
 10
0.0
 20
0.0
  9
$LIMMAX
 10
11.6929133858000007
 20
8.2677165353999982
  9
$ORTHOMODE
 70
     0
  9
$REGENMODE
 70
     1
  9
$FILLMODE
 70
     1
  9
$QTEXTMODE
 70
     0
  9
$MIRRTEXT
 70
     0
  9
$DRAGMODE
 70
     2
  9
$LTSCALE
 40
0.6431102362
  9
$OSMODE
 70
  4095
  9
$ATTMODE
 70
     1
  9
$TEXTSIZE
 40
0.2
  9
$TRACEWID
 40
0.05
  9
$TEXTSTYLE
  7
STANDARD
  9
$CLAYER
  8
0
  9
$CELTYPE
  6
BYLAYER
  9
$CECOLOR
 62
   256
  9
$DIMSCALE
 40
1.0
  9
$DIMASZ
 40
0.1875
  9
$DIMEXO
 40
0.0625
  9
$DIMDLI
 40
0.4443307087
  9
$DIMRND
 40
0.0
  9
$DIMDLE
 40
0.0
  9
$DIMEXE
 40
0.125
  9
$DIMTP
 40
0.01
  9
$DIMTM
 40
0.01
  9
$DIMTXT
 40
2.0
  9
$DIMCEN
 40
0.1052362205
  9
$DIMTSZ
 40
0.0
  9
$DIMTOL
 70
     1
  9
$DIMLIM
 70
     0
  9
$DIMTIH
 70
     1
  9
$DIMTOH
 70
     1
  9
$DIMSE1
 70
     0
  9
$DIMSE2
 70
     0
  9
$DIMTAD
 70
     0
  9
$DIMZIN
 70
     0
  9
$DIMBLK
  1

  9
$DIMASO
 70
     1
  9
$DIMSHO
 70
     1
  9
$DIMPOST
  1
\X
  9
$DIMAPOST
  1

  9
$DIMALT
 70
     1
  9
$DIMALTD
 70
     2
  9
$DIMALTF
 40
25.3999999999999986
  9
$DIMLFAC
 40
1.0
  9
$DIMTOFL
 70
     0
  9
$DIMTVP
 40
0.0
  9
$DIMTIX
 70
     0
  9
$DIMSOXD
 70
     0
  9
$DIMSAH
 70
     0
  9
$DIMBLK1
  1

  9
$DIMBLK2
  1

  9
$DIMSTYLE
  2
STANDARD
  9
$DIMCLRD
 70
     0
  9
$DIMCLRE
 70
     0
  9
$DIMCLRT
 70
     0
  9
$DIMTFAC
 40
1.0
  9
$DIMGAP
 40
0.09
  9
$LUNITS
 70
     2
  9
$LUPREC
 70
     4
  9
$SKETCHINC
 40
0.1
  9
$FILLETRAD
 40
0.0
  9
$AUNITS
 70
     0
  9
$AUPREC
 70
     0
  9
$MENU
  1
.
  9
$ELEVATION
 40
0.0
  9
$PELEVATION
 40
0.0
  9
$THICKNESS
 40
0.0
  9
$LIMCHECK
 70
     0
  9
$BLIPMODE
 70
     0
  9
$CHAMFERA
 40
0.0
  9
$CHAMFERB
 40
0.0
  9
$SKPOLY
 70
     0
  9
$TDCREATE
 40
2458060.468368056230247
  9
$TDUPDATE
 40
2459102.459444445092231
  9
$TDINDWG
 40
0.4197408565
  9
$TDUSRTIMER
 40
0.4197408565
  9
$USRTIMER
 70
     1
  9
$ANGBASE
 50
0.0
  9
$ANGDIR
 70
     0
  9
$PDMODE
 70
     0
  9
$PDSIZE
 40
0.3125
  9
$PLINEWID
 40
0.0
  9
$COORDS
 70
     1
  9
$SPLFRAME
 70
     0
  9
$SPLINETYPE
 70
     6
  9
$SPLINESEGS
 70
     8
  9
$ATTDIA
 70
     1
  9
$ATTREQ
 70
     1
  9
$HANDLING
 70
     1
  9
$HANDSEED
  5
7B70
  9
$SURFTAB1
 70
     6
  9
$SURFTAB2
 70
     6
  9
$SURFTYPE
 70
     6
  9
$SURFU
 70
     6
  9
$SURFV
 70
     6
  9
$UCSNAME
  2

  9
$UCSORG
 10
0.0
 20
0.0
 30
0.0
  9
$UCSXDIR
 10
1.0
 20
0.0
 30
0.0
  9
$UCSYDIR
 10
0.0
 20
1.0
 30
0.0
  9
$PUCSNAME
  2

  9
$PUCSORG
 10
0.0
 20
0.0
 30
0.0
  9
$PUCSXDIR
 10
1.0
 20
0.0
 30
0.0
  9
$PUCSYDIR
 10
0.0
 20
1.0
 30
0.0
  9
$USERI1
 70
     0
  9
$USERI2
 70
     0
  9
$USERI3
 70
     0
  9
$USERI4
 70
     0
  9
$USERI5
 70
     0
  9
$USERR1
 40
0.0
  9
$USERR2
 40
0.0
  9
$USERR3
 40
0.0
  9
$USERR4
 40
0.0
  9
$USERR5
 40
0.0
  9
$WORLDVIEW
 70
     1
  9
$SHADEDGE
 70
     3
  9
$SHADEDIF
 70
    70
  9
$TILEMODE
 70
     1
  9
$MAXACTVP
 70
    64
  9
$PLIMCHECK
 70
     0
  9
$PEXTMIN
 10
1.0000000000000000E+20
 20
1.0000000000000000E+20
 30
1.0000000000000000E+20
  9
$PEXTMAX
 10
-1.0000000000000000E+20
 20
-1.0000000000000000E+20
 30
-1.0000000000000000E+20
  9
$PLIMMIN
 10
0.0
 20
0.0
  9
$PLIMMAX
 10
12.0
 20
9.0
  9
$UNITMODE
 70
     0
  9
$VISRETAIN
 70
     1
  9
$PLINEGEN
 70
     0
  9
$PSLTSCALE
 70
     1
  0
ENDSEC
  0
SECTION
  2
TABLES
  0
TABLE
  2
VPORT
 70
     1
  0
VPORT
  2
*ACTIVE
 70
     0
 10
0.0
 20
0.0
 11
1.0
 21
1.0
 12
160.5108329679356132
 22
-53.3092039209247304
 13
0.0
 23
0.0
 14
1.0
 24
1.0
 15
0.0
 25
0.0
 16
0.0
 26
0.0
 36
5.1040778033513332
 17
3792.35791015625
 27
120.1806564331053977
 37
0.0
 40
8.4104020187315172
 41
2.005224660397074
 42
50.0
 43
0.0
 44
0.0
 50
0.0
 51
0.0
 71
     0
 72
   100
 73
     1
 74
     1
 75
     0
 76
     0
 77
     0
 78
     0
  0
ENDTAB
  0
TABLE
  2
LTYPE
 70
     2
  0
LTYPE
  2
CONTINUOUS
 70
     0
  3
Solid line
 72
    65
 73
     0
 40
0.0
  0
LTYPE
  2
PHANTOM2
 70
     0
  3
___ _ _ ___ _ _ ___ _ _ ___ _ _
 72
    65
 73
     6
 40
1.25
 49
0.625
 49
-0.125
 49
0.125
 49
-0.125
 49
0.125
 49
-0.125
  0
ENDTAB
  0
TABLE
  2
LAYER
 70
     2
  0
LAYER
  2
0
 70
     0
 62
   255
  6
CONTINUOUS
  0
LAYER
  2
DEFPOINTS
 70
     0
 62
     7
  6
CONTINUOUS
  0
ENDTAB
  0
TABLE
  2
STYLE
 70
     1
  0
STYLE
  2
STANDARD
 70
     0
 40
0.0
 41
0.8
 50
0.0
 71
     0
 42
0.2
  3
txt
  4

  0
ENDTAB
  0
TABLE
  2
VIEW
 70
     0
  0
ENDTAB
  0
TABLE
  2
UCS
 70
     0
  0
ENDTAB
  0
TABLE
  2
APPID
 70
     9
  0
APPID
  2
ACAD
 70
     0
  0
APPID
  2
ACAD_MLEADERVER
 70
     0
  0
APPID
  2
ACAD_EXEMPT_FROM_CAD_STANDARDS
 70
     0
  0
APPID
  2
ACAD_NAV_VCDISPLAY
 70
     0
  0
APPID
  2
ACAECLAYERSTANDARD
 70
     0
  0
APPID
  2
ACCMTRANSPARENCY
 70
     0
  0
APPID
  2
ACAD_DSTYLE_DIMJAG
 70
     0
  0
APPID
  2
ACAD_DSTYLE_DIMTALN
 70
     0
  0
APPID
  2
ACDBATTR
 70
     0
  0
ENDTAB
  0
TABLE
  2
DIMSTYLE
 70
     1
  0
DIMSTYLE
  2
STANDARD
 70
     0
  3

  4

  5

  6

  7

 40
1.0
 41
0.1875
 42
0.0625
 43
0.38
 44
0.125
 45
0.0
 46
0.0
 47
0.01
 48
0.01
140
0.15625
141
0.09
142
0.0
143
25.3999999999999986
144
1.0
145
0.0
146
1.0
147
0.09
 71
     1
 72
     0
 73
     1
 74
     1
 75
     0
 76
     0
 77
     0
 78
     4
170
     0
171
     2
172
     0
173
     0
174
     0
175
     0
176
     0
177
     0
178
     0
  0
ENDTAB
  0
ENDSEC
  0
SECTION
  2
BLOCKS
  0
BLOCK
  8
0
  2
$MODEL_SPACE
 70
     0
 10
0.0
 20
0.0
 30
0.0
  3
$MODEL_SPACE
  1

  0
ENDBLK
  5
21
  8
0
  0
BLOCK
 67
     1
  8
0
  2
$PAPER_SPACE
 70
     0
 10
0.0
 20
0.0
 30
0.0
  3
$PAPER_SPACE
  1

  0
ENDBLK
  5
1D
 67
     1
  8
0
  0
ENDSEC
  0
SECTION
  2
ENTITIES
  0
ATTDEF
  5
3930
  8
DEFPOINTS
 10
3955.1671773813341133
 20
67.5074818930626037
 30
0.0
 40
0.001
  1
K-72819W-4
  3

  2
MODELNUMBER
 70
     0
1001
ACDBATTR
1070
     0
1070
     1
  0
ATTDEF
  5
3931
  8
DEFPOINTS
 10
3955.1671773813341133
 20
67.5058152263959528
 30
0.0
 40
0.001
  1
MODULO
  3

  2
TRADENAME
 70
     0
1001
ACDBATTR
1070
     0
1070
     1
  0
ATTDEF
  5
3932
  8
DEFPOINTS
 10
3955.1671773813341133
 20
67.5041485597292876
 30
0.0
 40
0.001
  1
VALVE TRIM
  3

  2
PRODUCT
 70
     0
1001
ACDBATTR
1070
     0
1070
     1
  0
LINE
  5
78AF
  8
0
 10
3955.1659059799681017
 20
71.0504800712807452
 30
0.0
 11
3955.1659059799681017
 21
63.9638658981791934
 31
0.0
  0
LINE
  5
78B0
  8
0
 10
3955.1659059799681017
 20
63.9638658981791934
 30
0.0
 11
3954.8861934410688264
 21
63.9736336753438621
 31
0.0
  0
LINE
  5
78B1
  8
0
 10
3954.8861934410679169
 20
71.0407122943144884
 30
0.0
 11
3955.1659059799681017
 21
71.0504800712807452
 31
0.0
  0
ARC
  5
78B2
  8
0
 10
3954.8903154213348898
 20
70.9226740245985923
 30
0.0
 40
0.1181102190280108
 50
91.999996634369765
 51
180.0000216762248897
  0
LINE
  5
78B3
  8
0
 10
3954.7722051925679807
 20
70.9226739799149613
 30
0.0
 11
3954.7722051927680695
 21
64.0916719896434444
 31
0.0
  0
ARC
  5
78B4
  8
0
 10
3954.8903154289828308
 20
64.0916719620257567
 30
0.0
 40
0.1181102363152032
 50
179.9999866025424922
 51
267.9999999454557837
  0
ARC
  5
78B5
  8
0
 10
3954.673325074405966
 20
64.137062824470064
 30
0.0
 40
0.0993218996002946
 50
5.406047604091432
 51
84.5677525674709045
  0
ARC
  5
78B6
  8
0
 10
3954.6934650352709468
 20
64.3535598186673781
 30
0.0
 40
0.1181102364027993
 50
179.9999999999878071
 51
264.7840918992890238
  0
LINE
  5
78B7
  8
0
 10
3954.5753547988679202
 20
64.3535598186673781
 30
0.0
 11
3954.5753547989688741
 21
70.6607861233149634
 31
0.0
  0
ARC
  5
78B8
  8
0
 10
3954.6934650351681739
 20
70.6607861511792095
 30
0.0
 40
0.1181102361999809
 50
95.2160567127398565
 51
180.0000135170695046
  0
ARC
  5
78B9
  8
0
 10
3954.6737799960351367
 20
70.8764249530292574
 30
0.0
 40
0.0984251965341666
 50
275.2157306789554809
 51
0.0000001454945502
  0
LINE
  5
78BA
  8
0
 10
3955.1659059797648297
 20
64.00864090917878
 30
0.0
 11
3955.0477957437678924
 21
64.0111734465791926
 31
0.0
  0
LINE
  5
78BB
  8
0
 10
3955.0477957437678924
 20
64.0111734465791926
 30
0.0
 11
3955.0477957437678924
 21
63.9758823896791924
 31
0.0
  0
LINE
  5
78BC
  8
0
 10
3955.0477957437678924
 20
63.9758823896791924
 30
0.0
 11
3955.1659059798180351
 21
63.9710734239502727
 31
0.0
  0
LINE
  5
78BD
  8
0
 10
3952.238578829567814
 20
69.8103225909791831
 30
0.0
 11
3953.7525201531689163
 21
69.8103225909791831
 31
0.0
  0
LINE
  5
78BE
  8
0
 10
3953.8273233027680362
 20
69.8103225909791831
 30
0.0
 11
3954.5753547989547769
 21
69.8103225909791831
 31
0.0
  0
ARC
  5
78BF
  8
0
 10
3952.2385788295569
 20
69.7709525123098189
 30
0.0
 40
0.0393700786693705
 50
89.999999983611346
 51
170.6992840815711929
  0
ARC
  5
78C0
  8
0
 10
3952.1297988899900702
 20
69.7111933619685118
 30
0.0
 40
0.0590551180776641
 50
276.8570917017369766
 51
351.7969882366405159
  0
ARC
  5
78C1
  8
0
 10
3952.1415502027480215
 20
69.6134721973892425
 30
0.0
 40
0.0393700786783539
 50
96.8570916850465835
 51
173.0379367750851998
  0
ARC
  5
78C2
  8
0
 10
3951.9530836133972116
 20
69.455144013246084
 30
0.0
 40
0.1324985874672531
 50
224.5870362742371071
 51
355.5731106971429085
  0
LINE
  5
78C3
  8
0
 10
3952.1882497993401557
 20
69.7027673209526313
 30
0.0
 11
3952.1997263218681837
 21
69.777315352927701
 31
0.0
  0
ARC
  5
78C4
  8
0
 10
3953.7525201529269907
 20
69.8024485750377721
 30
0.0
 40
0.007874016041419
 50
0.0000017566965821
 51
89.9999982433127741
  0
LINE
  5
78C5
  8
0
 10
3953.8273233027680362
 20
69.8103225909791831
 30
0.0
 11
3953.8076382634690162
 21
69.7906375516791968
 31
0.0
  0
LINE
  5
78C6
  8
0
 10
3953.8076382634690162
 20
69.7906375516791968
 30
0.0
 11
3953.8076382634690162
 21
68.4914249532791928
 31
0.0
  0
LINE
  5
78C7
  8
0
 10
3953.8076382634690162
 20
68.4914249532791928
 30
0.0
 11
3953.8273233027680362
 21
68.4717399138793041
 31
0.0
  0
LINE
  5
78C8
  8
0
 10
3953.8273233027680362
 20
68.4717399138793041
 30
0.0
 11
3954.5753547989329491
 21
68.4717399138793041
 31
0.0
  0
ARC
  5
78C9
  8
0
 10
3952.1415502027048205
 20
68.6685903074804003
 30
0.0
 40
0.0393700785850845
 50
186.9620624878585886
 51
263.1429083618231175
  0
ARC
  5
78CA
  8
0
 10
3952.1297988899677875
 20
68.5708691429791912
 30
0.0
 40
0.0590551180999997
 50
8.2030117446582498
 51
83.1429083035115184
  0
ARC
  5
78CB
  8
0
 10
3952.2385788298079206
 20
68.511109992912111
 30
0.0
 40
0.0393700790329163
 50
189.300716886229992
 51
269.9999996506791717
  0
LINE
  5
78CC
  8
0
 10
3952.238578829567814
 20
68.4717399138791905
 30
0.0
 11
3953.7525201531680068
 21
68.4717399139791922
 31
0.0
  0
ARC
  5
78CD
  8
0
 10
3951.9530836133972116
 20
68.8269184917116519
 30
0.0
 40
0.1324985874675437
 50
4.4268893031330734
 51
135.4129637255009015
  0
LINE
  5
78CE
  8
0
 10
3952.1024704143678719
 20
69.6182443280792
 30
0.0
 11
3952.0851869095790789
 21
69.444916852309774
 31
0.0
  0
LINE
  5
78CF
  8
0
 10
3952.0851869095790789
 20
68.8371456526486156
 30
0.0
 11
3952.1024704143560484
 21
68.6638181768814349
 31
0.0
  0
LINE
  5
78D0
  8
0
 10
3952.1024704143678719
 20
69.618244328502243
 30
0.0
 11
3952.1024704143560484
 21
68.6638181768814633
 31
0.0
  0
LINE
  5
78D1
  8
0
 10
3952.1997263218681837
 20
69.7773153529276868
 30
0.0
 11
3952.1997263218681837
 21
68.5047471520306885
 31
0.0
  0
LINE
  5
78D2
  8
0
 10
3952.1882497993437937
 20
68.5792951839791982
 30
0.0
 11
3952.1997263218681837
 21
68.5047471520306885
 31
0.0
  0
LINE
  5
78D3
  8
0
 10
3953.7603941688680607
 20
69.8024485752792003
 30
0.0
 11
3953.7603941689681051
 21
68.4796139296791893
 31
0.0
  0
ARC
  5
78D4
  8
0
 10
3953.7525201529269907
 20
68.4796139299206033
 30
0.0
 40
0.0078740160414181
 50
270.00000175666122
 51
359.9999982476335276
  0
ARC
  5
78D5
  8
0
 10
3951.6344120125631889
 20
69.1410316159331728
 30
0.0
 40
0.3149593039058392
 50
359.999933882314906
 51
61.2719604881554076
  0
ARC
  5
78D6
  8
0
 10
3951.6344106865458343
 20
69.1410312524908761
 30
0.0
 40
0.3149606299217094
 50
303.3711322831779853
 51
359.9999999978716119
  0
ARC
  5
78D7
  8
0
 10
3951.6344106880378604
 20
70.4418141831776268
 30
0.0
 40
0.177165351301567
 50
358.554464624789091
 51
90.0000004751408653
  0
LINE
  5
78D8
  8
0
 10
3951.8115196576682138
 20
70.4373448903791939
 30
0.0
 11
3951.7605810808117894
 21
69.4181921328791987
 31
0.0
  0
LINE
  5
78D9
  8
0
 10
3951.50824032556784
 20
69.4181921328791987
 30
0.0
 11
3951.4573017105390136
 21
70.4373450590791919
 31
0.0
  0
ARC
  5
78DA
  8
0
 10
3951.6344104039931153
 20
70.4418144566234332
 30
0.0
 40
0.1771650778559832
 50
89.9999086142762934
 51
181.4455714927252075
  0
ARC
  5
78DB
  8
0
 10
3951.6344120108751667
 20
69.1410308900112796
 30
0.0
 40
0.3149619542074528
 50
118.7286443795664042
 51
179.9999340622543968
  0
ARC
  5
78DC
  8
0
 10
3951.6344106857500265
 20
69.1410312522789354
 30
0.0
 40
0.3149606290814475
 50
179.9999999635712982
 51
236.6292338848014936
  0
LINE
  5
78DD
  8
0
 10
3951.4868072545677933
 20
69.4181921328791987
 30
0.0
 11
3951.7820133488680767
 21
69.4181921328791987
 31
0.0
  0
ARC
  5
78DE
  8
0
 10
3951.5064495005058234
 20
68.8810260921455182
 30
0.0
 40
0.0196742948176352
 50
192.6980937077285034
 51
227.9846313955613084
  0
ARC
  5
78DF
  8
0
 10
3951.4748543325767969
 20
68.8459444538896577
 30
0.0
 40
0.0275377377052525
 50
312.6853472536262188
 51
47.9993541979105487
  0
ARC
  5
78E0
  8
0
 10
3951.511760811475142
 20
68.7995882832824748
 30
0.0
 40
0.0318510849148066
 50
124.9289684994066931
 51
210.4460814209390094
  0
ARC
  5
78E1
  8
0
 10
3951.5781785628009857
 20
68.8683968712517895
 30
0.0
 40
0.1266060030319754
 50
222.1417130148759895
 51
255.0243344076791914
  0
ARC
  5
78E2
  8
0
 10
3951.6410795472088466
 20
69.1266975806631905
 30
0.0
 40
0.3924334710778298
 50
255.897831921350587
 51
269.0262911041328948
  0
ARC
  5
78E3
  8
0
 10
3951.465494751217193
 20
68.8845754602616438
 30
0.0
 40
0.0078740516047549
 50
236.6424542559967108
 51
270.0502004406026799
  0
ARC
  5
78E4
  8
0
 10
3951.7623718726299558
 20
68.8810260921455182
 30
0.0
 40
0.0196742948176362
 50
312.0153686044395727
 51
347.3019062922770104
  0
ARC
  5
78E5
  8
0
 10
3951.7939670405589823
 20
68.8459444538896577
 30
0.0
 40
0.0275377377052525
 50
132.0006458020895082
 51
227.3146527463734969
  0
ARC
  5
78E6
  8
0
 10
3951.7570605616610919
 20
68.7995882832824748
 30
0.0
 40
0.0318510849148066
 50
329.553918579060678
 51
55.0710315005933211
  0
ARC
  5
78E7
  8
0
 10
3951.6906428103347935
 20
68.8683968712517895
 30
0.0
 40
0.1266060030319754
 50
284.9756655923208086
 51
317.858286985123982
  0
ARC
  5
78E8
  8
0
 10
3951.6283251885720347
 20
69.1222890605574349
 30
0.0
 40
0.3880160071509218
 50
270.8986424291301205
 51
284.1772345453634898
  0
ARC
  5
78E9
  8
0
 10
3951.803326621782162
 20
68.8845754606456921
 30
0.0
 40
0.0078740519886738
 50
269.9498005639262033
 51
303.3721874388310198
  0
LINE
  5
78EA
  8
0
 10
3951.4655016501678801
 20
68.8767014116791927
 30
0.0
 11
3951.803319722967899
 21
68.8767014116791927
 31
0.0
  0
ARC
  5
78EB
  8
0
 10
3951.7820133488680767
 20
69.4103181171792158
 30
0.0
 40
0.0078740156999846
 50
61.2716585829897369
 51
90.0
  0
ARC
  5
78EC
  8
0
 10
3951.4868064853308169
 20
69.4103181162979439
 30
0.0
 40
0.0078740166188291
 50
89.9944025947503548
 51
118.7283409439585995
  0
ARC
  5
78ED
  8
0
 10
3952.0281107043679185
 20
66.6600276377791943
 30
0.0
 40
0.0393700786999993
 50
90.5000000154949049
 51
180.0000000000036096
  0
ARC
  5
78EE
  8
0
 10
3952.0477957438752128
 20
66.7586283711352166
 30
0.0
 40
0.0590551179931763
 50
270.4999999123389216
 51
0.0000000426631972
  0
ARC
  5
78EF
  8
0
 10
3952.1462209405681278
 20
66.8041084312792037
 30
0.0
 40
0.0393700786999993
 50
90.5000000154949049
 51
180.0000000000023874
  0
ARC
  5
78F0
  8
0
 10
3953.7503760962381421
 20
66.8475658613654957
 30
0.0
 40
0.0100183317134993
 50
0.4119802711894677
 51
89.4636066331440105
  0
ARC
  5
78F1
  8
0
 10
3953.8273524709479716
 20
66.8378695644583445
 30
0.0
 40
0.0197142111822428
 50
90.0847720566463437
 51
179.9648866672141025
  0
ARC
  5
78F2
  8
0
 10
3952.8479215047800608
 20
64.3552365308736682
 30
0.0
 40
0.8393216191210017
 50
67.458969181917098
 51
111.5410308577440048
  0
ARC
  5
78F3
  8
0
 10
3952.0281107043679185
 20
65.3228222687791913
 30
0.0
 40
0.0393700786999993
 50
179.9999999999959073
 51
269.4999999845049956
  0
ARC
  5
78F4
  8
0
 10
3952.0477957438752128
 20
65.2242215354231689
 30
0.0
 40
0.0590551179931763
 50
359.9999999573367973
 51
89.5000000876611637
  0
ARC
  5
78F5
  8
0
 10
3952.1462209405681278
 20
65.178741475279196
 30
0.0
 40
0.0393700786999993
 50
179.999999999997101
 51
269.4999999845049956
  0
ARC
  5
78F6
  8
0
 10
3953.750566443021853
 20
65.1351970864864711
 30
0.0
 40
0.0098277372773642
 50
269.412996306543107
 51
0.0870035210677548
  0
ARC
  5
78F7
  8
0
 10
3953.8273233027680362
 20
65.1449682603792013
 30
0.0
 40
0.0196850393999996
 50
188.2935839471784902
 51
270.0
  0
LINE
  5
78F8
  8
0
 10
3951.9887406256680151
 20
66.6600276377791943
 30
0.0
 11
3951.9887406256680151
 21
65.3228222687791913
 31
0.0
  0
LINE
  5
78F9
  8
0
 10
3952.1068508618682245
 20
66.8041084312792037
 30
0.0
 11
3952.1068508618682245
 21
65.1787414751791943
 31
0.0
  0
LINE
  5
78FA
  8
0
 10
3952.1458773761778502
 20
66.8434770108872414
 30
0.0
 11
3953.7504698847901636
 21
66.857583754059533
 31
0.0
  0
LINE
  5
78FB
  8
0
 10
3952.1458773761678458
 20
65.1393728956712437
 30
0.0
 11
3952.5397499457681079
 21
65.1359356217791969
 31
0.0
  0
LINE
  5
78FC
  8
0
 10
3953.1696712057710101
 20
65.1304383821782835
 30
0.0
 11
3953.7504657581680476
 21
65.1253698649791914
 31
0.0
  0
LINE
  5
78FD
  8
0
 10
3953.7603941689681051
 20
66.8476378966792026
 30
0.0
 11
3953.7603941689681051
 21
65.1352120098791971
 31
0.0
  0
LINE
  5
78FE
  8
0
 10
3953.8078441305328852
 20
65.1421287841590413
 30
0.0
 11
3953.8076382634690162
 21
66.8378816461791985
 31
0.0
  0
LINE
  5
78FF
  8
0
 10
3953.7603941689681051
 20
66.7689840083791921
 30
0.0
 11
3953.8076382634690162
 21
66.7689840083791921
 31
0.0
  0
LINE
  5
7900
  8
0
 10
3953.7603941689681051
 20
65.2138658981791934
 30
0.0
 11
3953.8078354208350902
 21
65.2138716576217945
 31
0.0
  0
LINE
  5
7901
  8
0
 10
3953.8273233027680362
 20
65.125283220979199
 30
0.0
 11
3954.5753547988801984
 21
65.125283220979199
 31
0.0
  0
LINE
  5
7902
  8
0
 10
3953.8273233027680362
 20
66.8575837540626452
 30
0.0
 11
3954.5753547989079379
 21
66.8575837540508076
 31
0.0
  0
LINE
  5
7903
  8
0
 10
3953.8076382634690162
 20
69.7217399138791905
 30
0.0
 11
3953.7603941688739724
 21
69.7217399138791905
 31
0.0
  0
LINE
  5
7904
  8
0
 10
3953.8076382634690162
 20
68.5603225909791831
 30
0.0
 11
3953.7603941689621934
 21
68.5603225909756162
 31
0.0
  0
ARC
  5
7905
  8
0
 10
3952.6029139950969693
 20
65.1042664195040715
 30
0.0
 40
0.0196851804261366
 50
180.0003508028759995
 51
269.9996526898415823
  0
ARC
  5
7906
  8
0
 10
3953.1146861631400498
 20
65.1043049930122635
 30
0.0
 40
0.0197237918712117
 50
270.1123764858011214
 51
359.8876188572182855
  0
LINE
  5
7907
  8
0
 10
3953.1344099170710251
 20
65.1042663063783067
 30
0.0
 11
3953.1344099170710251
 21
65.1441504488308993
 31
0.0
  0
LINE
  5
7908
  8
0
 10
3952.5832288146698374
 20
65.1517279370589506
 30
0.0
 11
3952.5832288146698374
 21
65.1042662989783025
 31
0.0
  0
LINE
  5
7909
  8
0
 10
3952.6029138757708097
 20
65.0845812390783038
 30
0.0
 11
3953.1147248481702263
 21
65.0845812390783038
 31
0.0
  0
LINE
  5
790A
  8
0
 10
3953.8273233027680362
 20
69.8103225909791831
 30
0.0
 11
3953.8273233027680362
 21
68.4717399138793041
 31
0.0
  0
LINE
  5
790B
  8
0
 10
3952.0277671399680912
 20
66.6993962173871466
 30
0.0
 11
3952.0483110903678607
 21
66.6995755017791936
 31
0.0
  0
LINE
  5
790C
  8
0
 10
3952.0277671399680912
 20
65.2834536891712531
 30
0.0
 11
3952.0483110903678607
 21
65.283274404779192
 31
0.0
  0
LINE
  5
790D
  8
0
 10
3951.1587557160678443
 20
62.6924249530807529
 30
0.0
 11
3951.3619331310687812
 21
62.6924249530807529
 31
0.0
  0
LINE
  5
790E
  8
0
 10
3951.0453066623649647
 20
62.7903006319807417
 30
0.0
 11
3951.4754172578718681
 21
62.7903006319807417
 31
0.0
  0
LINE
  5
790F
  8
0
 10
3951.5170626343419826
 20
62.8686545511807466
 30
0.0
 11
3951.0036612858948502
 21
62.8686545511807466
 31
0.0
  0
LINE
  5
7910
  8
0
 10
3950.8764119137549642
 20
63.0113371232807395
 30
0.0
 11
3951.6443120064818686
 21
63.0113371232807395
 31
0.0
  0
LINE
  5
7911
  8
0
 10
3950.8470606899791164
 20
63.0843516648807494
 30
0.0
 11
3951.6736632302581711
 21
63.0843516648807494
 31
0.0
  0
LINE
  5
7912
  8
0
 10
3950.8470606899791164
 20
63.3343516648807494
 30
0.0
 11
3951.6736632302581711
 21
63.3343516648807494
 31
0.0
  0
LINE
  5
7913
  8
0
 10
3950.8726505973631902
 20
63.406109633480753
 30
0.0
 11
3951.6480733228731879
 21
63.406109633480753
 31
0.0
  0
LINE
  5
7914
  8
0
 10
3950.6777524366680154
 20
66.2987898771855839
 30
0.0
 11
3950.6777524366680154
 21
65.6840600290759085
 31
0.0
  0
LINE
  5
7915
  8
0
 10
3950.8093060320679797
 20
65.6770191151186964
 30
0.0
 11
3950.8093060320679797
 21
66.305830791142796
 31
0.0
  0
LINE
  5
7916
  8
0
 10
3950.9284925913680127
 20
66.3494582490537397
 30
0.0
 11
3950.9284925913680127
 21
65.633349091577756
 31
0.0
  0
LINE
  5
7917
  8
0
 10
3950.9805414885818209
 20
64.9865212614807461
 30
0.0
 11
3951.5401824316550119
 21
64.9865212614807461
 31
0.0
  0
LINE
  5
7918
  8
0
 10
3951.0203619601679748
 20
62.8198716306807512
 30
0.0
 11
3951.0203619601679748
 21
62.8417535277807531
 31
0.0
  0
LINE
  5
7919
  8
0
 10
3950.8919507011710266
 20
63.4320717205078211
 30
0.0
 11
3950.9985761271668707
 21
64.9568863522691515
 31
0.0
  0
LINE
  5
791A
  8
0
 10
3951.5203619600688398
 20
65.0824249530807464
 30
0.0
 11
3951.0003619601689024
 21
65.0824249530807464
 31
0.0
  0
LINE
  5
791B
  8
0
 10
3951.6159444000209078
 20
65.2701463184807551
 30
0.0
 11
3950.904779520215925
 21
65.2701463184807551
 31
0.0
  0
LINE
  5
791C
  8
0
 10
3951.6287732190689894
 20
63.4320717204807423
 30
0.0
 11
3951.5221477930681431
 21
64.9568863522807334
 31
0.0
  0
LINE
  5
791D
  8
0
 10
3951.6318454725687843
 20
66.3164249530807552
 30
0.0
 11
3951.6318454725687843
 21
65.6664249530807496
 31
0.0
  0
LINE
  5
791E
  8
0
 10
3951.8835477472680395
 20
65.6828947693878149
 30
0.0
 11
3951.8835477472680395
 21
66.2999551368736917
 31
0.0
  0
LINE
  5
791F
  8
0
 10
3951.6318454725687843
 20
65.6664249530807496
 30
0.0
 11
3951.8567721216691098
 21
65.6664249530807496
 31
0.0
  0
LINE
  5
7920
  8
0
 10
3951.9690555862689507
 20
65.715834401980743
 30
0.0
 11
3951.9370989985682172
 21
65.715834401980743
 31
0.0
  0
LINE
  5
7921
  8
0
 10
3951.9690555862689507
 20
66.2670155042807494
 30
0.0
 11
3951.9370989985682172
 21
66.2670155042807494
 31
0.0
  0
LINE
  5
7922
  8
0
 10
3951.6318454725687843
 20
66.3164249530807552
 30
0.0
 11
3951.8567721216691098
 21
66.3164249530807552
 31
0.0
  0
ARC
  5
7923
  8
0
 10
3950.8903619601678656
 20
63.2093516648807494
 30
0.0
 40
0.1
 50
122.2042275029421035
 51
237.7957724970578965
  0
ARC
  5
7924
  8
0
 10
3950.8903619601678656
 20
63.3593516648807409
 30
0.0
 40
0.05
 50
110.7460922029074055
 51
210.0000000009841017
  0
ARC
  5
7925
  8
0
 10
3950.8903619601678656
 20
63.0593516648807508
 30
0.0
 40
0.05
 50
149.999999999015813
 51
253.7994138500042993
  0
ARC
  5
7926
  8
0
 10
3950.8620237795389585
 20
63.4341644147286488
 30
0.0
 40
0.0300000001324438
 50
290.7460922029073913
 51
356.0000000002469847
  0
ARC
  5
7927
  8
0
 10
3950.8210799278681407
 20
63.3193516648807488
 30
0.0
 40
0.03
 50
302.2042275029427856
 51
30.0000000009844996
  0
ARC
  5
7928
  8
0
 10
3950.8210799278681407
 20
63.09935166488075
 30
0.0
 40
0.03
 50
329.9999999990150741
 51
57.7957724970572073
  0
ARC
  5
7929
  8
0
 10
3950.8680418857688892
 20
62.9825283983807509
 30
0.0
 40
0.03
 50
22.0358581851590607
 51
73.799413850004342
  0
ARC
  5
792A
  8
0
 10
3950.9903619601677747
 20
62.8417535277807531
 30
0.0
 40
0.03
 50
0.0
 51
61.6536548663928912
  0
ARC
  5
792B
  8
0
 10
3951.0503619601690843
 20
62.8198716306807512
 30
0.0
 40
0.03
 50
180.0
 51
260.2988082937196737
  0
ARC
  5
792C
  8
0
 10
3950.9731756649689487
 20
65.9914249530807524
 30
0.0
 40
0.4135334646000001
 50
136.6658922173554913
 51
223.3337510811255981
  0
ARC
  5
792D
  8
0
 10
3950.7427797011691837
 20
65.7627642191807666
 30
0.0
 40
0.116146728500011
 50
246.0085664235560046
 51
295.9466438933421841
  0
ARC
  5
792E
  8
0
 10
3950.7427797011691837
 20
66.2200856870807542
 30
0.0
 40
0.1161467285
 50
64.0533500346907942
 51
113.9914335764697029
  0
ARC
  5
792F
  8
0
 10
3950.9875598720677772
 20
65.5079190942807514
 30
0.0
 40
0.0800207168
 50
353.0197309463038096
 51
60.0434883051168669
  0
ARC
  5
7930
  8
0
 10
3951.0003619601689024
 20
65.0324249530807492
 30
0.0
 40
0.0499999999999998
 50
90.0
 51
246.6447666786712887
  0
ARC
  5
7931
  8
0
 10
3950.7804718377838071
 20
66.2975490018209257
 30
0.0
 40
0.0299999799068429
 50
16.0251830008462406
 51
64.053350034690439
  0
ARC
  5
7932
  8
0
 10
3950.7077524369901766
 20
66.2987898771855839
 30
0.0
 40
0.0300000003212002
 50
113.9914335764700013
 51
179.9999998182844081
  0
ARC
  5
7933
  8
0
 10
3950.7077524369901766
 20
65.6840600290759085
 30
0.0
 40
0.0300000003212215
 50
180.0
 51
246.0085664235560898
  0
ARC
  5
7934
  8
0
 10
3950.7804718206089092
 20
65.6853009188721728
 30
0.0
 40
0.0300000003983855
 50
295.9466438933424115
 51
343.9747993014258896
  0
ARC
  5
7935
  8
0
 10
3950.9686492056689531
 20
64.9589790464807351
 30
0.0
 40
0.03
 50
356.0000000002469847
 51
66.6483069434773796
  0
ARC
  5
7936
  8
0
 10
3950.658067397268951
 20
66.2887211888807428
 30
0.0
 40
0.0196850394
 50
316.6682898539651774
 51
0.0
  0
ARC
  5
7937
  8
0
 10
3950.658067397268951
 20
65.6941287173807495
 30
0.0
 40
0.0196850394
 50
0.0
 51
43.3392033413517908
  0
ARC
  5
7938
  8
0
 10
3951.1587557160678443
 20
62.7224249530807398
 30
0.0
 40
0.03
 50
197.4646231061134074
 51
270.0
  0
ARC
  5
7939
  8
0
 10
3951.2603619601682112
 20
65.9914249530807524
 30
0.0
 40
0.475
 50
46.0236248147907503
 51
118.6105597038032045
  0
ARC
  5
793A
  8
0
 10
3951.2603619601682112
 20
65.9914249530807524
 30
0.0
 40
0.475
 50
299.4372694551742029
 51
313.9763751852091787
  0
ARC
  5
793B
  8
0
 10
3951.5331243510681816
 20
65.5080765507807428
 30
0.0
 40
0.08
 50
119.4342640606229935
 51
187.0882810460645942
  0
ARC
  5
793C
  8
0
 10
3951.6318454725687843
 20
65.6064249530807473
 30
0.0
 40
0.06
 50
90.0
 51
133.9763751852092071
  0
ARC
  5
793D
  8
0
 10
3951.6318454725687843
 20
66.3764249530807433
 30
0.0
 40
0.06
 50
226.0236248147907077
 51
270.0
  0
ARC
  5
793E
  8
0
 10
3951.9370989985682172
 20
66.3270155042807517
 30
0.0
 40
0.06
 50
206.8082541783028887
 51
270.0
  0
ARC
  5
793F
  8
0
 10
3951.9370989985682172
 20
65.6558344019807549
 30
0.0
 40
0.06
 50
90.0
 51
153.1917458216053092
  0
ARC
  5
7940
  8
0
 10
3951.8567721216691098
 20
66.2864249530807541
 30
0.0
 40
0.03
 50
26.8082541783946411
 51
90.0
  0
ARC
  5
7941
  8
0
 10
3951.8567721216691098
 20
65.6964249530807507
 30
0.0
 40
0.03
 50
270.0
 51
333.1917458216054229
  0
ARC
  5
7942
  8
0
 10
3951.9690544054260499
 20
66.2473276141740257
 30
0.0
 40
0.0196878902421351
 50
0.7462756462075656
 51
89.9965635063821168
  0
ARC
  5
7943
  8
0
 10
3951.9690512190340996
 20
65.7355299847151855
 30
0.0
 40
0.0196955833186221
 50
270.0127045768409175
 51
358.565031758020325
  0
ARC
  5
7944
  8
0
 10
3951.0300533606600766
 20
62.6882261263869083
 30
0.0
 40
0.1032078868069062
 50
14.1299552773093104
 51
81.5010069441781866
  0
ARC
  5
7945
  8
0
 10
3951.1101382736887899
 20
63.0694040111157577
 30
0.0
 40
0.2272392892828732
 50
199.4374150322221055
 51
242.3279243981172044
  0
ARC
  5
7946
  8
0
 10
3950.9120024622970959
 20
65.245284105934175
 30
0.0
 40
0.0258862256123536
 50
118.2438476373980052
 51
195.1172772763246996
  0
ARC
  5
7947
  8
0
 10
3950.8014668123491901
 20
65.5153438160365056
 30
0.0
 40
0.2660739153210621
 50
291.6781398754706061
 51
356.3045146661041258
  0
ARC
  5
7948
  8
0
 10
3951.0525498878278086
 20
65.2308015522657456
 30
0.0
 40
0.1572869828660188
 50
205.0025309172206107
 51
250.6218941511139064
  0
ARC
  5
7949
  8
0
 10
3951.1322613541838109
 20
65.2738451396338206
 30
0.0
 40
0.2477784488619854
 50
188.193381948188005
 51
206.2326314567833947
  0
ARC
  5
794A
  8
0
 10
3950.8681534696102062
 20
65.2899317914054507
 30
0.0
 40
0.3285549418137788
 50
60.9845358133488986
 51
75.25760385580719
  0
ARC
  5
794B
  8
0
 10
3950.9535725979890231
 20
65.6326796010993831
 30
0.0
 40
0.0250744426735474
 50
178.7423856158679882
 51
265.8592012962433273
  0
ARC
  5
794C
  8
0
 10
3950.8252366522410739
 20
65.6232340402856806
 30
0.0
 40
0.1037501962780532
 50
5.5287797882140266
 51
37.9010738110346779
  0
ARC
  5
794D
  8
0
 10
3950.8551617208568132
 20
65.6397718052927814
 30
0.0
 40
0.0701809513472323
 50
42.2595268391310626
 51
78.2505228530251742
  0
ARC
  5
794E
  8
0
 10
3950.857860185285972
 20
65.657421833975917
 30
0.0
 40
0.0523599008907524
 50
77.2085024156764916
 51
158.0201601428279048
  0
ARC
  5
794F
  8
0
 10
3950.8502059947759335
 20
66.3184532946527696
 30
0.0
 40
0.0428034407886329
 50
197.1512171267359008
 51
247.7674790640685103
  0
ARC
  5
7950
  8
0
 10
3950.8583579810670017
 20
66.3383967617527048
 30
0.0
 40
0.0643486667205134
 50
247.7674790640683113
 51
322.6637907889303847
  0
ARC
  5
7951
  8
0
 10
3950.8349516120038061
 20
66.3562510244186257
 30
0.0
 40
0.0937872945420592
 50
322.6637907889307257
 51
355.9456315018006762
  0
ARC
  5
7952
  8
0
 10
3950.9535049722599069
 20
66.3502046400465701
 30
0.0
 40
0.0250076124479439
 50
93.9678515546182638
 51
181.3396618432726086
  0
ARC
  5
7953
  8
0
 10
3950.8766254261781796
 20
66.6739480212601308
 30
0.0
 40
0.3081010619892475
 50
284.1174600569622157
 51
300.4801318117025062
  0
LINE
  5
7954
  8
0
 10
3951.5003619600679485
 20
62.8198716306807512
 30
0.0
 11
3951.5003619600679485
 21
62.8417535277807531
 31
0.0
  0
ARC
  5
7955
  8
0
 10
3951.6303619600689672
 20
63.2093516648807494
 30
0.0
 40
0.1
 50
302.2042275029422171
 51
57.7957724970578681
  0
ARC
  5
7956
  8
0
 10
3951.6303619600689672
 20
63.3593516648807409
 30
0.0
 40
0.05
 50
329.9999999990159267
 51
69.2539077970925803
  0
ARC
  5
7957
  8
0
 10
3951.6303619600689672
 20
63.0593516648807508
 30
0.0
 40
0.05
 50
286.2005861499956723
 51
30.0000000009841514
  0
ARC
  5
7958
  8
0
 10
3951.6587001406978743
 20
63.4341644147286488
 30
0.0
 40
0.0300000001324438
 50
183.9999999997529869
 51
249.2539077970926087
  0
ARC
  5
7959
  8
0
 10
3951.6996439923677826
 20
63.3193516648807488
 30
0.0
 40
0.03
 50
149.9999999990155004
 51
237.795772497057186
  0
ARC
  5
795A
  8
0
 10
3951.6996439923677826
 20
63.09935166488075
 30
0.0
 40
0.03
 50
122.2042275029427998
 51
210.0000000009844996
  0
ARC
  5
795B
  8
0
 10
3951.6526820344688531
 20
62.9825283983807509
 30
0.0
 40
0.03
 50
106.2005861499957007
 51
157.9641418148409002
  0
ARC
  5
795C
  8
0
 10
3951.5303619600681486
 20
62.8417535277807531
 30
0.0
 40
0.03
 50
118.3463451336071017
 51
180.0
  0
ARC
  5
795D
  8
0
 10
3951.4703619600682032
 20
62.8198716306807512
 30
0.0
 40
0.03
 50
279.7011917062803263
 51
0.0
  0
ARC
  5
795E
  8
0
 10
3951.5203619600688398
 20
65.0324249530807492
 30
0.0
 40
0.0499999999999998
 50
293.3552333213287966
 51
90.0
  0
ARC
  5
795F
  8
0
 10
3951.5520747145687892
 20
64.9589790464807351
 30
0.0
 40
0.03
 50
113.3516930565226062
 51
183.9999999997529869
  0
ARC
  5
7960
  8
0
 10
3951.3619682041689884
 20
62.7224249530807398
 30
0.0
 40
0.03
 50
270.0
 51
342.535376893886621
  0
ARC
  5
7961
  8
0
 10
3951.490670559577211
 20
62.6882261263869083
 30
0.0
 40
0.1032078868069062
 50
98.4989930558218418
 51
165.8700447226906931
  0
ARC
  5
7962
  8
0
 10
3951.4105856465489524
 20
63.0694040111157577
 30
0.0
 40
0.2272392892828732
 50
297.6720756018827956
 51
340.5625849677778092
  0
ARC
  5
7963
  8
0
 10
3951.6087214579411011
 20
65.245284105934175
 30
0.0
 40
0.0258862256123536
 50
344.8827227236752719
 51
61.7561523626019877
  0
ARC
  5
7964
  8
0
 10
3951.7192571078871879
 20
65.5153438160365056
 30
0.0
 40
0.2660739153210621
 50
183.6932635658828872
 51
248.3218601245293939
  0
ARC
  5
7965
  8
0
 10
3951.4681740324099337
 20
65.2308015522657456
 30
0.0
 40
0.1572869828660188
 50
289.3781058488860936
 51
334.9974690827793893
  0
ARC
  5
7966
  8
0
 10
3951.3884625660530219
 20
65.2738451396338206
 30
0.0
 40
0.2477784488619854
 50
333.7673685432166053
 51
351.8066180518118813
  0
ENDSEC
  0
EOF
