  0
SECTION
  2
HEADER
  9
$ACADVER
  1
AC1009
  9
$INSBASE
 10
3939.612052440187199
 20
63.4823619255474085
 30
0.0
  9
$EXTMIN
 10
3935.2795023454800685
 20
58.7345735915966287
 30
0.0
  9
$EXTMAX
 10
3939.6227756192970446
 20
67.0256690120981631
 30
0.0
  9
$LIMMIN
 10
0.0
 20
0.0
  9
$LIMMAX
 10
11.6929133858000007
 20
8.2677165353999982
  9
$ORTHOMODE
 70
     0
  9
$REGENMODE
 70
     1
  9
$FILLMODE
 70
     1
  9
$QTEXTMODE
 70
     0
  9
$MIRRTEXT
 70
     0
  9
$DRAGMODE
 70
     2
  9
$LTSCALE
 40
0.6431102362
  9
$OSMODE
 70
  4095
  9
$ATTMODE
 70
     1
  9
$TEXTSIZE
 40
0.2
  9
$TRACEWID
 40
0.05
  9
$TEXTSTYLE
  7
STANDARD
  9
$CLAYER
  8
0
  9
$CELTYPE
  6
BYLAYER
  9
$CECOLOR
 62
   256
  9
$DIMSCALE
 40
1.0
  9
$DIMASZ
 40
0.1875
  9
$DIMEXO
 40
0.0625
  9
$DIMDLI
 40
0.4443307087
  9
$DIMRND
 40
0.0
  9
$DIMDLE
 40
0.0
  9
$DIMEXE
 40
0.125
  9
$DIMTP
 40
0.01
  9
$DIMTM
 40
0.01
  9
$DIMTXT
 40
2.0
  9
$DIMCEN
 40
0.1052362205
  9
$DIMTSZ
 40
0.0
  9
$DIMTOL
 70
     1
  9
$DIMLIM
 70
     0
  9
$DIMTIH
 70
     1
  9
$DIMTOH
 70
     1
  9
$DIMSE1
 70
     0
  9
$DIMSE2
 70
     0
  9
$DIMTAD
 70
     0
  9
$DIMZIN
 70
     0
  9
$DIMBLK
  1

  9
$DIMASO
 70
     1
  9
$DIMSHO
 70
     1
  9
$DIMPOST
  1
\X
  9
$DIMAPOST
  1

  9
$DIMALT
 70
     1
  9
$DIMALTD
 70
     2
  9
$DIMALTF
 40
25.3999999999999986
  9
$DIMLFAC
 40
1.0
  9
$DIMTOFL
 70
     0
  9
$DIMTVP
 40
0.0
  9
$DIMTIX
 70
     0
  9
$DIMSOXD
 70
     0
  9
$DIMSAH
 70
     0
  9
$DIMBLK1
  1

  9
$DIMBLK2
  1

  9
$DIMSTYLE
  2
STANDARD
  9
$DIMCLRD
 70
     0
  9
$DIMCLRE
 70
     0
  9
$DIMCLRT
 70
     0
  9
$DIMTFAC
 40
1.0
  9
$DIMGAP
 40
0.09
  9
$LUNITS
 70
     2
  9
$LUPREC
 70
     4
  9
$SKETCHINC
 40
0.1
  9
$FILLETRAD
 40
0.0
  9
$AUNITS
 70
     0
  9
$AUPREC
 70
     0
  9
$MENU
  1
.
  9
$ELEVATION
 40
0.0
  9
$PELEVATION
 40
0.0
  9
$THICKNESS
 40
0.0
  9
$LIMCHECK
 70
     0
  9
$BLIPMODE
 70
     0
  9
$CHAMFERA
 40
0.0
  9
$CHAMFERB
 40
0.0
  9
$SKPOLY
 70
     0
  9
$TDCREATE
 40
2458060.468368056230247
  9
$TDUPDATE
 40
2459101.6296064821071923
  9
$TDINDWG
 40
0.4117084491
  9
$TDUSRTIMER
 40
0.4117084491
  9
$USRTIMER
 70
     1
  9
$ANGBASE
 50
0.0
  9
$ANGDIR
 70
     0
  9
$PDMODE
 70
     0
  9
$PDSIZE
 40
0.3125
  9
$PLINEWID
 40
0.0
  9
$COORDS
 70
     1
  9
$SPLFRAME
 70
     0
  9
$SPLINETYPE
 70
     6
  9
$SPLINESEGS
 70
     8
  9
$ATTDIA
 70
     1
  9
$ATTREQ
 70
     1
  9
$HANDLING
 70
     1
  9
$HANDSEED
  5
76D4
  9
$SURFTAB1
 70
     6
  9
$SURFTAB2
 70
     6
  9
$SURFTYPE
 70
     6
  9
$SURFU
 70
     6
  9
$SURFV
 70
     6
  9
$UCSNAME
  2

  9
$UCSORG
 10
0.0
 20
0.0
 30
0.0
  9
$UCSXDIR
 10
1.0
 20
0.0
 30
0.0
  9
$UCSYDIR
 10
0.0
 20
1.0
 30
0.0
  9
$PUCSNAME
  2

  9
$PUCSORG
 10
0.0
 20
0.0
 30
0.0
  9
$PUCSXDIR
 10
1.0
 20
0.0
 30
0.0
  9
$PUCSYDIR
 10
0.0
 20
1.0
 30
0.0
  9
$USERI1
 70
     0
  9
$USERI2
 70
     0
  9
$USERI3
 70
     0
  9
$USERI4
 70
     0
  9
$USERI5
 70
     0
  9
$USERR1
 40
0.0
  9
$USERR2
 40
0.0
  9
$USERR3
 40
0.0
  9
$USERR4
 40
0.0
  9
$USERR5
 40
0.0
  9
$WORLDVIEW
 70
     1
  9
$SHADEDGE
 70
     3
  9
$SHADEDIF
 70
    70
  9
$TILEMODE
 70
     1
  9
$MAXACTVP
 70
    64
  9
$PLIMCHECK
 70
     0
  9
$PEXTMIN
 10
1.0000000000000000E+20
 20
1.0000000000000000E+20
 30
1.0000000000000000E+20
  9
$PEXTMAX
 10
-1.0000000000000000E+20
 20
-1.0000000000000000E+20
 30
-1.0000000000000000E+20
  9
$PLIMMIN
 10
0.0
 20
0.0
  9
$PLIMMAX
 10
12.0
 20
9.0
  9
$UNITMODE
 70
     0
  9
$VISRETAIN
 70
     1
  9
$PLINEGEN
 70
     0
  9
$PSLTSCALE
 70
     1
  0
ENDSEC
  0
SECTION
  2
TABLES
  0
TABLE
  2
VPORT
 70
     1
  0
VPORT
  2
*ACTIVE
 70
     0
 10
0.0
 20
0.0
 11
1.0
 21
1.0
 12
180.9935021985484127
 22
-66.9834777517072695
 13
0.0
 23
0.0
 14
1.0
 24
1.0
 15
0.0
 25
0.0
 16
0.0
 26
0.0
 36
5.1040778033513332
 17
3792.35791015625
 27
120.1806564331053977
 37
0.0
 40
101.7634774925050039
 41
2.005224660397074
 42
50.0
 43
0.0
 44
0.0
 50
0.0
 51
0.0
 71
     0
 72
   100
 73
     1
 74
     1
 75
     0
 76
     0
 77
     0
 78
     0
  0
ENDTAB
  0
TABLE
  2
LTYPE
 70
     2
  0
LTYPE
  2
CONTINUOUS
 70
     0
  3
Solid line
 72
    65
 73
     0
 40
0.0
  0
LTYPE
  2
PHANTOM2
 70
     0
  3
___ _ _ ___ _ _ ___ _ _ ___ _ _
 72
    65
 73
     6
 40
1.25
 49
0.625
 49
-0.125
 49
0.125
 49
-0.125
 49
0.125
 49
-0.125
  0
ENDTAB
  0
TABLE
  2
LAYER
 70
     2
  0
LAYER
  2
0
 70
     0
 62
   255
  6
CONTINUOUS
  0
LAYER
  2
DEFPOINTS
 70
     0
 62
     7
  6
CONTINUOUS
  0
ENDTAB
  0
TABLE
  2
STYLE
 70
     1
  0
STYLE
  2
STANDARD
 70
     0
 40
0.0
 41
0.8
 50
0.0
 71
     0
 42
0.2
  3
txt
  4

  0
ENDTAB
  0
TABLE
  2
VIEW
 70
     0
  0
ENDTAB
  0
TABLE
  2
UCS
 70
     0
  0
ENDTAB
  0
TABLE
  2
APPID
 70
     9
  0
APPID
  2
ACAD
 70
     0
  0
APPID
  2
ACAD_MLEADERVER
 70
     0
  0
APPID
  2
ACAD_EXEMPT_FROM_CAD_STANDARDS
 70
     0
  0
APPID
  2
ACAD_NAV_VCDISPLAY
 70
     0
  0
APPID
  2
ACAECLAYERSTANDARD
 70
     0
  0
APPID
  2
ACCMTRANSPARENCY
 70
     0
  0
APPID
  2
ACAD_DSTYLE_DIMJAG
 70
     0
  0
APPID
  2
ACAD_DSTYLE_DIMTALN
 70
     0
  0
APPID
  2
ACDBATTR
 70
     0
  0
ENDTAB
  0
TABLE
  2
DIMSTYLE
 70
     1
  0
DIMSTYLE
  2
STANDARD
 70
     0
  3

  4

  5

  6

  7

 40
1.0
 41
0.1875
 42
0.0625
 43
0.38
 44
0.125
 45
0.0
 46
0.0
 47
0.01
 48
0.01
140
0.15625
141
0.09
142
0.0
143
25.3999999999999986
144
1.0
145
0.0
146
1.0
147
0.09
 71
     1
 72
     0
 73
     1
 74
     1
 75
     0
 76
     0
 77
     0
 78
     4
170
     0
171
     2
172
     0
173
     0
174
     0
175
     0
176
     0
177
     0
178
     0
  0
ENDTAB
  0
ENDSEC
  0
SECTION
  2
BLOCKS
  0
BLOCK
  8
0
  2
$MODEL_SPACE
 70
     0
 10
0.0
 20
0.0
 30
0.0
  3
$MODEL_SPACE
  1

  0
ENDBLK
  5
21
  8
0
  0
BLOCK
 67
     1
  8
0
  2
$PAPER_SPACE
 70
     0
 10
0.0
 20
0.0
 30
0.0
  3
$PAPER_SPACE
  1

  0
ENDBLK
  5
1D
 67
     1
  8
0
  0
BLOCK
  8
0
  2
_FILLED
 70
     0
 10
0.0
 20
0.0
 30
0.0
  3
_FILLED
  1

  0
SOLID
  5
69B4
  8
0
  6
BYBLOCK
 62
     0
 10
0.0
 20
0.0
 30
0.0
 11
-1.0
 21
0.1666666667
 31
0.0
 12
-1.0
 22
-0.1666666667
 32
0.0
 13
-1.0
 23
-0.1666666667
 33
0.0
  0
ENDBLK
  5
69B5
  8
0
  6
BYBLOCK
 62
     0
  0
BLOCK
  8
0
  2
A$CDFAF6206
 70
     0
 10
0.0
 20
0.0
 30
0.0
  3
A$CDFAF6206
  1

  0
LINE
  5
6A0E
  8
0
 10
7.4646650085734834
 20
10.9287685970688493
 30
0.0
 11
7.4646650085734896
 21
10.8905784766688498
 31
0.0
  0
ARC
  5
6A0F
  8
0
 10
7.7269027075262349
 20
10.8926811525838598
 30
0.0
 40
0.2622461286616791
 50
180.4593995232625048
 51
217.0214027758331099
  0
LINE
  5
6A10
  8
0
 10
9.767814609867095
 20
10.9287685970688493
 30
0.0
 11
9.767814609867095
 21
10.8905433757650094
 31
0.0
  0
ARC
  5
6A11
  8
0
 10
9.5068669568548287
 20
10.8922438613003703
 30
0.0
 40
0.2609531936261092
 50
322.8847083717149076
 51
359.6266329125650145
  0
LINE
  5
6A12
  8
0
 10
7.517522606271406
 20
10.7347792678688396
 30
0.0
 11
9.7149570120691777
 21
10.7347792678688396
 31
0.0
  0
LINE
  5
6A13
  8
0
 10
7.4646650085734834
 20
10.9287685970688493
 30
0.0
 11
9.7678146123202936
 21
10.9287685970688493
 31
0.0
  0
ARC
  5
6A14
  8
0
 10
4.0826771419203629
 20
8.527951346868889
 30
0.0
 40
4.0826771653999172
 50
13.3117747050523896
 51
32.7200330051415591
  0
ARC
  5
6A15
  8
0
 10
4.0826771460567306
 20
8.5279513475907933
 30
0.0
 40
4.0826771612084691
 50
359.6656501984817851
 51
13.3117747085593798
  0
ARC
  5
6A16
  8
0
 10
13.1498041284835097
 20
8.5279508235212234
 30
0.0
 40
4.0826788382043553
 50
147.2799733478981068
 51
166.6882233021349862
  0
ARC
  5
6A17
  8
0
 10
13.1498064934207992
 20
8.5279506557033251
 30
0.0
 40
4.0826811782395342
 50
166.688228652086309
 51
180.3343397625230011
  0
LINE
  5
6A18
  8
0
 10
8.1652847935202928
 20
8.504127000268852
 30
0.0
 11
9.0671948248202892
 21
8.5041270002687881
 31
0.0
  0
LINE
  5
6A19
  8
0
 10
8.1652847935202786
 20
8.5041270002667204
 30
0.0
 11
8.1652847935202928
 21
8.3607006934688481
 31
0.0
  0
ARC
  5
6A1A
  8
0
 10
5.6196779630382627
 20
8.3631022096452732
 30
0.0
 40
2.545607963272567
 50
342.0511668832173768
 51
359.945947387132378
  0
LINE
  5
6A1B
  8
0
 10
9.0671948248202892
 20
8.5041270002687881
 30
0.0
 11
9.0671948248202892
 21
8.2885990108688503
 31
0.0
  0
ARC
  5
6A1C
  8
0
 10
9.4521885297801163
 20
7.9614488056228501
 30
0.0
 40
0.5052201595850959
 50
139.6436242991769916
 51
174.6757930071850069
  0
ARC
  5
6A1D
  8
0
 10
9.9238413395551746
 20
8.1492417579399508
 30
0.0
 40
0.9848265662939324
 50
188.2263441834095943
 51
209.5593615864376034
  0
ARC
  5
6A1E
  8
0
 10
8.0788764238271256
 20
7.5665710856463297
 30
0.0
 40
0.0393715937169877
 50
162.1669117288323037
 51
227.2023190037006088
  0
ARC
  5
6A1F
  8
0
 10
8.7223682141740682
 20
8.2079667397440517
 30
0.0
 40
0.947895137885075
 50
225.0018610752970858
 51
261.4598823366255829
  0
ARC
  5
6A20
  8
0
 10
8.6645157662702701
 20
8.1695128573935332
 30
0.0
 40
0.9027466462812931
 50
264.7303071214498118
 51
281.8608311947915013
  0
ARC
  5
6A21
  8
0
 10
8.6645157662698935
 20
8.1695128573999671
 30
0.0
 40
0.9027466462876658
 50
299.1741886792128753
 51
299.1743179154552195
  0
ARC
  5
6A22
  8
0
 10
9.0843330931590316
 20
7.4150554710086141
 30
0.0
 40
0.0393703053609601
 50
251.9700352025496954
 51
252.4698971938937859
  0
ARC
  5
6A23
  8
0
 10
9.0843330931590316
 20
7.4150554710086141
 30
0.0
 40
0.0393703053609601
 50
297.2453716727138726
 51
6.8376113572703074
  0
LINE
  5
6A24
  8
0
 10
9.0671948248202892
 20
7.663402160468852
 30
0.0
 11
9.1234233799329516
 21
7.419742732911689
 31
0.0
  0
ARC
  5
6A25
  8
0
 10
8.8843741880892395
 20
9.8961379890094676
 30
0.0
 40
2.5255097382132701
 50
263.792800240752797
 51
274.9514951129821156
  0
ARC
  5
6A26
  8
0
 10
8.8258167405968848
 20
9.2763025889666508
 30
0.0
 40
1.9029970832759311
 50
246.0108363320686067
 51
263.5276935074397215
  0
ARC
  5
6A27
  8
0
 10
8.607491361665744
 20
8.3225444804829642
 30
0.0
 40
1.064510137163637
 50
283.1717405874071005
 51
297.7022170607311864
  0
LINE
  5
6A28
  8
0
 10
9.0671948248202892
 20
8.2885990108688503
 30
0.0
 11
26.2014378595979593
 21
8.2885990108689942
 31
0.0
  0
LINE
  5
6A29
  8
0
 10
26.2014378595979913
 20
7.6634021604689053
 30
0.0
 11
9.0671948248202892
 21
7.6634021604688618
 31
0.0
  0
LINE
  5
6A2A
  8
0
 10
27.8039676758446994
 20
10.9287685970690802
 30
0.0
 11
27.8039676758446888
 21
10.8905784766690807
 31
0.0
  0
ARC
  5
6A2B
  8
0
 10
27.5417299768919399
 20
10.8926811525840801
 30
0.0
 40
0.2622461286616791
 50
322.9785972241680838
 51
359.5406004767386889
  0
LINE
  5
6A2C
  8
0
 10
25.5008180745510913
 20
10.9287685970690305
 30
0.0
 11
25.5008180745510913
 21
10.8905433757651799
 31
0.0
  0
ARC
  5
6A2D
  8
0
 10
25.7617657275633505
 20
10.8922438613005497
 30
0.0
 40
0.2609531936261092
 50
180.3733670874362929
 51
217.1152916282862861
  0
LINE
  5
6A2E
  8
0
 10
27.7511100781467803
 20
10.7347792678690706
 30
0.0
 11
25.5536756723490015
 21
10.7347792678690208
 31
0.0
  0
LINE
  5
6A2F
  8
0
 10
27.8039676758446888
 20
10.9287685970686006
 30
0.0
 11
25.5008180745510806
 21
10.9287685970686006
 31
0.0
  0
ARC
  5
6A30
  8
0
 10
31.1859555424978616
 20
8.5279513468691981
 30
0.0
 40
4.0826771653999172
 50
147.2799669948597057
 51
166.6882252949490066
  0
ARC
  5
6A31
  8
0
 10
31.185955538361501
 20
8.5279513475911024
 30
0.0
 40
4.0826771612084691
 50
166.6882252914419098
 51
180.3343498015194086
  0
ARC
  5
6A32
  8
0
 10
22.1188285559344706
 20
8.5279508235212251
 30
0.0
 40
4.0826788382046102
 50
13.3117766978667795
 51
32.7200266521023977
  0
ARC
  5
6A33
  8
0
 10
22.1188261909974315
 20
8.5279506557034264
 30
0.0
 40
4.0826811782395342
 50
359.665660237478221
 51
13.31177134791497
  0
LINE
  5
6A34
  8
0
 10
27.1033478908979397
 20
8.5041270002690652
 30
0.0
 11
26.2014378595979416
 21
8.5041270002689835
 31
0.0
  0
LINE
  5
6A35
  8
0
 10
27.1033478908979504
 20
8.5041270002669354
 30
0.0
 11
27.1033478908979397
 21
8.3607006934690649
 31
0.0
  0
ARC
  5
6A36
  8
0
 10
29.6489547213799689
 20
8.3631022096455467
 30
0.0
 40
2.545607963272567
 50
180.0540526128687873
 51
197.9488331167837032
  0
LINE
  5
6A37
  8
0
 10
26.2014378595979416
 20
8.5041270002689835
 30
0.0
 11
26.2014378595979487
 21
8.2885990108690457
 31
0.0
  0
ARC
  5
6A38
  8
0
 10
25.8164441546381305
 20
7.9614488056230366
 30
0.0
 40
0.5052201595850959
 50
5.324206992816312
 51
40.3563757008241879
  0
ARC
  5
6A39
  8
0
 10
25.3447913448601803
 20
8.149241757940846
 30
0.0
 40
0.9848265662968968
 50
330.4406384136033807
 51
351.7736558165743759
  0
ARC
  5
6A3A
  8
0
 10
27.1897562605911212
 20
7.5665710856465473
 30
0.0
 40
0.0393715937169877
 50
312.7976809963004143
 51
17.8330882711689185
  0
ARC
  5
6A3B
  8
0
 10
26.5462644702441715
 20
8.2079667397442542
 30
0.0
 40
0.947895137885075
 50
278.5401176633754972
 51
314.9981389247041079
  0
ARC
  5
6A3C
  8
0
 10
26.6041169181479695
 20
8.1695128573937392
 30
0.0
 40
0.9027466462812931
 50
258.139168805210204
 51
275.2696928785518935
  0
ARC
  5
6A3D
  8
0
 10
26.6041169181483497
 20
8.1695128574001732
 30
0.0
 40
0.9027466462876658
 50
240.8256820845460027
 51
240.8258113207880058
  0
ARC
  5
6A3E
  8
0
 10
26.1842995912592293
 20
7.4150554710088086
 30
0.0
 40
0.0393703053609601
 50
287.5301028061073794
 51
288.0299647974517825
  0
ARC
  5
6A3F
  8
0
 10
26.1842995912592293
 20
7.4150554710088086
 30
0.0
 40
0.0393703053609601
 50
173.1623886427310026
 51
242.7546283272870085
  0
LINE
  5
6A40
  8
0
 10
26.2014378595981192
 20
7.6634021604690448
 30
0.0
 11
26.1452093044853093
 21
7.4197427329118826
 31
0.0
  0
ARC
  5
6A41
  8
0
 10
26.384258496328961
 20
9.8961379890096666
 30
0.0
 40
2.5255097382132701
 50
265.0485048870193054
 51
276.2071997592482262
  0
ARC
  5
6A42
  8
0
 10
26.4428159438213299
 20
9.2763025889668516
 30
0.0
 40
1.9029970832759311
 50
276.4723064925619838
 51
293.9891636679327007
  0
ARC
  5
6A43
  8
0
 10
26.6611413227524885
 20
8.3225444804831703
 30
0.0
 40
1.064510137163637
 50
242.2977829392704052
 51
256.8282594125943774
  0
LINE
  5
6A44
  8
0
 62
     4
 10
17.9031473532159602
 20
10.9287685970686006
 30
0.0
 11
24.6329820359843588
 21
20.0952817181593808
 31
0.0
  0
LINE
  5
6A45
  8
0
 62
     4
 10
17.9031473532159602
 20
-0.0000000300842942
 30
0.0
 11
22.3963351323106608
 21
4.993614497796286
 31
0.0
  0
ENDBLK
  5
6A49
  8
0
  0
ENDSEC
  0
SECTION
  2
ENTITIES
  0
ATTDEF
  5
3930
  8
DEFPOINTS
 10
3939.6121089526282049
 20
63.4840618138401567
 30
0.0
 40
0.001
  1
K-72814T-4M
  3

  2
MODELNUMBER
 70
     0
1001
ACDBATTR
1070
     0
1070
     1
  0
ATTDEF
  5
3931
  8
DEFPOINTS
 10
3939.6121089526282049
 20
63.4823951471734986
 30
0.0
 40
0.001
  1
MODULO
  3

  2
TRADENAME
 70
     0
1001
ACDBATTR
1070
     0
1070
     1
  0
ATTDEF
  5
3932
  8
DEFPOINTS
 10
3939.6121089526282049
 20
63.4807284805068406
 30
0.0
 40
0.001
  1
VALVE TRIM
  3

  2
PRODUCT
 70
     0
1001
ACDBATTR
1070
     0
1070
     1
  0
LINE
  5
7555
  8
0
 10
3939.612052440187199
 20
67.0256690120981631
 30
0.0
 11
3939.612052440187199
 21
59.9390548389966327
 31
0.0
  0
LINE
  5
7556
  8
0
 10
3939.612052440187199
 20
59.9390548389966327
 30
0.0
 11
3939.3323399012888331
 21
59.9488226161613014
 31
0.0
  0
LINE
  5
7557
  8
0
 10
3939.3323399012870141
 20
67.0159012351319205
 30
0.0
 11
3939.612052440187199
 21
67.0256690120981631
 31
0.0
  0
ARC
  5
7558
  8
0
 10
3939.336461881553987
 20
66.8978629654160244
 30
0.0
 40
0.1181102190280108
 50
91.999996634369765
 51
180.0000216762248897
  0
LINE
  5
7559
  8
0
 10
3939.2183516527870779
 20
66.8978629207323934
 30
0.0
 11
3939.2183516529880762
 21
60.0668609304608765
 31
0.0
  0
ARC
  5
755A
  8
0
 10
3939.336461889201928
 20
60.0668609028431817
 30
0.0
 40
0.1181102363152032
 50
179.9999866025424922
 51
267.9999999454557837
  0
ARC
  5
755B
  8
0
 10
3939.1194715346259727
 20
60.1122517652875032
 30
0.0
 40
0.0993218996002946
 50
5.4060476040922421
 51
84.5677525674709614
  0
ARC
  5
755C
  8
0
 10
3939.139611495490044
 20
60.3287487594848102
 30
0.0
 40
0.1181102364027993
 50
179.9999999999878071
 51
264.7840918992890806
  0
LINE
  5
755D
  8
0
 10
3939.0215012590870174
 20
60.3287487594848102
 30
0.0
 11
3939.0215012591870618
 21
66.6359750641323956
 31
0.0
  0
ARC
  5
755E
  8
0
 10
3939.1396114953868164
 20
66.6359750919966416
 30
0.0
 40
0.1181102361999809
 50
95.2160567127398139
 51
180.0000135170695046
  0
ARC
  5
755F
  8
0
 10
3939.1199264562551434
 20
66.8516138938466895
 30
0.0
 40
0.0984251965341666
 50
275.2157306789554809
 51
0.0000001454945502
  0
LINE
  5
7560
  8
0
 10
3939.6120524399830174
 20
59.9838298499962121
 30
0.0
 11
3939.4939422039869896
 21
59.9863623873966318
 31
0.0
  0
LINE
  5
7561
  8
0
 10
3939.4939422039869896
 20
59.9863623873966318
 30
0.0
 11
3939.4939422039869896
 21
59.9510713304966316
 31
0.0
  0
LINE
  5
7562
  8
0
 10
3939.4939422039869896
 20
59.9510713304966316
 30
0.0
 11
3939.6120524400371323
 21
59.9462623647676978
 31
0.0
  0
LINE
  5
7563
  8
0
 10
3936.6847252897878207
 20
65.7855115317966295
 30
0.0
 11
3938.1986666133880135
 21
65.7855115317966295
 31
0.0
  0
LINE
  5
7564
  8
0
 10
3938.2734697629871334
 20
65.7855115317966295
 30
0.0
 11
3939.0215012591738741
 21
65.7855115317966295
 31
0.0
  0
ARC
  5
7565
  8
0
 10
3936.6847252897759972
 20
65.746141453127251
 30
0.0
 40
0.0393700786693705
 50
89.999999983611346
 51
170.6992840815703119
  0
ARC
  5
7566
  8
0
 10
3936.5759453502091674
 20
65.6863823027859439
 30
0.0
 40
0.0590551180776641
 50
276.8570917017369766
 51
351.7969882366438128
  0
ARC
  5
7567
  8
0
 10
3936.5876966629671188
 20
65.5886611382066747
 30
0.0
 40
0.0393700786783539
 50
96.8570916850465835
 51
173.0379367750836082
  0
ARC
  5
7568
  8
0
 10
3936.3992300736158541
 20
65.4303329540635161
 30
0.0
 40
0.1324985874672531
 50
224.5870362742325028
 51
355.5731106971429085
  0
LINE
  5
7569
  8
0
 10
3936.6343962595601624
 20
65.6779562617700634
 30
0.0
 11
3936.6458727820881904
 21
65.7525042937451332
 31
0.0
  0
ARC
  5
756A
  8
0
 10
3938.1986666131460879
 20
65.7776375158552042
 30
0.0
 40
0.007874016041419
 50
0.0000017566965821
 51
89.9999982433127741
  0
LINE
  5
756B
  8
0
 10
3938.2734697629871334
 20
65.7855115317966295
 30
0.0
 11
3938.2537847236881134
 21
65.7658264924966289
 31
0.0
  0
LINE
  5
756C
  8
0
 10
3938.2537847236881134
 20
65.7658264924966289
 30
0.0
 11
3938.2537847236881134
 21
64.4666138940966249
 31
0.0
  0
LINE
  5
756D
  8
0
 10
3938.2537847236881134
 20
64.4666138940966249
 30
0.0
 11
3938.2734697629871334
 21
64.4469288546967363
 31
0.0
  0
LINE
  5
756E
  8
0
 10
3938.2734697629871334
 20
64.4469288546967363
 30
0.0
 11
3939.0215012591529558
 21
64.4469288546967363
 31
0.0
  0
ARC
  5
756F
  8
0
 10
3936.5876966629239178
 20
64.6437792482978324
 30
0.0
 40
0.0393700785850845
 50
186.9620624878610045
 51
263.1429083618231175
  0
ARC
  5
7570
  8
0
 10
3936.5759453501868848
 20
64.5460580837966234
 30
0.0
 40
0.0590551180999997
 50
8.2030117446598627
 51
83.1429083035113763
  0
ARC
  5
7571
  8
0
 10
3936.6847252900270178
 20
64.4862989337295431
 30
0.0
 40
0.0393700790329163
 50
189.3007168862324079
 51
269.9999996506791717
  0
LINE
  5
7572
  8
0
 10
3936.6847252897878207
 20
64.4469288546966226
 30
0.0
 11
3938.198666613387104
 21
64.4469288547966244
 31
0.0
  0
ARC
  5
7573
  8
0
 10
3936.3992300736158541
 20
64.802107432529084
 30
0.0
 40
0.1324985874675437
 50
4.4268893031330734
 51
135.412963725499111
  0
LINE
  5
7574
  8
0
 10
3936.5486168745869691
 20
65.5934332688966322
 30
0.0
 11
3936.5313333697981761
 21
65.4201057931272061
 31
0.0
  0
LINE
  5
7575
  8
0
 10
3936.5313333697981761
 20
64.8123345934660335
 30
0.0
 11
3936.5486168745760551
 21
64.639007117698867
 31
0.0
  0
LINE
  5
7576
  8
0
 10
3936.5486168745869691
 20
65.5934332693196751
 30
0.0
 11
3936.5486168745760551
 21
64.6390071176988954
 31
0.0
  0
LINE
  5
7577
  8
0
 10
3936.6458727820881904
 20
65.752504293745119
 30
0.0
 11
3936.6458727820881904
 21
64.4799360928481207
 31
0.0
  0
LINE
  5
7578
  8
0
 10
3936.6343962595628909
 20
64.5544841247966303
 30
0.0
 11
3936.6458727820881904
 21
64.4799360928481207
 31
0.0
  0
LINE
  5
7579
  8
0
 10
3938.2065406290871579
 20
65.7776375160966325
 30
0.0
 11
3938.2065406291872023
 21
64.4548028704966214
 31
0.0
  0
ARC
  5
757A
  8
0
 10
3938.1986666131460879
 20
64.4548028707380496
 30
0.0
 40
0.0078740160414181
 50
270.00000175666122
 51
359.9999982476335276
  0
ARC
  5
757B
  8
0
 10
3936.0805584727809219
 20
65.1162205567506049
 30
0.0
 40
0.3149593039058392
 50
359.999933882314906
 51
61.2719604881573616
  0
ARC
  5
757C
  8
0
 10
3936.080557146765841
 20
65.1162201933083082
 30
0.0
 40
0.3149606299217094
 50
303.3711322831765074
 51
359.9999999978716119
  0
ARC
  5
757D
  8
0
 10
3936.0805571482569576
 20
66.4170031239950589
 30
0.0
 40
0.177165351301567
 50
358.554464624789091
 51
90.0000004751408653
  0
LINE
  5
757E
  8
0
 10
3936.2576661178868562
 20
66.412533831196626
 30
0.0
 11
3936.2067275410308866
 21
65.3933810736966308
 31
0.0
  0
LINE
  5
757F
  8
0
 10
3935.9543867857878467
 20
65.3933810736966308
 30
0.0
 11
3935.9034481707572013
 21
66.412533999896624
 31
0.0
  0
ARC
  5
7580
  8
0
 10
3936.0805568642122125
 20
66.4170033974408653
 30
0.0
 40
0.1771650778559832
 50
89.9999086142762934
 51
181.4455714927260033
  0
ARC
  5
7581
  8
0
 10
3936.0805584710951734
 20
65.1162198308287117
 30
0.0
 40
0.3149619542074528
 50
118.7286443795634057
 51
179.9999340622543968
  0
ARC
  5
7582
  8
0
 10
3936.0805571459691237
 20
65.1162201930963676
 30
0.0
 40
0.3149606290814475
 50
179.9999999635712982
 51
236.6292338848058137
  0
LINE
  5
7583
  8
0
 10
3935.9329537147868905
 20
65.3933810736966308
 30
0.0
 11
3936.2281598090880834
 21
65.3933810736966308
 31
0.0
  0
ARC
  5
7584
  8
0
 10
3935.9525959607258301
 20
64.8562150329629503
 30
0.0
 40
0.0196742948176352
 50
192.6980937077248939
 51
227.9846313955590915
  0
ARC
  5
7585
  8
0
 10
3935.9210007927968036
 20
64.8211333947070898
 30
0.0
 40
0.0275377377052525
 50
312.6853472536225809
 51
47.9993541979130001
  0
ARC
  5
7586
  8
0
 10
3935.9579072716937844
 20
64.7747772240999211
 30
0.0
 40
0.0318510849148066
 50
124.9289684994028988
 51
210.4460814209390094
  0
ARC
  5
7587
  8
0
 10
3936.0243250230209924
 20
64.8435858120692217
 30
0.0
 40
0.1266060030319754
 50
222.1417130148718115
 51
255.0243344076789924
  0
ARC
  5
7588
  8
0
 10
3936.0872260074288533
 20
65.1018865214806226
 30
0.0
 40
0.3924334710778298
 50
255.8978319213512123
 51
269.0262911041328948
  0
ARC
  5
7589
  8
0
 10
3935.9116412114349259
 20
64.8597644010790759
 30
0.0
 40
0.0078740516047549
 50
236.6424542559985014
 51
270.0502004406026799
  0
ARC
  5
758A
  8
0
 10
3936.208518332849053
 20
64.8562150329629503
 30
0.0
 40
0.0196742948176362
 50
312.0153686044449728
 51
347.3019062922813873
  0
ARC
  5
758B
  8
0
 10
3936.2401135007780795
 20
64.8211333947070898
 30
0.0
 40
0.0275377377052525
 50
132.000645802087007
 51
227.3146527463773907
  0
ARC
  5
758C
  8
0
 10
3936.2032070218788249
 20
64.7747772240999211
 30
0.0
 40
0.0318510849148066
 50
329.553918579060678
 51
55.0710315005970514
  0
ARC
  5
758D
  8
0
 10
3936.1367892705538907
 20
64.8435858120692217
 30
0.0
 40
0.1266060030319754
 50
284.9756655923209792
 51
317.8582869851281885
  0
ARC
  5
758E
  8
0
 10
3936.0744716487920414
 20
65.0974780013748671
 30
0.0
 40
0.3880160071509218
 50
270.8986424291301205
 51
284.1772345453641719
  0
ARC
  5
758F
  8
0
 10
3936.2494730820008044
 20
64.8597644014631243
 30
0.0
 40
0.0078740519886738
 50
269.9498005639262033
 51
303.3721874388346009
  0
LINE
  5
7590
  8
0
 10
3935.9116481103869774
 20
64.8518903524966248
 30
0.0
 11
3936.2494661831869962
 21
64.8518903524966248
 31
0.0
  0
ARC
  5
7591
  8
0
 10
3936.2281598090880834
 20
65.3855070579966338
 30
0.0
 40
0.0078740156999846
 50
61.271658582992103
 51
90.0
  0
ARC
  5
7592
  8
0
 10
3935.9329529455490047
 20
65.385507057115376
 30
0.0
 40
0.0078740166188291
 50
89.9944025947503548
 51
118.728340943961598
  0
ARC
  5
7593
  8
0
 10
3936.4742571645870157
 20
62.6352165785966193
 30
0.0
 40
0.0393700786999993
 50
90.5000000154949049
 51
180.0000000000036096
  0
ARC
  5
7594
  8
0
 10
3936.4939422040938553
 20
62.7338173119526417
 30
0.0
 40
0.0590551179931763
 50
270.4999999123389216
 51
0.0000000426631972
  0
ARC
  5
7595
  8
0
 10
3936.5923674007881345
 20
62.7792973720966287
 30
0.0
 40
0.0393700786999993
 50
90.5000000154949049
 51
180.0000000000023874
  0
ARC
  5
7596
  8
0
 10
3938.1965206781837878
 20
62.8227528891235423
 30
0.0
 40
0.0100202238730985
 50
0.4228416643748665
 51
89.4765645639136693
  0
ARC
  5
7597
  8
0
 10
3938.2734989311670688
 20
62.8130585052757624
 30
0.0
 40
0.0197142111822428
 50
90.0847720566463437
 51
179.9648866672141025
  0
ARC
  5
7598
  8
0
 10
3937.2940679649977938
 20
60.3304254716911004
 30
0.0
 40
0.8393216191210017
 50
67.4589691819185191
 51
111.5410308577448006
  0
ARC
  5
7599
  8
0
 10
3936.4742571645870157
 20
61.2980112095966234
 30
0.0
 40
0.0393700786999993
 50
179.9999999999959073
 51
269.4999999845049956
  0
ARC
  5
759A
  8
0
 10
3936.4939422040938553
 20
61.199410476240601
 30
0.0
 40
0.0590551179931763
 50
359.9999999573367973
 51
89.5000000876611637
  0
ARC
  5
759B
  8
0
 10
3936.5923674007881345
 20
61.1539304160966282
 30
0.0
 40
0.0393700786999993
 50
179.999999999997101
 51
269.4999999845049956
  0
ARC
  5
759C
  8
0
 10
3938.1966981095329174
 20
61.110400950677608
 30
0.0
 40
0.0098425196544053
 50
269.4999997180553919
 51
0.0000001106446274
  0
ARC
  5
759D
  8
0
 10
3938.2734697629871334
 20
61.1201572011966192
 30
0.0
 40
0.0196850393999996
 50
188.2935839471809061
 51
270.0
  0
LINE
  5
759E
  8
0
 10
3936.4348870858871123
 20
62.6352165785966193
 30
0.0
 11
3936.4348870858871123
 21
61.2980112095966234
 31
0.0
  0
LINE
  5
759F
  8
0
 10
3936.5529973220868669
 20
62.7792973720966287
 30
0.0
 11
3936.5529973220868669
 21
61.1539304159966335
 31
0.0
  0
LINE
  5
75A0
  8
0
 10
3936.5920238363978569
 20
62.8186659517046593
 30
0.0
 11
3938.1966122183871448
 21
62.8327726948800986
 31
0.0
  0
LINE
  5
75A1
  8
0
 10
3936.592023836386943
 20
61.1145618364886829
 30
0.0
 11
3936.9858964059872051
 21
61.1111245625966291
 31
0.0
  0
LINE
  5
75A2
  8
0
 10
3937.6158176659901073
 20
61.1056273229957299
 30
0.0
 11
3938.1966122183871448
 21
61.1005588057966165
 31
0.0
  0
LINE
  5
75A3
  8
0
 10
3938.2065406291872023
 20
62.8228268374966277
 30
0.0
 11
3938.2065406291872023
 21
61.1104009506966293
 31
0.0
  0
LINE
  5
75A4
  8
0
 10
3938.2539905907519824
 20
61.1173177249764734
 30
0.0
 11
3938.2537847236881134
 21
62.8130705869966306
 31
0.0
  0
LINE
  5
75A5
  8
0
 10
3938.2065406291872023
 20
62.7441729491966171
 30
0.0
 11
3938.2537847236881134
 21
62.7441729491966171
 31
0.0
  0
LINE
  5
75A6
  8
0
 10
3938.2065406291872023
 20
61.1890548389966327
 30
0.0
 11
3938.2539818810541874
 21
61.1890605984392195
 31
0.0
  0
LINE
  5
75A7
  8
0
 10
3938.2734697629871334
 20
61.1004721617966311
 30
0.0
 11
3939.0215012590988408
 21
61.1004721617966311
 31
0.0
  0
LINE
  5
75A8
  8
0
 10
3938.2734697629871334
 20
62.8327726948800915
 30
0.0
 11
3939.0215012591270352
 21
62.8327726948682326
 31
0.0
  0
ARC
  5
75A9
  8
0
 10
3935.6651610228559548
 20
62.6564945848397414
 30
0.0
 40
0.0499999997568912
 50
89.999999924648634
 51
147.6124028864593924
  0
ARC
  5
75AA
  8
0
 10
3935.4521307889831405
 20
62.7895208023281768
 30
0.0
 40
0.2011546107967671
 50
324.5276233595176905
 51
328.1180452044029039
  0
ARC
  5
75AB
  8
0
 10
3935.3947445098629032
 20
62.825297438463501
 30
0.0
 40
0.2685501757879736
 50
313.1414509642481221
 51
325.4161321422074025
  0
ARC
  5
75AC
  8
0
 10
3935.3864944705219386
 20
62.8332570028966515
 30
0.0
 40
0.2800000000000316
 50
296.4080906565968121
 51
313.2595259898275799
  0
ARC
  5
75AD
  8
0
 10
3935.5421610228368081
 20
62.5197798515310765
 30
0.0
 40
0.0699999999116832
 50
116.4080654538265946
 51
171.3545518552394071
  0
ARC
  5
75AE
  8
0
 10
3935.5421610227549536
 20
62.5197798514697993
 30
0.0
 40
0.0699999998396634
 50
171.3545517955342916
 51
226.3010180997204088
  0
ARC
  5
75AF
  8
0
 10
3935.3832610229219426
 20
62.3534945845966178
 30
0.0
 40
0.1600000000000064
 50
0.0000000000008142
 51
46.301018037005889
  0
ARC
  5
75B0
  8
0
 10
3935.665156180329177
 20
61.9666153900153489
 30
0.0
 40
0.3699951574181314
 50
113.9154148769399058
 51
180.0002574156858941
  0
ARC
  5
75B1
  8
0
 10
3935.6651603832451656
 20
61.9666137277191424
 30
0.0
 40
0.3699993603294276
 50
180.0
 51
246.1542406776567873
  0
ARC
  5
75B2
  8
0
 10
3935.3713530613208604
 20
61.6879821248966209
 30
0.0
 40
0.1799999999999993
 50
288.8556504558728761
 51
340.5954754127013189
  0
ARC
  5
75B3
  8
0
 10
3935.4411610229080907
 20
61.483573591580857
 30
0.0
 40
0.0359999999842271
 50
108.8556502061813944
 51
270.0000000212870077
  0
ARC
  5
75B4
  8
0
 10
3935.4792241097038641
 20
61.4125735916262201
 30
0.0
 40
0.0349999999704009
 50
89.999999970297182
 51
216.0283270365270027
  0
ARC
  5
75B5
  8
0
 10
3935.2478550098830965
 20
61.2444904420774705
 30
0.0
 40
0.2509783363552045
 50
18.1023200777079687
 51
35.9930316247793698
  0
ARC
  5
75B6
  8
0
 10
3935.2669524207499308
 20
61.2500307933280013
 30
0.0
 40
0.2311056819991876
 50
7.176916860717089
 51
18.2678638874243511
  0
ARC
  5
75B7
  8
0
 10
3935.2419408687101168
 20
61.2431397520334215
 30
0.0
 40
0.2568090259809084
 50
354.37481748707728
 51
8.0051773918269031
  0
ARC
  5
75B8
  8
0
 10
3932.0159640045408196
 20
61.4593412498320717
 30
0.0
 40
3.4899063410184161
 50
354.6285966104650242
 51
356.0340594373212184
  0
ARC
  5
75B9
  8
0
 10
3933.6176359968781071
 20
61.3021804281138216
 30
0.0
 40
1.8805669053444889
 50
353.1762449896818907
 51
354.8277288672350096
  0
ARC
  5
75BA
  8
0
 10
3932.6159530018221631
 20
61.4005889179264699
 30
0.0
 40
2.8869253877354839
 50
351.2369480731952081
 51
353.5990659741844979
  0
ARC
  5
75BB
  8
0
 10
3927.3251277394670069
 20
62.225071579022412
 30
0.0
 40
8.2416033831151321
 50
345.985603226257922
 51
351.1757085357598953
  0
ARC
  5
75BC
  8
0
 10
3937.0458805750809006
 20
59.8333852172649188
 30
0.0
 40
1.7693125770455269
 50
167.0716434526933938
 51
171.7626094804778063
  0
ARC
  5
75BD
  8
0
 10
3936.7257531054578976
 20
59.882384843623278
 30
0.0
 40
1.4454698571828539
 50
171.8667742519465094
 51
176.766464153318509
  0
ARC
  5
75BE
  8
0
 10
3936.866882936014008
 20
59.8650453773062594
 30
0.0
 40
1.5873805905339911
 50
176.428931059358888
 51
207.1597799211608901
  0
ARC
  5
75BF
  8
0
 10
3935.4723285122909147
 20
59.1495735918435912
 30
0.0
 40
0.0200000002469631
 50
207.1464792260171066
 51
269.9999998009649858
  0
ARC
  5
75C0
  8
0
 10
3935.4571610229218095
 20
59.0925735915966328
 30
0.0
 40
0.0369999999999998
 50
90.0
 51
247.4846948555926929
  0
ARC
  5
75C1
  8
0
 10
3935.3434307507541234
 20
58.8182117410778105
 30
0.0
 40
0.2599999997092592
 50
28.0100935022499087
 51
67.4846948901155628
  0
ARC
  5
75C2
  8
0
 10
3935.5376610227558558
 20
58.9215297029127285
 30
0.0
 40
0.0400000001640453
 50
306.5283424246159143
 51
28.01009336229178
  0
ARC
  5
75C3
  8
0
 10
3935.6001610229182006
 20
58.8371570176972298
 30
0.0
 40
0.0649999999977819
 50
126.5303856532693061
 51
209.9262886604475966
  0
ARC
  5
75C4
  8
0
 10
3935.6651610229391736
 20
58.8745735916579278
 30
0.0
 40
0.1400000000613034
 50
209.926367014086793
 51
269.999999993043275
  0
ARC
  5
75C5
  8
0
 10
3935.6651610229878315
 20
62.6564945848397414
 30
0.0
 40
0.0499999997568912
 50
32.387597113540231
 51
90.000000075351366
  0
ARC
  5
75C6
  8
0
 10
3935.8781912568601911
 20
62.7895208023281697
 30
0.0
 40
0.2011546107967671
 50
211.8819547955966982
 51
215.4723766404819116
  0
ARC
  5
75C7
  8
0
 10
3935.9443696858311341
 20
62.8337258261335023
 30
0.0
 40
0.2807129439920892
 50
214.9817637870266083
 51
226.7254701642063992
  0
ARC
  5
75C8
  8
0
 10
3935.9438275753218477
 20
62.8332570028966373
 30
0.0
 40
0.2800000000000316
 50
226.7404740101721075
 51
243.591909343402989
  0
ARC
  5
75C9
  8
0
 10
3935.7881610230060687
 20
62.5197798515310765
 30
0.0
 40
0.0699999999116832
 50
8.6454481447601701
 51
63.5919345461731993
  0
ARC
  5
75CA
  8
0
 10
3935.7881610230879232
 20
62.5197798514697993
 30
0.0
 40
0.0699999998396634
 50
313.6989819002791933
 51
8.6454482044653052
  0
ARC
  5
75CB
  8
0
 10
3935.9470610229218437
 20
62.3534945845966178
 30
0.0
 40
0.1600000000000064
 50
133.698981962994111
 51
179.9999999999988063
  0
ARC
  5
75CC
  8
0
 10
3935.6651658655141546
 20
61.9666153900153489
 30
0.0
 40
0.3699951574181314
 50
37.4530864068457134
 51
66.0845851230600232
  0
ARC
  5
75CD
  8
0
 10
3935.6651616625990755
 20
61.9666137277191424
 30
0.0
 40
0.3699993603294276
 50
293.8457593223429853
 51
322.5471342267649106
  0
ARC
  5
75CE
  8
0
 10
3935.9589689845220164
 20
61.6879821248966209
 30
0.0
 40
0.1799999999999993
 50
199.404524587297999
 51
251.1443495441270102
  0
ARC
  5
75CF
  8
0
 10
3935.8891610229347862
 20
61.4835735915808499
 30
0.0
 40
0.0359999999842271
 50
269.9999999787129923
 51
71.1443497938185772
  0
ARC
  5
75D0
  8
0
 10
3935.8510979361399222
 20
61.4125735916262201
 30
0.0
 40
0.0349999999704009
 50
323.9716729634725993
 51
90.0000000297028038
  0
ARC
  5
75D1
  8
0
 10
3936.0824670359611446
 20
61.2444904420774705
 30
0.0
 40
0.2509783363552045
 50
144.0069683752203105
 51
161.8976799222915872
  0
ARC
  5
75D2
  8
0
 10
3936.0633696250929461
 20
61.2500307933280013
 30
0.0
 40
0.2311056819991876
 50
161.7321361125752048
 51
172.8230831392824882
  0
ARC
  5
75D3
  8
0
 10
3936.0883811771318506
 20
61.2431397520334215
 30
0.0
 40
0.2568090259809084
 50
171.9948226081727114
 51
185.6251825129222084
  0
ARC
  5
75D4
  8
0
 10
3939.3143580413020572
 20
61.4593412498320433
 30
0.0
 40
3.4899063410184161
 50
183.9659405626779005
 51
185.3714033895344926
  0
ARC
  5
75D5
  8
0
 10
3937.712686048966134
 20
61.3021804281138003
 30
0.0
 40
1.8805669053444889
 50
185.1722711327641946
 51
186.8237550103177114
  0
ARC
  5
75D6
  8
0
 10
3938.714369044022078
 20
61.4005889179264415
 30
0.0
 40
2.8869253877354839
 50
186.4009340258151042
 51
188.7630519268039109
  0
ARC
  5
75D7
  8
0
 10
3944.0051943063767794
 20
62.225071579022341
 30
0.0
 40
8.2416033831151321
 50
188.8242914642395931
 51
194.0143967737417086
  0
ARC
  5
75D8
  8
0
 10
3934.2844414707628857
 20
59.8333852172649188
 30
0.0
 40
1.7693125770455269
 50
8.2373905195217478
 51
12.9283565473061905
  0
ARC
  5
75D9
  8
0
 10
3934.6045689403849792
 20
59.8823848436232993
 30
0.0
 40
1.4454698571828539
 50
3.2335358466810828
 51
8.1332257480530821
  0
ARC
  5
75DA
  8
0
 10
3934.4634391098279593
 20
59.8650453773062807
 30
0.0
 40
1.5873805905339911
 50
332.8402200788387972
 51
3.5710689406403171
  0
ARC
  5
75DB
  8
0
 10
3935.8579935335519622
 20
59.1495735918435912
 30
0.0
 40
0.0200000002469631
 50
270.0000001990350142
 51
332.8535207739822113
  0
ARC
  5
75DC
  8
0
 10
3935.8731610229219768
 20
59.0925735915966328
 30
0.0
 40
0.0369999999999998
 50
292.5153051444071934
 51
90.0
  0
ARC
  5
75DD
  8
0
 10
3935.9868912950892081
 20
58.8182117410778105
 30
0.0
 40
0.2599999997092592
 50
112.5153051098843946
 51
151.9899064977497005
  0
ARC
  5
75DE
  8
0
 10
3935.7926610230861115
 20
58.9215297029127285
 30
0.0
 40
0.0400000001640453
 50
151.9899066377082022
 51
233.4716575753838868
  0
ARC
  5
75DF
  8
0
 10
3935.7301610229242215
 20
58.8371570176972298
 30
0.0
 40
0.0649999999977819
 50
330.0737113395518918
 51
53.46961434673063
  0
ARC
  5
75E0
  8
0
 10
3935.6651610229050675
 20
58.8745735916579278
 30
0.0
 40
0.1400000000613034
 50
270.000000006956725
 51
330.0736329859125249
  0
LINE
  5
75E1
  8
0
 10
3935.4571610229218095
 20
59.1295735915966176
 30
0.0
 11
3935.8731610229219768
 21
59.1295735915966176
 31
0.0
  0
LINE
  5
75E2
  8
0
 10
3935.4429926052789597
 20
59.058393832396618
 30
0.0
 11
3935.8873294406530476
 21
59.058393832396618
 31
0.0
  0
LINE
  5
75E3
  8
0
 10
3935.4411610229080907
 20
61.4475735915966297
 30
0.0
 11
3935.8891610229220532
 21
61.4475735915966226
 31
0.0
  0
LINE
  5
75E4
  8
0
 10
3935.5155786379459641
 20
61.6281983061390122
 30
0.0
 11
3935.8147440502461905
 21
61.6281985900631994
 31
0.0
  0
LINE
  5
75E5
  8
0
 10
3935.5151610262901158
 20
62.3048445859960935
 30
0.0
 11
3935.8151572934211799
 21
62.3048445845966228
 31
0.0
  0
LINE
  5
75E6
  8
0
 10
3935.5432610229208876
 20
62.353494584596632
 30
0.0
 11
3935.5432512815118571
 21
62.3053438970215723
 31
0.0
  0
LINE
  5
75E7
  8
0
 10
3935.7870610229210797
 20
62.3534945845966178
 30
0.0
 11
3935.7870610226950703
 21
62.3048445847276895
 31
0.0
  0
ARC
  5
75E8
  8
0
 10
3936.0315621537579318
 20
62.4308177296773295
 30
0.0
 40
0.2500004204261277
 50
253.1001443744210917
 51
320.0528064393607792
  0
ARC
  5
75E9
  8
0
 10
3936.2538870858747941
 20
62.2446138939084221
 30
0.0
 40
0.0400000000840299
 50
62.6609601005267223
 51
140.0528354510047109
  0
ARC
  5
75EA
  8
0
 10
3936.2796052269450229
 20
62.2943590166337486
 30
0.0
 40
0.0160000000509042
 50
242.661504461373795
 51
344.1395631886662159
  0
ARC
  5
75EB
  8
0
 10
3936.3103870859740709
 20
62.2856138937361621
 30
0.0
 40
0.0160000002604623
 50
90.0000003126872912
 51
164.1407515412365115
  0
ARC
  5
75EC
  8
0
 10
3936.3169401257619029
 20
62.3216138941015103
 30
0.0
 40
0.0200000001048832
 50
270.0000000739703978
 51
325.3218800555007988
  0
ARC
  5
75ED
  8
0
 10
3936.3646370859501076
 20
62.2886138937425926
 30
0.0
 40
0.0380000002540324
 50
90.0000000940068219
 51
145.3218801303935948
  0
ARC
  5
75EE
  8
0
 10
3936.3646370858868977
 20
62.2886138939966187
 30
0.0
 40
0.0380000000000096
 50
34.6781197462259527
 51
89.9999999059931781
  0
ARC
  5
75EF
  8
0
 10
3936.4123340458249913
 20
62.3216138937417412
 30
0.0
 40
0.0199999997451122
 50
214.678118900783403
 51
270.0000001797802156
  0
ARC
  5
75F0
  8
0
 10
3936.4188870858870359
 20
62.2856138939966186
 30
0.0
 40
0.0160000000000009
 50
0.0000000000032569
 51
90.0
  0
LINE
  5
75F1
  8
0
 10
3936.3103870858872142
 20
62.3016138939966169
 30
0.0
 11
3936.3169401257619029
 21
62.3016138939966169
 31
0.0
  0
LINE
  5
75F2
  8
0
 10
3936.4123340458882012
 20
62.3016138939966169
 30
0.0
 11
3936.4188870858870359
 21
62.3016138939966169
 31
0.0
  0
ARC
  5
75F3
  8
0
 10
3936.0315621537579318
 20
61.5024100583159168
 30
0.0
 40
0.2500004204261277
 50
39.9471935606391426
 51
106.8998556255788941
  0
ARC
  5
75F4
  8
0
 10
3936.2538870858747941
 20
61.688613894084817
 30
0.0
 40
0.0400000000840299
 50
219.9471645489952039
 51
297.3390398994731072
  0
ARC
  5
75F5
  8
0
 10
3936.2796052269450229
 20
61.6388687713594976
 30
0.0
 40
0.0160000000509042
 50
15.8604368113338303
 51
117.338495538626205
  0
ARC
  5
75F6
  8
0
 10
3936.3103870859740709
 20
61.6476138942570913
 30
0.0
 40
0.0160000002604623
 50
195.8592484587634885
 51
269.9999996873127088
  0
ARC
  5
75F7
  8
0
 10
3936.3169401257619029
 20
61.6116138938917501
 30
0.0
 40
0.0200000001048832
 50
34.6781199444991799
 51
89.9999999260295738
  0
ARC
  5
75F8
  8
0
 10
3936.3646370859501076
 20
61.6446138942506607
 30
0.0
 40
0.0380000002540324
 50
214.6781198696062916
 51
269.9999999059932065
  0
ARC
  5
75F9
  8
0
 10
3936.3646370858868977
 20
61.6446138939966275
 30
0.0
 40
0.0380000000000096
 50
270.0000000940067935
 51
325.3218802537741112
  0
ARC
  5
75FA
  8
0
 10
3936.4123340458249913
 20
61.6116138942515121
 30
0.0
 40
0.0199999997451122
 50
89.9999998202197844
 51
145.3218810992165118
  0
ARC
  5
75FB
  8
0
 10
3936.4188870858870359
 20
61.6476138939966276
 30
0.0
 40
0.0160000000000009
 50
270.0
 51
359.9999999999968168
  0
LINE
  5
75FC
  8
0
 10
3936.3103870858872142
 20
61.6316138939966294
 30
0.0
 11
3936.3169401257619029
 21
61.6316138939966294
 31
0.0
  0
LINE
  5
75FD
  8
0
 10
3936.4123340458882012
 20
61.6316138939966294
 30
0.0
 11
3936.4188870858870359
 21
61.6316138939966294
 31
0.0
  0
LINE
  5
75FE
  8
0
 10
3935.9588870858419796
 20
62.1916138939968377
 30
0.0
 11
3935.9588870858419796
 21
61.7416138939964227
 31
0.0
  0
LINE
  5
75FF
  8
0
 10
3936.3958868183967752
 20
62.3102345835798204
 30
0.0
 11
3936.3958868183967752
 21
61.622993204413433
 31
0.0
  0
LINE
  5
7600
  8
0
 10
3936.3333873533870246
 20
62.310234583594287
 30
0.0
 11
3936.3333873534479608
 21
61.6229932043118325
 31
0.0
  0
LINE
  5
7601
  8
0
 10
3936.29499611108713
 20
62.2899862954770214
 30
0.0
 11
3936.29499611108713
 21
61.643241492516232
 31
0.0
  0
LINE
  5
7602
  8
0
 10
3936.2232216111870002
 20
62.2702971310273199
 30
0.0
 11
3936.2232216111870002
 21
61.662930657065921
 31
0.0
  0
LINE
  5
7603
  8
0
 10
3936.2722572830871286
 20
62.2801460745493713
 30
0.0
 11
3936.2722572831657999
 21
61.6530817134842266
 31
0.0
  0
LINE
  5
7605
  8
0
 10
3938.2537847236881134
 20
65.6969288546966226
 30
0.0
 11
3938.2065406290939791
 21
65.6969288546966226
 31
0.0
  0
LINE
  5
7606
  8
0
 10
3938.2537847236881134
 20
64.5355115317966295
 30
0.0
 11
3938.2065406291808358
 21
64.5355115317930341
 31
0.0
  0
ARC
  5
7607
  8
0
 10
3937.049060455315157
 20
61.0794553603215107
 30
0.0
 40
0.0196851804261366
 50
180.0003508028759995
 51
269.9996526898415823
  0
ARC
  5
7608
  8
0
 10
3937.560832623359147
 20
61.0794939338296885
 30
0.0
 40
0.0197237918712117
 50
270.1123764858011214
 51
359.8876188572182855
  0
LINE
  5
7609
  8
0
 10
3937.5805563772901223
 20
61.0794552471957317
 30
0.0
 11
3937.5805563772901223
 21
61.1193393896483315
 31
0.0
  0
LINE
  5
760A
  8
0
 10
3937.0293752748889347
 20
61.1269168778763827
 30
0.0
 11
3937.0293752748889347
 21
61.0794552397957276
 31
0.0
  0
LINE
  5
760B
  8
0
 10
3937.0490603359899069
 20
61.0597701798957289
 30
0.0
 11
3937.5608713083888688
 21
61.0597701798957289
 31
0.0
  0
LINE
  5
760C
  8
0
 10
3938.2734697629871334
 20
65.7855115317966295
 30
0.0
 11
3938.2734697629871334
 21
64.4469288546967363
 31
0.0
  0
LINE
  5
760D
  8
0
 10
3936.4739136001871884
 20
62.6745851582045717
 30
0.0
 11
3936.494457550586958
 21
62.6747644425966328
 31
0.0
  0
LINE
  5
760E
  8
0
 10
3936.4739136001871884
 20
61.258642629988671
 30
0.0
 11
3936.494457550586958
 21
61.258463345596617
 31
0.0
  0
ENDSEC
  0
EOF
