  0
SECTION
  2
HEADER
  9
$ACADVER
  1
AC1009
  9
$INSBASE
 10
3918.2200472205840924
 20
62.5056155488553316
 30
0.0
  9
$EXTMIN
 10
3914.6767369417862028
 20
58.1729241316553285
 30
0.0
  9
$EXTMAX
 10
3931.4843258801161028
 20
73.2473864723175012
 30
0.0
  9
$LIMMIN
 10
0.0
 20
0.0
  9
$LIMMAX
 10
11.6929133858000007
 20
8.2677165353999982
  9
$ORTHOMODE
 70
     0
  9
$REGENMODE
 70
     1
  9
$FILLMODE
 70
     1
  9
$QTEXTMODE
 70
     0
  9
$MIRRTEXT
 70
     0
  9
$DRAGMODE
 70
     2
  9
$LTSCALE
 40
0.6431102362
  9
$OSMODE
 70
  4095
  9
$ATTMODE
 70
     1
  9
$TEXTSIZE
 40
0.2
  9
$TRACEWID
 40
0.05
  9
$TEXTSTYLE
  7
STANDARD
  9
$CLAYER
  8
0
  9
$CELTYPE
  6
BYLAYER
  9
$CECOLOR
 62
   256
  9
$DIMSCALE
 40
1.0
  9
$DIMASZ
 40
0.1875
  9
$DIMEXO
 40
0.0625
  9
$DIMDLI
 40
0.4443307087
  9
$DIMRND
 40
0.0
  9
$DIMDLE
 40
0.0
  9
$DIMEXE
 40
0.125
  9
$DIMTP
 40
0.01
  9
$DIMTM
 40
0.01
  9
$DIMTXT
 40
2.0
  9
$DIMCEN
 40
0.1052362205
  9
$DIMTSZ
 40
0.0
  9
$DIMTOL
 70
     1
  9
$DIMLIM
 70
     0
  9
$DIMTIH
 70
     1
  9
$DIMTOH
 70
     1
  9
$DIMSE1
 70
     0
  9
$DIMSE2
 70
     0
  9
$DIMTAD
 70
     0
  9
$DIMZIN
 70
     0
  9
$DIMBLK
  1

  9
$DIMASO
 70
     1
  9
$DIMSHO
 70
     1
  9
$DIMPOST
  1
\X
  9
$DIMAPOST
  1

  9
$DIMALT
 70
     1
  9
$DIMALTD
 70
     2
  9
$DIMALTF
 40
25.3999999999999986
  9
$DIMLFAC
 40
1.0
  9
$DIMTOFL
 70
     0
  9
$DIMTVP
 40
0.0
  9
$DIMTIX
 70
     0
  9
$DIMSOXD
 70
     0
  9
$DIMSAH
 70
     0
  9
$DIMBLK1
  1

  9
$DIMBLK2
  1

  9
$DIMSTYLE
  2
STANDARD
  9
$DIMCLRD
 70
     0
  9
$DIMCLRE
 70
     0
  9
$DIMCLRT
 70
     0
  9
$DIMTFAC
 40
1.0
  9
$DIMGAP
 40
0.09
  9
$LUNITS
 70
     2
  9
$LUPREC
 70
     4
  9
$SKETCHINC
 40
0.1
  9
$FILLETRAD
 40
0.0
  9
$AUNITS
 70
     0
  9
$AUPREC
 70
     0
  9
$MENU
  1
.
  9
$ELEVATION
 40
0.0
  9
$PELEVATION
 40
0.0
  9
$THICKNESS
 40
0.0
  9
$LIMCHECK
 70
     0
  9
$BLIPMODE
 70
     0
  9
$CHAMFERA
 40
0.0
  9
$CHAMFERB
 40
0.0
  9
$SKPOLY
 70
     0
  9
$TDCREATE
 40
2458060.468368056230247
  9
$TDUPDATE
 40
2459069.0714467591606081
  9
$TDINDWG
 40
0.4123797454
  9
$TDUSRTIMER
 40
0.4123797454
  9
$USRTIMER
 70
     1
  9
$ANGBASE
 50
0.0
  9
$ANGDIR
 70
     0
  9
$PDMODE
 70
     0
  9
$PDSIZE
 40
0.3125
  9
$PLINEWID
 40
0.0
  9
$COORDS
 70
     1
  9
$SPLFRAME
 70
     0
  9
$SPLINETYPE
 70
     6
  9
$SPLINESEGS
 70
     8
  9
$ATTDIA
 70
     1
  9
$ATTREQ
 70
     1
  9
$HANDLING
 70
     1
  9
$HANDSEED
  5
7585
  9
$SURFTAB1
 70
     6
  9
$SURFTAB2
 70
     6
  9
$SURFTYPE
 70
     6
  9
$SURFU
 70
     6
  9
$SURFV
 70
     6
  9
$UCSNAME
  2

  9
$UCSORG
 10
0.0
 20
0.0
 30
0.0
  9
$UCSXDIR
 10
1.0
 20
0.0
 30
0.0
  9
$UCSYDIR
 10
0.0
 20
1.0
 30
0.0
  9
$PUCSNAME
  2

  9
$PUCSORG
 10
0.0
 20
0.0
 30
0.0
  9
$PUCSXDIR
 10
1.0
 20
0.0
 30
0.0
  9
$PUCSYDIR
 10
0.0
 20
1.0
 30
0.0
  9
$USERI1
 70
     0
  9
$USERI2
 70
     0
  9
$USERI3
 70
     0
  9
$USERI4
 70
     0
  9
$USERI5
 70
     0
  9
$USERR1
 40
0.0
  9
$USERR2
 40
0.0
  9
$USERR3
 40
0.0
  9
$USERR4
 40
0.0
  9
$USERR5
 40
0.0
  9
$WORLDVIEW
 70
     1
  9
$SHADEDGE
 70
     3
  9
$SHADEDIF
 70
    70
  9
$TILEMODE
 70
     1
  9
$MAXACTVP
 70
    64
  9
$PLIMCHECK
 70
     0
  9
$PEXTMIN
 10
1.0000000000000000E+20
 20
1.0000000000000000E+20
 30
1.0000000000000000E+20
  9
$PEXTMAX
 10
-1.0000000000000000E+20
 20
-1.0000000000000000E+20
 30
-1.0000000000000000E+20
  9
$PLIMMIN
 10
0.0
 20
0.0
  9
$PLIMMAX
 10
12.0
 20
9.0
  9
$UNITMODE
 70
     0
  9
$VISRETAIN
 70
     1
  9
$PLINEGEN
 70
     0
  9
$PSLTSCALE
 70
     1
  0
ENDSEC
  0
SECTION
  2
TABLES
  0
TABLE
  2
VPORT
 70
     1
  0
VPORT
  2
*ACTIVE
 70
     0
 10
0.0
 20
0.0
 11
1.0
 21
1.0
 12
136.8556014247185999
 22
-61.3256581009222188
 13
0.0
 23
0.0
 14
1.0
 24
1.0
 15
0.0
 25
0.0
 16
0.0
 26
0.0
 36
5.1040778033513332
 17
3792.35791015625
 27
120.1806564331053977
 37
0.0
 40
65.152631745898745
 41
2.005224660397074
 42
50.0
 43
0.0
 44
0.0
 50
0.0
 51
0.0
 71
     0
 72
   100
 73
     1
 74
     1
 75
     0
 76
     0
 77
     0
 78
     0
  0
ENDTAB
  0
TABLE
  2
LTYPE
 70
     2
  0
LTYPE
  2
CONTINUOUS
 70
     0
  3
Solid line
 72
    65
 73
     0
 40
0.0
  0
LTYPE
  2
PHANTOM2
 70
     0
  3
___ _ _ ___ _ _ ___ _ _ ___ _ _
 72
    65
 73
     6
 40
1.25
 49
0.625
 49
-0.125
 49
0.125
 49
-0.125
 49
0.125
 49
-0.125
  0
ENDTAB
  0
TABLE
  2
LAYER
 70
     2
  0
LAYER
  2
0
 70
     0
 62
   255
  6
CONTINUOUS
  0
LAYER
  2
DEFPOINTS
 70
     0
 62
     7
  6
CONTINUOUS
  0
ENDTAB
  0
TABLE
  2
STYLE
 70
     1
  0
STYLE
  2
STANDARD
 70
     0
 40
0.0
 41
0.8
 50
0.0
 71
     0
 42
0.2
  3
txt
  4

  0
ENDTAB
  0
TABLE
  2
VIEW
 70
     0
  0
ENDTAB
  0
TABLE
  2
UCS
 70
     0
  0
ENDTAB
  0
TABLE
  2
APPID
 70
     9
  0
APPID
  2
ACAD
 70
     0
  0
APPID
  2
ACAD_MLEADERVER
 70
     0
  0
APPID
  2
ACAD_EXEMPT_FROM_CAD_STANDARDS
 70
     0
  0
APPID
  2
ACAD_NAV_VCDISPLAY
 70
     0
  0
APPID
  2
ACAECLAYERSTANDARD
 70
     0
  0
APPID
  2
ACCMTRANSPARENCY
 70
     0
  0
APPID
  2
ACAD_DSTYLE_DIMJAG
 70
     0
  0
APPID
  2
ACAD_DSTYLE_DIMTALN
 70
     0
  0
APPID
  2
ACDBATTR
 70
     0
  0
ENDTAB
  0
TABLE
  2
DIMSTYLE
 70
     1
  0
DIMSTYLE
  2
STANDARD
 70
     0
  3

  4

  5

  6

  7

 40
1.0
 41
0.1875
 42
0.0625
 43
0.38
 44
0.125
 45
0.0
 46
0.0
 47
0.01
 48
0.01
140
0.15625
141
0.09
142
0.0
143
25.3999999999999986
144
1.0
145
0.0
146
1.0
147
0.09
 71
     1
 72
     0
 73
     1
 74
     1
 75
     0
 76
     0
 77
     0
 78
     4
170
     0
171
     2
172
     0
173
     0
174
     0
175
     0
176
     0
177
     0
178
     0
  0
ENDTAB
  0
ENDSEC
  0
SECTION
  2
BLOCKS
  0
BLOCK
  8
0
  2
$MODEL_SPACE
 70
     0
 10
0.0
 20
0.0
 30
0.0
  3
$MODEL_SPACE
  1

  0
ENDBLK
  5
21
  8
0
  0
BLOCK
 67
     1
  8
0
  2
$PAPER_SPACE
 70
     0
 10
0.0
 20
0.0
 30
0.0
  3
$PAPER_SPACE
  1

  0
ENDBLK
  5
1D
 67
     1
  8
0
  0
BLOCK
  8
0
  2
_FILLED
 70
     0
 10
0.0
 20
0.0
 30
0.0
  3
_FILLED
  1

  0
SOLID
  5
69B4
  8
0
  6
BYBLOCK
 62
     0
 10
0.0
 20
0.0
 30
0.0
 11
-1.0
 21
0.1666666667
 31
0.0
 12
-1.0
 22
-0.1666666667
 32
0.0
 13
-1.0
 23
-0.1666666667
 33
0.0
  0
ENDBLK
  5
69B5
  8
0
  6
BYBLOCK
 62
     0
  0
BLOCK
  8
0
  2
A$CDFAF6206
 70
     0
 10
0.0
 20
0.0
 30
0.0
  3
A$CDFAF6206
  1

  0
LINE
  5
6A0E
  8
0
 10
7.4646650085734834
 20
10.9287685970688493
 30
0.0
 11
7.4646650085734896
 21
10.8905784766688498
 31
0.0
  0
ARC
  5
6A0F
  8
0
 10
7.7269027075262349
 20
10.8926811525838598
 30
0.0
 40
0.2622461286616791
 50
180.4593995232625048
 51
217.0214027758331099
  0
LINE
  5
6A10
  8
0
 10
9.767814609867095
 20
10.9287685970688493
 30
0.0
 11
9.767814609867095
 21
10.8905433757650094
 31
0.0
  0
ARC
  5
6A11
  8
0
 10
9.5068669568548287
 20
10.8922438613003703
 30
0.0
 40
0.2609531936261092
 50
322.8847083717149076
 51
359.6266329125650145
  0
LINE
  5
6A12
  8
0
 10
7.517522606271406
 20
10.7347792678688396
 30
0.0
 11
9.7149570120691777
 21
10.7347792678688396
 31
0.0
  0
LINE
  5
6A13
  8
0
 10
7.4646650085734834
 20
10.9287685970688493
 30
0.0
 11
9.7678146123202936
 21
10.9287685970688493
 31
0.0
  0
ARC
  5
6A14
  8
0
 10
4.0826771419203629
 20
8.527951346868889
 30
0.0
 40
4.0826771653999172
 50
13.3117747050523896
 51
32.7200330051415591
  0
ARC
  5
6A15
  8
0
 10
4.0826771460567306
 20
8.5279513475907933
 30
0.0
 40
4.0826771612084691
 50
359.6656501984817851
 51
13.3117747085593798
  0
ARC
  5
6A16
  8
0
 10
13.1498041284835097
 20
8.5279508235212234
 30
0.0
 40
4.0826788382043553
 50
147.2799733478981068
 51
166.6882233021349862
  0
ARC
  5
6A17
  8
0
 10
13.1498064934207992
 20
8.5279506557033251
 30
0.0
 40
4.0826811782395342
 50
166.688228652086309
 51
180.3343397625230011
  0
LINE
  5
6A18
  8
0
 10
8.1652847935202928
 20
8.504127000268852
 30
0.0
 11
9.0671948248202892
 21
8.5041270002687881
 31
0.0
  0
LINE
  5
6A19
  8
0
 10
8.1652847935202786
 20
8.5041270002667204
 30
0.0
 11
8.1652847935202928
 21
8.3607006934688481
 31
0.0
  0
ARC
  5
6A1A
  8
0
 10
5.6196779630382627
 20
8.3631022096452732
 30
0.0
 40
2.545607963272567
 50
342.0511668832173768
 51
359.945947387132378
  0
LINE
  5
6A1B
  8
0
 10
9.0671948248202892
 20
8.5041270002687881
 30
0.0
 11
9.0671948248202892
 21
8.2885990108688503
 31
0.0
  0
ARC
  5
6A1C
  8
0
 10
9.4521885297801163
 20
7.9614488056228501
 30
0.0
 40
0.5052201595850959
 50
139.6436242991769916
 51
174.6757930071850069
  0
ARC
  5
6A1D
  8
0
 10
9.9238413395551746
 20
8.1492417579399508
 30
0.0
 40
0.9848265662939324
 50
188.2263441834095943
 51
209.5593615864376034
  0
ARC
  5
6A1E
  8
0
 10
8.0788764238271256
 20
7.5665710856463297
 30
0.0
 40
0.0393715937169877
 50
162.1669117288323037
 51
227.2023190037006088
  0
ARC
  5
6A1F
  8
0
 10
8.7223682141740682
 20
8.2079667397440517
 30
0.0
 40
0.947895137885075
 50
225.0018610752970858
 51
261.4598823366255829
  0
ARC
  5
6A20
  8
0
 10
8.6645157662702701
 20
8.1695128573935332
 30
0.0
 40
0.9027466462812931
 50
264.7303071214498118
 51
281.8608311947915013
  0
ARC
  5
6A21
  8
0
 10
8.6645157662698935
 20
8.1695128573999671
 30
0.0
 40
0.9027466462876658
 50
299.1741886792128753
 51
299.1743179154552195
  0
ARC
  5
6A22
  8
0
 10
9.0843330931590316
 20
7.4150554710086141
 30
0.0
 40
0.0393703053609601
 50
251.9700352025496954
 51
252.4698971938937859
  0
ARC
  5
6A23
  8
0
 10
9.0843330931590316
 20
7.4150554710086141
 30
0.0
 40
0.0393703053609601
 50
297.2453716727138726
 51
6.8376113572703074
  0
LINE
  5
6A24
  8
0
 10
9.0671948248202892
 20
7.663402160468852
 30
0.0
 11
9.1234233799329516
 21
7.419742732911689
 31
0.0
  0
ARC
  5
6A25
  8
0
 10
8.8843741880892395
 20
9.8961379890094676
 30
0.0
 40
2.5255097382132701
 50
263.792800240752797
 51
274.9514951129821156
  0
ARC
  5
6A26
  8
0
 10
8.8258167405968848
 20
9.2763025889666508
 30
0.0
 40
1.9029970832759311
 50
246.0108363320686067
 51
263.5276935074397215
  0
ARC
  5
6A27
  8
0
 10
8.607491361665744
 20
8.3225444804829642
 30
0.0
 40
1.064510137163637
 50
283.1717405874071005
 51
297.7022170607311864
  0
LINE
  5
6A28
  8
0
 10
9.0671948248202892
 20
8.2885990108688503
 30
0.0
 11
26.2014378595979593
 21
8.2885990108689942
 31
0.0
  0
LINE
  5
6A29
  8
0
 10
26.2014378595979913
 20
7.6634021604689053
 30
0.0
 11
9.0671948248202892
 21
7.6634021604688618
 31
0.0
  0
LINE
  5
6A2A
  8
0
 10
27.8039676758446994
 20
10.9287685970690802
 30
0.0
 11
27.8039676758446888
 21
10.8905784766690807
 31
0.0
  0
ARC
  5
6A2B
  8
0
 10
27.5417299768919399
 20
10.8926811525840801
 30
0.0
 40
0.2622461286616791
 50
322.9785972241680838
 51
359.5406004767386889
  0
LINE
  5
6A2C
  8
0
 10
25.5008180745510913
 20
10.9287685970690305
 30
0.0
 11
25.5008180745510913
 21
10.8905433757651799
 31
0.0
  0
ARC
  5
6A2D
  8
0
 10
25.7617657275633505
 20
10.8922438613005497
 30
0.0
 40
0.2609531936261092
 50
180.3733670874362929
 51
217.1152916282862861
  0
LINE
  5
6A2E
  8
0
 10
27.7511100781467803
 20
10.7347792678690706
 30
0.0
 11
25.5536756723490015
 21
10.7347792678690208
 31
0.0
  0
LINE
  5
6A2F
  8
0
 10
27.8039676758446888
 20
10.9287685970686006
 30
0.0
 11
25.5008180745510806
 21
10.9287685970686006
 31
0.0
  0
ARC
  5
6A30
  8
0
 10
31.1859555424978616
 20
8.5279513468691981
 30
0.0
 40
4.0826771653999172
 50
147.2799669948597057
 51
166.6882252949490066
  0
ARC
  5
6A31
  8
0
 10
31.185955538361501
 20
8.5279513475911024
 30
0.0
 40
4.0826771612084691
 50
166.6882252914419098
 51
180.3343498015194086
  0
ARC
  5
6A32
  8
0
 10
22.1188285559344706
 20
8.5279508235212251
 30
0.0
 40
4.0826788382046102
 50
13.3117766978667795
 51
32.7200266521023977
  0
ARC
  5
6A33
  8
0
 10
22.1188261909974315
 20
8.5279506557034264
 30
0.0
 40
4.0826811782395342
 50
359.665660237478221
 51
13.31177134791497
  0
LINE
  5
6A34
  8
0
 10
27.1033478908979397
 20
8.5041270002690652
 30
0.0
 11
26.2014378595979416
 21
8.5041270002689835
 31
0.0
  0
LINE
  5
6A35
  8
0
 10
27.1033478908979504
 20
8.5041270002669354
 30
0.0
 11
27.1033478908979397
 21
8.3607006934690649
 31
0.0
  0
ARC
  5
6A36
  8
0
 10
29.6489547213799689
 20
8.3631022096455467
 30
0.0
 40
2.545607963272567
 50
180.0540526128687873
 51
197.9488331167837032
  0
LINE
  5
6A37
  8
0
 10
26.2014378595979416
 20
8.5041270002689835
 30
0.0
 11
26.2014378595979487
 21
8.2885990108690457
 31
0.0
  0
ARC
  5
6A38
  8
0
 10
25.8164441546381305
 20
7.9614488056230366
 30
0.0
 40
0.5052201595850959
 50
5.324206992816312
 51
40.3563757008241879
  0
ARC
  5
6A39
  8
0
 10
25.3447913448601803
 20
8.149241757940846
 30
0.0
 40
0.9848265662968968
 50
330.4406384136033807
 51
351.7736558165743759
  0
ARC
  5
6A3A
  8
0
 10
27.1897562605911212
 20
7.5665710856465473
 30
0.0
 40
0.0393715937169877
 50
312.7976809963004143
 51
17.8330882711689185
  0
ARC
  5
6A3B
  8
0
 10
26.5462644702441715
 20
8.2079667397442542
 30
0.0
 40
0.947895137885075
 50
278.5401176633754972
 51
314.9981389247041079
  0
ARC
  5
6A3C
  8
0
 10
26.6041169181479695
 20
8.1695128573937392
 30
0.0
 40
0.9027466462812931
 50
258.139168805210204
 51
275.2696928785518935
  0
ARC
  5
6A3D
  8
0
 10
26.6041169181483497
 20
8.1695128574001732
 30
0.0
 40
0.9027466462876658
 50
240.8256820845460027
 51
240.8258113207880058
  0
ARC
  5
6A3E
  8
0
 10
26.1842995912592293
 20
7.4150554710088086
 30
0.0
 40
0.0393703053609601
 50
287.5301028061073794
 51
288.0299647974517825
  0
ARC
  5
6A3F
  8
0
 10
26.1842995912592293
 20
7.4150554710088086
 30
0.0
 40
0.0393703053609601
 50
173.1623886427310026
 51
242.7546283272870085
  0
LINE
  5
6A40
  8
0
 10
26.2014378595981192
 20
7.6634021604690448
 30
0.0
 11
26.1452093044853093
 21
7.4197427329118826
 31
0.0
  0
ARC
  5
6A41
  8
0
 10
26.384258496328961
 20
9.8961379890096666
 30
0.0
 40
2.5255097382132701
 50
265.0485048870193054
 51
276.2071997592482262
  0
ARC
  5
6A42
  8
0
 10
26.4428159438213299
 20
9.2763025889668516
 30
0.0
 40
1.9029970832759311
 50
276.4723064925619838
 51
293.9891636679327007
  0
ARC
  5
6A43
  8
0
 10
26.6611413227524885
 20
8.3225444804831703
 30
0.0
 40
1.064510137163637
 50
242.2977829392704052
 51
256.8282594125943774
  0
LINE
  5
6A44
  8
0
 62
     4
 10
17.9031473532159602
 20
10.9287685970686006
 30
0.0
 11
24.6329820359843588
 21
20.0952817181593808
 31
0.0
  0
LINE
  5
6A45
  8
0
 62
     4
 10
17.9031473532159602
 20
-0.0000000300842942
 30
0.0
 11
22.3963351323106608
 21
4.993614497796286
 31
0.0
  0
ENDBLK
  5
6A49
  8
0
  0
ENDSEC
  0
SECTION
  2
ENTITIES
  0
ATTDEF
  5
3930
  8
DEFPOINTS
 10
3918.2202415538140485
 20
62.5071199984819899
 30
0.0
 40
0.001
  1
K-72813T-4M
  3

  2
MODELNUMBER
 70
     0
1001
ACDBATTR
1070
     0
1070
     1
  0
ATTDEF
  5
3931
  8
DEFPOINTS
 10
3918.2202415538140485
 20
62.5054533318153176
 30
0.0
 40
0.001
  1
MODULO
  3

  2
TRADENAME
 70
     0
1001
ACDBATTR
1070
     0
1070
     1
  0
ATTDEF
  5
3932
  8
DEFPOINTS
 10
3918.2202415538140485
 20
62.5037866651486524
 30
0.0
 40
0.001
  1
VALVE TRIM
  3

  2
PRODUCT
 70
     0
1001
ACDBATTR
1070
     0
1070
     1
  0
LINE
  5
7490
  8
0
 10
3914.6767369417862028
 20
62.5056155488553316
 30
0.0
 11
3921.7633574993819821
 21
62.5056155488553316
 31
0.0
  0
LINE
  5
7491
  8
0
 10
3921.7633574993819821
 20
62.5056155488553316
 30
0.0
 11
3921.753588046934965
 21
62.2259030099553314
 31
0.0
  0
ARC
  5
7492
  8
0
 10
3921.6355497601598472
 20
62.2300249978334818
 30
0.0
 40
0.118110236378147
 50
270.0000000851480877
 51
357.9999999650847826
  0
ARC
  5
7493
  8
0
 10
3921.5893007057029536
 20
62.0134895648700635
 30
0.0
 40
0.098425196585275
 50
89.9999998651908868
 51
141.9321667499179114
  0
ARC
  5
7494
  8
0
 10
3921.5893007059348747
 20
62.013489564655309
 30
0.0
 40
0.0984251968999702
 50
141.9321667346198979
 51
174.7840908006459983
  0
ARC
  5
7495
  8
0
 10
3921.3736619037699711
 20
62.033174604104687
 30
0.0
 40
0.1181102362805954
 50
312.3920457220608
 51
354.7840913603640161
  0
ARC
  5
7496
  8
0
 10
3921.373661903438915
 20
62.0331746046944232
 30
0.0
 40
0.1181102369390921
 50
270.0000002027347819
 51
312.3920456476569143
  0
LINE
  5
7497
  8
0
 10
3921.373661903835
 20
61.9150643678553365
 30
0.0
 11
3915.0664356909128401
 21
61.9150643677553276
 31
0.0
  0
LINE
  5
7498
  8
0
 10
3914.6767369417862028
 20
62.5056155488553316
 30
0.0
 11
3914.6865094279351069
 21
62.2259030099553314
 31
0.0
  0
ARC
  5
7499
  8
0
 10
3914.8045477147511519
 20
62.2300249972394113
 30
0.0
 40
0.1181102363624626
 50
181.9999997474072018
 51
270.0000265319122832
  0
LINE
  5
749A
  8
0
 10
3914.8045477694440706
 20
62.1119147609769513
 30
0.0
 11
3921.6355497603349249
 21
62.1119147614553384
 31
0.0
  0
ARC
  5
749B
  8
0
 10
3914.8507967689311045
 20
62.013489563904173
 30
0.0
 40
0.0984251970806122
 50
38.0678529073164569
 51
89.9999999584942145
  0
ARC
  5
749C
  8
0
 10
3914.8507967704731527
 20
62.0134895649199507
 30
0.0
 40
0.0984251952394869
 50
5.2159084614998923
 51
38.0678529956390079
  0
ARC
  5
749D
  8
0
 10
3915.0664355713670375
 20
62.033174603711501
 30
0.0
 40
0.1181102365106005
 50
185.2159084379267995
 51
227.6079542667575026
  0
ARC
  5
749E
  8
0
 10
3915.0664355715121019
 20
62.0331746041607914
 30
0.0
 40
0.1181102369395396
 50
227.6079543620832908
 51
270.0000579115330765
  0
ARC
  5
749F
  8
0
 10
3917.3733925594387983
 20
61.1665512963234974
 30
0.0
 40
0.0192045063974999
 50
178.5630907798272915
 51
270.5969821302037985
  0
ARC
  5
74A0
  8
0
 10
3917.3636980698629486
 20
61.0905916493809116
 30
0.0
 40
0.0095130919813007
 50
89.1677749580381658
 51
182.5082415753024918
  0
ARC
  5
74A1
  8
0
 10
3917.5586313990497729
 20
61.0922297187808923
 30
0.0
 40
0.0078740238466256
 50
89.9369191304691356
 51
179.9999754456684116
  0
ARC
  5
74A2
  8
0
 10
3917.5901271411921698
 20
59.5782878472836472
 30
0.0
 40
0.039369483517234
 50
179.9991978606809937
 51
260.7034080334461805
  0
ARC
  5
74A3
  8
0
 10
3917.4073652357042192
 20
59.4859305095553168
 30
0.0
 40
0.0393700786999976
 50
180.5000000000968896
 51
270.0
  0
ARC
  5
74A4
  8
0
 10
3917.6498973843167732
 20
59.4695189889221183
 30
0.0
 40
0.0590431586905746
 50
6.8481953526305803
 51
81.8071984875155067
  0
ARC
  5
74A5
  8
0
 10
3917.7471456442208364
 20
59.4807985110637034
 30
0.0
 40
0.0388582757307158
 50
186.2631799530138892
 51
263.6295856874696142
  0
ARC
  5
74A6
  8
0
 10
3917.452844833520885
 20
59.3875041896828009
 30
0.0
 40
0.0590562410743299
 50
0.5010800455488342
 51
89.9995514978626545
  0
ARC
  5
74A7
  8
0
 10
3917.5515735665439934
 20
59.3681301285405922
 30
0.0
 40
0.0396801307084194
 50
180.9435425526936001
 51
269.8195823555869879
  0
ARC
  5
74A8
  8
0
 10
3917.9059479677239324
 20
59.2928198846257715
 30
0.0
 40
0.1324710376918712
 50
45.9722718170964697
 51
85.5774003150279441
  0
ARC
  5
74A9
  8
0
 10
3917.9147104535009021
 20
59.3003400276286285
 30
0.0
 40
0.1209788092578388
 50
13.4502422306248697
 51
46.4807897757100719
  0
ARC
  5
74AA
  8
0
 10
3917.9096778290258953
 20
59.2912560415933925
 30
0.0
 40
0.1284603763885408
 50
341.1124273595488035
 51
6.5444370755748249
  0
ARC
  5
74AB
  8
0
 10
3917.9009216546928656
 20
59.2959511950950215
 30
0.0
 40
0.1382743067239605
 50
315.1482448492465096
 51
340.4461722143440738
  0
ARC
  5
74AC
  8
0
 10
3918.2200471730830031
 20
58.9741205269737279
 30
0.0
 40
0.3149588067059774
 50
134.58694081622059
 51
180.0001893952145906
  0
ARC
  5
74AD
  8
0
 10
3918.2200485140638193
 20
58.9741190036406593
 30
0.0
 40
0.3149601476854112
 50
179.9999122782199095
 51
270.0000363355620721
  0
LINE
  5
74AE
  8
0
 10
3917.5507576576787869
 20
61.915064367794713
 30
0.0
 11
3917.5507573752038297
 21
61.1670328717553176
 31
0.0
  0
LINE
  5
74AF
  8
0
 10
3917.5507573752038297
 20
61.1670328717553176
 30
0.0
 11
3917.5704424146038036
 21
61.1473478323553223
 31
0.0
  0
LINE
  5
74B0
  8
0
 10
3917.4424896587038347
 20
61.1473478323553223
 30
0.0
 11
3917.4424896587038347
 21
61.1001037378553278
 31
0.0
  0
LINE
  5
74B1
  8
0
 10
3917.6393400524029857
 20
61.1473478323553223
 30
0.0
 11
3917.6393400524029857
 21
61.1001037378553278
 31
0.0
  0
LINE
  5
74B2
  8
0
 10
3917.5507573752038297
 20
61.0922297187808923
 30
0.0
 11
3917.5507576576787869
 21
59.5782883984553209
 31
0.0
  0
LINE
  5
74B3
  8
0
 10
3917.3541940920240449
 20
61.090175327057807
 30
0.0
 11
3917.3679966560948742
 21
59.4855869451659132
 31
0.0
  0
LINE
  5
74B4
  8
0
 10
3917.7428340944029515
 20
59.4421801717553322
 30
0.0
 11
3917.916163113931816
 21
59.4248964783701084
 31
0.0
  0
LINE
  5
74B5
  8
0
 10
3917.511898816188932
 20
59.3880206592398778
 30
0.0
 11
3917.511898816188932
 21
59.3674767088659081
 31
0.0
  0
LINE
  5
74B6
  8
0
 10
3917.3541940920240449
 20
61.9150643677553276
 30
0.0
 11
3917.3541940920240449
 21
61.1670328717625083
 31
0.0
  0
ARC
  5
74B7
  8
0
 10
3919.0666251300558542
 20
61.1667436398192592
 30
0.0
 40
0.0193963652694614
 50
269.6444729588765199
 51
0.8538492325563728
  0
ARC
  5
74B8
  8
0
 10
3919.0763201768158979
 20
61.0904020946328998
 30
0.0
 40
0.0097018197138669
 50
358.6595482726137902
 51
90.3455998200173838
  0
ARC
  5
74B9
  8
0
 10
3918.8814658088072065
 20
61.0922290722297774
 30
0.0
 40
0.0078745260877404
 50
0.0036680702065067
 51
90.0615535359168433
  0
ARC
  5
74BA
  8
0
 10
3918.8499689455029511
 20
59.5782894777663188
 30
0.0
 40
0.0393713893951835
 50
279.2975986379670985
 51
359.9982171409184843
  0
ARC
  5
74BB
  8
0
 10
3919.0327321320251031
 20
59.4859302050432035
 30
0.0
 40
0.0393697754530415
 50
269.9860604389991749
 51
359.5001691934492101
  0
ARC
  5
74BC
  8
0
 10
3918.7901996771679478
 20
59.4695188649700128
 30
0.0
 40
0.0590431581418813
 50
98.1941057978315968
 51
173.151792346628298
  0
ARC
  5
74BD
  8
0
 10
3918.6929514202429345
 20
59.480798408046013
 30
0.0
 40
0.0388582757307158
 50
276.3704018311485129
 51
353.7368075656106043
  0
ARC
  5
74BE
  8
0
 10
3918.9872539133089049
 20
59.3874998863986221
 30
0.0
 40
0.0590603772675164
 50
90.0020878058760445
 51
179.4949298364030028
  0
ARC
  5
74BF
  8
0
 10
3918.8885251910528496
 20
59.3681258097720672
 30
0.0
 40
0.0396759522101421
 50
270.1779436666099059
 51
359.0623728684860225
  0
ARC
  5
74C0
  8
0
 10
3918.5341490557912039
 20
59.2928198162017495
 30
0.0
 40
0.1324710376918712
 50
94.422587203603527
 51
134.0277157015430021
  0
ARC
  5
74C1
  8
0
 10
3918.5375806686261058
 20
59.2907546130640668
 30
0.0
 40
0.1363448245357286
 50
134.4613996706023897
 51
163.937261423125392
  0
ARC
  5
74C2
  8
0
 10
3918.5401707698511018
 20
59.2929697575824974
 30
0.0
 40
0.1382501813297405
 50
165.1165454948402953
 51
198.2513073938999071
  0
ARC
  5
74C3
  8
0
 10
3918.5391753695048465
 20
59.2959511255760816
 30
0.0
 40
0.1382743067239604
 50
199.553815304281386
 51
224.8517426693811103
  0
ARC
  5
74C4
  8
0
 10
3918.2200441201161993
 20
58.9741167000621402
 30
0.0
 40
0.3149655060745964
 50
0.0004942860422695
 51
45.4128020045658829
  0
ARC
  5
74C5
  8
0
 10
3918.2200477057158423
 20
58.9741207764209179
 30
0.0
 40
0.3149619204658834
 50
270.0000847640013717
 51
359.9997527475690049
  0
LINE
  5
74C6
  8
0
 10
3918.8893402195440103
 20
61.91506422199555
 30
0.0
 11
3918.8893400565921183
 21
61.1670327259561617
 31
0.0
  0
LINE
  5
74C7
  8
0
 10
3918.8893400565921183
 20
61.1670327259561617
 30
0.0
 11
3918.8696550129038769
 21
61.1473476908443914
 31
0.0
  0
LINE
  5
74C8
  8
0
 10
3918.9976077688038458
 20
61.1473476629710078
 30
0.0
 11
3918.9976077585120038
 21
61.1001035684710203
 31
0.0
  0
LINE
  5
74C9
  8
0
 10
3918.8007573751037853
 20
61.1473477058531216
 30
0.0
 11
3918.8007573648119433
 21
61.10010361135312
 31
0.0
  0
LINE
  5
74CA
  8
0
 10
3918.8893403348788524
 20
61.0922295729817222
 30
0.0
 11
3918.8893403348788524
 21
59.5782882526562076
 31
0.0
  0
LINE
  5
74CB
  8
0
 10
3919.0860193415551294
 20
61.0901751383954306
 30
0.0
 11
3919.0721004094120872
 21
59.4855867595540033
 31
0.0
  0
LINE
  5
74CC
  8
0
 10
3918.697262961648903
 20
59.4421800677984109
 30
0.0
 11
3918.5239339383551851
 21
59.4248964121713783
 31
0.0
  0
LINE
  5
74CD
  8
0
 10
3918.9281958307178684
 20
59.3880205049756427
 30
0.0
 11
3918.9281958307178684
 21
59.3674765546407102
 31
0.0
  0
LINE
  5
74CE
  8
0
 10
3919.0860193415428512
 20
61.9150643678190704
 30
0.0
 11
3919.0860193415551294
 21
61.1670326830812527
 31
0.0
  0
LINE
  5
74CF
  8
0
 10
3917.5837671932040394
 20
59.53943546905532
 30
0.0
 11
3917.6583113048341147
 21
59.5279595615553205
 31
0.0
  0
LINE
  5
74D0
  8
0
 10
3917.7428340944029515
 20
59.4421801717553322
 30
0.0
 11
3918.697262961648903
 21
59.4421800677983967
 31
0.0
  0
LINE
  5
74D1
  8
0
 10
3917.4073652357042192
 20
59.4465604308553281
 30
0.0
 11
3917.728768499574926
 21
59.4465604306939781
 31
0.0
  0
LINE
  5
74D2
  8
0
 10
3917.5514486187039438
 20
59.3284501945553302
 30
0.0
 11
3918.0323710906118322
 21
59.3284797995574991
 31
0.0
  0
LINE
  5
74D3
  8
0
 10
3917.3735926534282044
 20
61.1473478323553223
 30
0.0
 11
3919.0665047741040325
 21
61.1473476479623983
 31
0.0
  0
LINE
  5
74D4
  8
0
 10
3917.5507573752038297
 20
61.1670328717553176
 30
0.0
 11
3918.8893400565921183
 21
61.1670325801570129
 31
0.0
  0
LINE
  5
74D5
  8
0
 10
3917.3638362433039219
 20
61.1001037378553278
 30
0.0
 11
3919.0762616572042134
 21
61.1001037378553207
 31
0.0
  0
LINE
  5
74D6
  8
0
 10
3918.7817844263859115
 20
59.5279592455098694
 30
0.0
 11
3918.8563298840349489
 21
59.5394353304471124
 31
0.0
  0
LINE
  5
74D7
  8
0
 10
3918.7113282801460628
 20
59.4465601748424533
 30
0.0
 11
3919.0327225537030245
 21
59.4465604307553193
 31
0.0
  0
LINE
  5
74D8
  8
0
 10
3918.888651398303864
 20
59.3284501945553302
 30
0.0
 11
3918.4065518677412001
 21
59.3284535797622326
 31
0.0
  0
CIRCLE
  5
74D9
  8
0
 10
3918.2200487138038625
 20
58.9741194858553186
 30
0.0
 40
0.1771653542999996
  0
ARC
  5
74DA
  8
0
 10
3917.9010487137038581
 20
59.312450194555332
 30
0.0
 40
0.0159999999999983
 50
90.0
 51
180.0000000000061107
  0
ARC
  5
74DB
  8
0
 10
3917.865048713599208
 20
59.3058971546811478
 30
0.0
 40
0.0200000001048801
 50
304.6781199444914137
 51
359.9999999260226105
  0
ARC
  5
74DC
  8
0
 10
3917.8980487137041564
 20
59.2582001945553287
 30
0.0
 40
0.0380000000000015
 50
124.6781194812251954
 51
235.321880518777192
  0
ARC
  5
74DD
  8
0
 10
3917.865048713599208
 20
59.2105032344295097
 30
0.0
 40
0.0200000001048935
 50
0.0000000739769539
 51
55.3218800554767114
  0
ARC
  5
74DE
  8
0
 10
3917.9010487136588381
 20
59.2039501945402193
 30
0.0
 40
0.0159999999549161
 50
179.9999999458860032
 51
254.140753090818805
  0
ARC
  5
74DF
  8
0
 10
3917.8923034018880571
 20
59.1731682538339427
 30
0.0
 40
0.0160001305425835
 50
332.6616872857142084
 51
74.1389909738865498
  0
ARC
  5
74E0
  8
0
 10
3917.9420487135621443
 20
59.1474501945752777
 30
0.0
 40
0.0399999998645246
 50
152.6611153621566928
 51
230.0528356754722097
  0
ARC
  5
74E1
  8
0
 10
3917.7558452331268199
 20
58.9251254911119489
 30
0.0
 40
0.2500000171973941
 50
45.1004433635621496
 51
50.052835188375191
  0
LINE
  5
74E2
  8
0
 10
3917.8850487137028722
 20
59.3124501945553178
 30
0.0
 11
3917.8850487137028722
 21
59.3058971546811478
 31
0.0
  0
LINE
  5
74E3
  8
0
 10
3917.8850487137028722
 20
59.2105032344295097
 30
0.0
 11
3917.8850487137028722
 21
59.2039501945553326
 31
0.0
  0
ARC
  5
74E4
  8
0
 10
3917.8886954387771766
 20
59.2852843852653919
 30
0.0
 40
0.1500284531216054
 50
7.896983692935545
 51
16.7331601316202701
  0
LINE
  5
74E5
  8
0
 10
3917.8966763122898556
 20
59.1885592197553265
 30
0.0
 11
3917.9893632161451933
 21
59.1885592197553265
 31
0.0
  0
ARC
  5
74E6
  8
0
 10
3918.5390501929778111
 20
59.3124539734261376
 30
0.0
 40
0.0159999999999983
 50
0.0006787236517086
 51
90.000678723654957
  0
ARC
  5
74E7
  8
0
 10
3918.5750640359788122
 20
59.3059047490182607
 30
0.0
 40
0.0200137657042377
 50
180.0103804548799928
 51
235.3019014225953072
  0
ARC
  5
74E8
  8
0
 10
3918.5420544843691459
 20
59.258202096559522
 30
0.0
 40
0.0379963513231288
 50
304.6759143647568067
 51
55.3254431656291601
  0
ARC
  5
74E9
  8
0
 10
3918.5750514007399943
 20
59.2105074397621323
 30
0.0
 40
0.0200000001048935
 50
124.6787986681673033
 51
180.0006786496807933
  0
ARC
  5
74EA
  8
0
 10
3918.5390514783098297
 20
59.203953973418642
 30
0.0
 40
0.0159999999549161
 50
285.8599256328370188
 51
0.0006787777718235
  0
ARC
  5
74EB
  8
0
 10
3918.5477971547220477
 20
59.1731721363111518
 30
0.0
 40
0.0160001305425835
 50
105.8616877497680946
 51
207.3389914379401091
  0
ARC
  5
74EC
  8
0
 10
3918.4980521477068578
 20
59.1474534877732196
 30
0.0
 40
0.0399999998645246
 50
309.9478430481826763
 51
27.3395633614977704
  0
ARC
  5
74ED
  8
0
 10
3918.6842582617778135
 20
58.9251309900849307
 30
0.0
 40
0.2500000171973941
 50
129.9478435352824874
 51
134.9002353600893969
  0
LINE
  5
74EE
  8
0
 10
3918.555050192976978
 20
59.3124541629615365
 30
0.0
 11
3918.5550502706041698
 21
59.3059011230878212
 31
0.0
  0
LINE
  5
74EF
  8
0
 10
3918.5550514006367848
 20
59.2105072028428694
 30
0.0
 11
3918.5550514782630671
 21
59.2039541629691612
 31
0.0
  0
LINE
  5
74F0
  8
0
 10
3918.5434240619988486
 20
59.1885630504301332
 30
0.0
 11
3918.4507371581507869
 21
59.1885619524645534
 31
0.0
  0
ARC
  5
74F1
  8
0
 10
3918.2200487137029086
 20
58.5587241316553317
 30
0.0
 40
0.3857999999999997
 50
115.2029112292868973
 51
115.4168155324563969
  0
ARC
  5
74F2
  8
0
 10
3918.2200487137029086
 20
58.5587241316553317
 30
0.0
 40
0.3857999999999997
 50
180.0
 51
359.9999999999996021
  0
ARC
  5
74F3
  8
0
 10
3918.2200487137029086
 20
58.5587241316553317
 30
0.0
 40
0.3857999999999997
 50
64.5831844675435462
 51
64.7970887431258546
  0
ARC
  5
74F4
  8
0
 10
3918.2200487137029086
 20
58.5587241316553317
 30
0.0
 40
0.1930000000000005
 50
180.0
 51
0.0
  0
ARC
  5
74F5
  8
0
 10
3918.2163746732380787
 20
58.5594319051403929
 30
0.0
 40
0.3821266150027642
 50
135.8342732290016954
 51
180.106123088891195
  0
ARC
  5
74F6
  8
0
 10
3918.2239434931580035
 20
58.5594741397511527
 30
0.0
 40
0.381905956999842
 50
359.8874792986961211
 51
44.1827442145707323
  0
ARC
  5
74F7
  8
0
 10
3918.2271401310440524
 20
58.5573930605417416
 30
0.0
 40
0.2000958446430113
 50
137.6000214660907943
 51
179.6188560554203093
  0
ARC
  5
74F8
  8
0
 10
3918.2131409067651475
 20
58.5574266176234204
 30
0.0
 40
0.1999120176920368
 50
0.371876592048425
 51
42.4305133318190002
  0
LINE
  5
74F9
  8
0
 10
3917.8764280241061897
 20
59.2894499270553297
 30
0.0
 11
3918.0381255080710616
 21
59.2894499270553297
 31
0.0
  0
LINE
  5
74FA
  8
0
 10
3917.8764280241061897
 20
59.2269504620553207
 30
0.0
 11
3918.0207493757761767
 21
59.2269504620553207
 31
0.0
  0
LINE
  5
74FB
  8
0
 10
3918.4019654029848425
 20
59.2894499270553297
 30
0.0
 11
3918.5636711550341715
 21
59.2894501727117671
 31
0.0
  0
LINE
  5
74FC
  8
0
 10
3918.4193476083910355
 20
59.2269504620553207
 30
0.0
 11
3918.5636660144032248
 21
59.2269504620553207
 31
0.0
  0
LINE
  5
74FE
  8
0
 10
3917.6583113048341147
 20
59.5279595615553276
 30
0.0
 11
3918.7817844263859115
 21
59.5279592455098694
 31
0.0
  0
ARC
  5
74FF
  8
0
 10
3918.2200487137688469
 20
58.5587241316142482
 30
0.0
 40
0.3700000000758335
 50
137.1458625239224887
 51
180.0000057209273052
  0
ARC
  5
7500
  8
0
 10
3918.220048713711094
 20
58.5587241316732303
 30
0.0
 40
0.370000000017912
 50
180.0000057300595984
 51
269.9999999988535819
  0
ARC
  5
7501
  8
0
 10
3918.2200487136378797
 20
58.5587241316142126
 30
0.0
 40
0.3700000000759758
 50
0.0000000063668089
 51
42.844736104570039
  0
ARC
  5
7502
  8
0
 10
3918.2200487136960874
 20
58.5587241316732303
 30
0.0
 40
0.3700000000178978
 50
270.0000000011464181
 51
359.9999999972267801
  0
ENDSEC
  0
EOF
