  0
SECTION
  2
HEADER
  9
$ACADVER
  1
AC1009
  9
$INSBASE
 10
3905.2946119022049061
 20
65.6208228392027024
 30
0.0
  9
$EXTMIN
 10
3892.1025485142290563
 20
60.4595808751026809
 30
0.0
  9
$EXTMAX
 10
3908.8379219934067805
 20
69.4430905592752623
 30
0.0
  9
$LIMMIN
 10
0.0
 20
0.0
  9
$LIMMAX
 10
11.6929133858000007
 20
8.2677165353999982
  9
$ORTHOMODE
 70
     0
  9
$REGENMODE
 70
     1
  9
$FILLMODE
 70
     1
  9
$QTEXTMODE
 70
     0
  9
$MIRRTEXT
 70
     0
  9
$DRAGMODE
 70
     2
  9
$LTSCALE
 40
0.6431102362
  9
$OSMODE
 70
  4095
  9
$ATTMODE
 70
     1
  9
$TEXTSIZE
 40
0.2
  9
$TRACEWID
 40
0.05
  9
$TEXTSTYLE
  7
STANDARD
  9
$CLAYER
  8
0
  9
$CELTYPE
  6
BYLAYER
  9
$CECOLOR
 62
   256
  9
$DIMSCALE
 40
1.0
  9
$DIMASZ
 40
0.1875
  9
$DIMEXO
 40
0.0625
  9
$DIMDLI
 40
0.4443307087
  9
$DIMRND
 40
0.0
  9
$DIMDLE
 40
0.0
  9
$DIMEXE
 40
0.125
  9
$DIMTP
 40
0.01
  9
$DIMTM
 40
0.01
  9
$DIMTXT
 40
2.0
  9
$DIMCEN
 40
0.1052362205
  9
$DIMTSZ
 40
0.0
  9
$DIMTOL
 70
     1
  9
$DIMLIM
 70
     0
  9
$DIMTIH
 70
     1
  9
$DIMTOH
 70
     1
  9
$DIMSE1
 70
     0
  9
$DIMSE2
 70
     0
  9
$DIMTAD
 70
     0
  9
$DIMZIN
 70
     0
  9
$DIMBLK
  1

  9
$DIMASO
 70
     1
  9
$DIMSHO
 70
     1
  9
$DIMPOST
  1
\X
  9
$DIMAPOST
  1

  9
$DIMALT
 70
     1
  9
$DIMALTD
 70
     2
  9
$DIMALTF
 40
25.3999999999999986
  9
$DIMLFAC
 40
1.0
  9
$DIMTOFL
 70
     0
  9
$DIMTVP
 40
0.0
  9
$DIMTIX
 70
     0
  9
$DIMSOXD
 70
     0
  9
$DIMSAH
 70
     0
  9
$DIMBLK1
  1

  9
$DIMBLK2
  1

  9
$DIMSTYLE
  2
STANDARD
  9
$DIMCLRD
 70
     0
  9
$DIMCLRE
 70
     0
  9
$DIMCLRT
 70
     0
  9
$DIMTFAC
 40
1.0
  9
$DIMGAP
 40
0.09
  9
$LUNITS
 70
     2
  9
$LUPREC
 70
     4
  9
$SKETCHINC
 40
0.1
  9
$FILLETRAD
 40
0.0
  9
$AUNITS
 70
     0
  9
$AUPREC
 70
     0
  9
$MENU
  1
.
  9
$ELEVATION
 40
0.0
  9
$PELEVATION
 40
0.0
  9
$THICKNESS
 40
0.0
  9
$LIMCHECK
 70
     0
  9
$BLIPMODE
 70
     0
  9
$CHAMFERA
 40
0.0
  9
$CHAMFERB
 40
0.0
  9
$SKPOLY
 70
     0
  9
$TDCREATE
 40
2458060.468368056230247
  9
$TDUPDATE
 40
2459069.0312731480225921
  9
$TDINDWG
 40
0.4125880787
  9
$TDUSRTIMER
 40
0.4125880787
  9
$USRTIMER
 70
     1
  9
$ANGBASE
 50
0.0
  9
$ANGDIR
 70
     0
  9
$PDMODE
 70
     0
  9
$PDSIZE
 40
0.3125
  9
$PLINEWID
 40
0.0
  9
$COORDS
 70
     1
  9
$SPLFRAME
 70
     0
  9
$SPLINETYPE
 70
     6
  9
$SPLINESEGS
 70
     8
  9
$ATTDIA
 70
     1
  9
$ATTREQ
 70
     1
  9
$HANDLING
 70
     1
  9
$HANDSEED
  5
73CC
  9
$SURFTAB1
 70
     6
  9
$SURFTAB2
 70
     6
  9
$SURFTYPE
 70
     6
  9
$SURFU
 70
     6
  9
$SURFV
 70
     6
  9
$UCSNAME
  2

  9
$UCSORG
 10
0.0
 20
0.0
 30
0.0
  9
$UCSXDIR
 10
1.0
 20
0.0
 30
0.0
  9
$UCSYDIR
 10
0.0
 20
1.0
 30
0.0
  9
$PUCSNAME
  2

  9
$PUCSORG
 10
0.0
 20
0.0
 30
0.0
  9
$PUCSXDIR
 10
1.0
 20
0.0
 30
0.0
  9
$PUCSYDIR
 10
0.0
 20
1.0
 30
0.0
  9
$USERI1
 70
     0
  9
$USERI2
 70
     0
  9
$USERI3
 70
     0
  9
$USERI4
 70
     0
  9
$USERI5
 70
     0
  9
$USERR1
 40
0.0
  9
$USERR2
 40
0.0
  9
$USERR3
 40
0.0
  9
$USERR4
 40
0.0
  9
$USERR5
 40
0.0
  9
$WORLDVIEW
 70
     1
  9
$SHADEDGE
 70
     3
  9
$SHADEDIF
 70
    70
  9
$TILEMODE
 70
     1
  9
$MAXACTVP
 70
    64
  9
$PLIMCHECK
 70
     0
  9
$PEXTMIN
 10
1.0000000000000000E+20
 20
1.0000000000000000E+20
 30
1.0000000000000000E+20
  9
$PEXTMAX
 10
-1.0000000000000000E+20
 20
-1.0000000000000000E+20
 30
-1.0000000000000000E+20
  9
$PLIMMIN
 10
0.0
 20
0.0
  9
$PLIMMAX
 10
12.0
 20
9.0
  9
$UNITMODE
 70
     0
  9
$VISRETAIN
 70
     1
  9
$PLINEGEN
 70
     0
  9
$PSLTSCALE
 70
     1
  0
ENDSEC
  0
SECTION
  2
TABLES
  0
TABLE
  2
VPORT
 70
     1
  0
VPORT
  2
*ACTIVE
 70
     0
 10
0.0
 20
0.0
 11
1.0
 21
1.0
 12
122.3757527162646994
 22
-57.0854745020390766
 13
0.0
 23
0.0
 14
1.0
 24
1.0
 15
0.0
 25
0.0
 16
0.0
 26
0.0
 36
5.1040778033513332
 17
3792.35791015625
 27
120.1806564331053977
 37
0.0
 40
26.8517492843182808
 41
2.005224660397074
 42
50.0
 43
0.0
 44
0.0
 50
0.0
 51
0.0
 71
     0
 72
   100
 73
     1
 74
     1
 75
     0
 76
     0
 77
     0
 78
     0
  0
ENDTAB
  0
TABLE
  2
LTYPE
 70
     2
  0
LTYPE
  2
CONTINUOUS
 70
     0
  3
Solid line
 72
    65
 73
     0
 40
0.0
  0
LTYPE
  2
PHANTOM2
 70
     0
  3
___ _ _ ___ _ _ ___ _ _ ___ _ _
 72
    65
 73
     6
 40
1.25
 49
0.625
 49
-0.125
 49
0.125
 49
-0.125
 49
0.125
 49
-0.125
  0
ENDTAB
  0
TABLE
  2
LAYER
 70
     2
  0
LAYER
  2
0
 70
     0
 62
   255
  6
CONTINUOUS
  0
LAYER
  2
DEFPOINTS
 70
     0
 62
     7
  6
CONTINUOUS
  0
ENDTAB
  0
TABLE
  2
STYLE
 70
     1
  0
STYLE
  2
STANDARD
 70
     0
 40
0.0
 41
0.8
 50
0.0
 71
     0
 42
0.2
  3
txt
  4

  0
ENDTAB
  0
TABLE
  2
VIEW
 70
     0
  0
ENDTAB
  0
TABLE
  2
UCS
 70
     0
  0
ENDTAB
  0
TABLE
  2
APPID
 70
     9
  0
APPID
  2
ACAD
 70
     0
  0
APPID
  2
ACAD_MLEADERVER
 70
     0
  0
APPID
  2
ACAD_EXEMPT_FROM_CAD_STANDARDS
 70
     0
  0
APPID
  2
ACAD_NAV_VCDISPLAY
 70
     0
  0
APPID
  2
ACAECLAYERSTANDARD
 70
     0
  0
APPID
  2
ACCMTRANSPARENCY
 70
     0
  0
APPID
  2
ACAD_DSTYLE_DIMJAG
 70
     0
  0
APPID
  2
ACAD_DSTYLE_DIMTALN
 70
     0
  0
APPID
  2
ACDBATTR
 70
     0
  0
ENDTAB
  0
TABLE
  2
DIMSTYLE
 70
     1
  0
DIMSTYLE
  2
STANDARD
 70
     0
  3

  4

  5

  6

  7

 40
1.0
 41
0.1875
 42
0.0625
 43
0.38
 44
0.125
 45
0.0
 46
0.0
 47
0.01
 48
0.01
140
0.15625
141
0.09
142
0.0
143
25.3999999999999986
144
1.0
145
0.0
146
1.0
147
0.09
 71
     1
 72
     0
 73
     1
 74
     1
 75
     0
 76
     0
 77
     0
 78
     4
170
     0
171
     2
172
     0
173
     0
174
     0
175
     0
176
     0
177
     0
178
     0
  0
ENDTAB
  0
ENDSEC
  0
SECTION
  2
BLOCKS
  0
BLOCK
  8
0
  2
$MODEL_SPACE
 70
     0
 10
0.0
 20
0.0
 30
0.0
  3
$MODEL_SPACE
  1

  0
ENDBLK
  5
21
  8
0
  0
BLOCK
 67
     1
  8
0
  2
$PAPER_SPACE
 70
     0
 10
0.0
 20
0.0
 30
0.0
  3
$PAPER_SPACE
  1

  0
ENDBLK
  5
1D
 67
     1
  8
0
  0
BLOCK
  8
0
  2
_FILLED
 70
     0
 10
0.0
 20
0.0
 30
0.0
  3
_FILLED
  1

  0
SOLID
  5
69B4
  8
0
  6
BYBLOCK
 62
     0
 10
0.0
 20
0.0
 30
0.0
 11
-1.0
 21
0.1666666667
 31
0.0
 12
-1.0
 22
-0.1666666667
 32
0.0
 13
-1.0
 23
-0.1666666667
 33
0.0
  0
ENDBLK
  5
69B5
  8
0
  6
BYBLOCK
 62
     0
  0
BLOCK
  8
0
  2
A$CDFAF6206
 70
     0
 10
0.0
 20
0.0
 30
0.0
  3
A$CDFAF6206
  1

  0
LINE
  5
6A0E
  8
0
 10
7.4646650085734834
 20
10.9287685970688493
 30
0.0
 11
7.4646650085734896
 21
10.8905784766688498
 31
0.0
  0
ARC
  5
6A0F
  8
0
 10
7.7269027075262349
 20
10.8926811525838598
 30
0.0
 40
0.2622461286616791
 50
180.4593995232625048
 51
217.0214027758331099
  0
LINE
  5
6A10
  8
0
 10
9.767814609867095
 20
10.9287685970688493
 30
0.0
 11
9.767814609867095
 21
10.8905433757650094
 31
0.0
  0
ARC
  5
6A11
  8
0
 10
9.5068669568548287
 20
10.8922438613003703
 30
0.0
 40
0.2609531936261092
 50
322.8847083717149076
 51
359.6266329125650145
  0
LINE
  5
6A12
  8
0
 10
7.517522606271406
 20
10.7347792678688396
 30
0.0
 11
9.7149570120691777
 21
10.7347792678688396
 31
0.0
  0
LINE
  5
6A13
  8
0
 10
7.4646650085734834
 20
10.9287685970688493
 30
0.0
 11
9.7678146123202936
 21
10.9287685970688493
 31
0.0
  0
ARC
  5
6A14
  8
0
 10
4.0826771419203629
 20
8.527951346868889
 30
0.0
 40
4.0826771653999172
 50
13.3117747050523896
 51
32.7200330051415591
  0
ARC
  5
6A15
  8
0
 10
4.0826771460567306
 20
8.5279513475907933
 30
0.0
 40
4.0826771612084691
 50
359.6656501984817851
 51
13.3117747085593798
  0
ARC
  5
6A16
  8
0
 10
13.1498041284835097
 20
8.5279508235212234
 30
0.0
 40
4.0826788382043553
 50
147.2799733478981068
 51
166.6882233021349862
  0
ARC
  5
6A17
  8
0
 10
13.1498064934207992
 20
8.5279506557033251
 30
0.0
 40
4.0826811782395342
 50
166.688228652086309
 51
180.3343397625230011
  0
LINE
  5
6A18
  8
0
 10
8.1652847935202928
 20
8.504127000268852
 30
0.0
 11
9.0671948248202892
 21
8.5041270002687881
 31
0.0
  0
LINE
  5
6A19
  8
0
 10
8.1652847935202786
 20
8.5041270002667204
 30
0.0
 11
8.1652847935202928
 21
8.3607006934688481
 31
0.0
  0
ARC
  5
6A1A
  8
0
 10
5.6196779630382627
 20
8.3631022096452732
 30
0.0
 40
2.545607963272567
 50
342.0511668832173768
 51
359.945947387132378
  0
LINE
  5
6A1B
  8
0
 10
9.0671948248202892
 20
8.5041270002687881
 30
0.0
 11
9.0671948248202892
 21
8.2885990108688503
 31
0.0
  0
ARC
  5
6A1C
  8
0
 10
9.4521885297801163
 20
7.9614488056228501
 30
0.0
 40
0.5052201595850959
 50
139.6436242991769916
 51
174.6757930071850069
  0
ARC
  5
6A1D
  8
0
 10
9.9238413395551746
 20
8.1492417579399508
 30
0.0
 40
0.9848265662939324
 50
188.2263441834095943
 51
209.5593615864376034
  0
ARC
  5
6A1E
  8
0
 10
8.0788764238271256
 20
7.5665710856463297
 30
0.0
 40
0.0393715937169877
 50
162.1669117288323037
 51
227.2023190037006088
  0
ARC
  5
6A1F
  8
0
 10
8.7223682141740682
 20
8.2079667397440517
 30
0.0
 40
0.947895137885075
 50
225.0018610752970858
 51
261.4598823366255829
  0
ARC
  5
6A20
  8
0
 10
8.6645157662702701
 20
8.1695128573935332
 30
0.0
 40
0.9027466462812931
 50
264.7303071214498118
 51
281.8608311947915013
  0
ARC
  5
6A21
  8
0
 10
8.6645157662698935
 20
8.1695128573999671
 30
0.0
 40
0.9027466462876658
 50
299.1741886792128753
 51
299.1743179154552195
  0
ARC
  5
6A22
  8
0
 10
9.0843330931590316
 20
7.4150554710086141
 30
0.0
 40
0.0393703053609601
 50
251.9700352025496954
 51
252.4698971938937859
  0
ARC
  5
6A23
  8
0
 10
9.0843330931590316
 20
7.4150554710086141
 30
0.0
 40
0.0393703053609601
 50
297.2453716727138726
 51
6.8376113572703074
  0
LINE
  5
6A24
  8
0
 10
9.0671948248202892
 20
7.663402160468852
 30
0.0
 11
9.1234233799329516
 21
7.419742732911689
 31
0.0
  0
ARC
  5
6A25
  8
0
 10
8.8843741880892395
 20
9.8961379890094676
 30
0.0
 40
2.5255097382132701
 50
263.792800240752797
 51
274.9514951129821156
  0
ARC
  5
6A26
  8
0
 10
8.8258167405968848
 20
9.2763025889666508
 30
0.0
 40
1.9029970832759311
 50
246.0108363320686067
 51
263.5276935074397215
  0
ARC
  5
6A27
  8
0
 10
8.607491361665744
 20
8.3225444804829642
 30
0.0
 40
1.064510137163637
 50
283.1717405874071005
 51
297.7022170607311864
  0
LINE
  5
6A28
  8
0
 10
9.0671948248202892
 20
8.2885990108688503
 30
0.0
 11
26.2014378595979593
 21
8.2885990108689942
 31
0.0
  0
LINE
  5
6A29
  8
0
 10
26.2014378595979913
 20
7.6634021604689053
 30
0.0
 11
9.0671948248202892
 21
7.6634021604688618
 31
0.0
  0
LINE
  5
6A2A
  8
0
 10
27.8039676758446994
 20
10.9287685970690802
 30
0.0
 11
27.8039676758446888
 21
10.8905784766690807
 31
0.0
  0
ARC
  5
6A2B
  8
0
 10
27.5417299768919399
 20
10.8926811525840801
 30
0.0
 40
0.2622461286616791
 50
322.9785972241680838
 51
359.5406004767386889
  0
LINE
  5
6A2C
  8
0
 10
25.5008180745510913
 20
10.9287685970690305
 30
0.0
 11
25.5008180745510913
 21
10.8905433757651799
 31
0.0
  0
ARC
  5
6A2D
  8
0
 10
25.7617657275633505
 20
10.8922438613005497
 30
0.0
 40
0.2609531936261092
 50
180.3733670874362929
 51
217.1152916282862861
  0
LINE
  5
6A2E
  8
0
 10
27.7511100781467803
 20
10.7347792678690706
 30
0.0
 11
25.5536756723490015
 21
10.7347792678690208
 31
0.0
  0
LINE
  5
6A2F
  8
0
 10
27.8039676758446888
 20
10.9287685970686006
 30
0.0
 11
25.5008180745510806
 21
10.9287685970686006
 31
0.0
  0
ARC
  5
6A30
  8
0
 10
31.1859555424978616
 20
8.5279513468691981
 30
0.0
 40
4.0826771653999172
 50
147.2799669948597057
 51
166.6882252949490066
  0
ARC
  5
6A31
  8
0
 10
31.185955538361501
 20
8.5279513475911024
 30
0.0
 40
4.0826771612084691
 50
166.6882252914419098
 51
180.3343498015194086
  0
ARC
  5
6A32
  8
0
 10
22.1188285559344706
 20
8.5279508235212251
 30
0.0
 40
4.0826788382046102
 50
13.3117766978667795
 51
32.7200266521023977
  0
ARC
  5
6A33
  8
0
 10
22.1188261909974315
 20
8.5279506557034264
 30
0.0
 40
4.0826811782395342
 50
359.665660237478221
 51
13.31177134791497
  0
LINE
  5
6A34
  8
0
 10
27.1033478908979397
 20
8.5041270002690652
 30
0.0
 11
26.2014378595979416
 21
8.5041270002689835
 31
0.0
  0
LINE
  5
6A35
  8
0
 10
27.1033478908979504
 20
8.5041270002669354
 30
0.0
 11
27.1033478908979397
 21
8.3607006934690649
 31
0.0
  0
ARC
  5
6A36
  8
0
 10
29.6489547213799689
 20
8.3631022096455467
 30
0.0
 40
2.545607963272567
 50
180.0540526128687873
 51
197.9488331167837032
  0
LINE
  5
6A37
  8
0
 10
26.2014378595979416
 20
8.5041270002689835
 30
0.0
 11
26.2014378595979487
 21
8.2885990108690457
 31
0.0
  0
ARC
  5
6A38
  8
0
 10
25.8164441546381305
 20
7.9614488056230366
 30
0.0
 40
0.5052201595850959
 50
5.324206992816312
 51
40.3563757008241879
  0
ARC
  5
6A39
  8
0
 10
25.3447913448601803
 20
8.149241757940846
 30
0.0
 40
0.9848265662968968
 50
330.4406384136033807
 51
351.7736558165743759
  0
ARC
  5
6A3A
  8
0
 10
27.1897562605911212
 20
7.5665710856465473
 30
0.0
 40
0.0393715937169877
 50
312.7976809963004143
 51
17.8330882711689185
  0
ARC
  5
6A3B
  8
0
 10
26.5462644702441715
 20
8.2079667397442542
 30
0.0
 40
0.947895137885075
 50
278.5401176633754972
 51
314.9981389247041079
  0
ARC
  5
6A3C
  8
0
 10
26.6041169181479695
 20
8.1695128573937392
 30
0.0
 40
0.9027466462812931
 50
258.139168805210204
 51
275.2696928785518935
  0
ARC
  5
6A3D
  8
0
 10
26.6041169181483497
 20
8.1695128574001732
 30
0.0
 40
0.9027466462876658
 50
240.8256820845460027
 51
240.8258113207880058
  0
ARC
  5
6A3E
  8
0
 10
26.1842995912592293
 20
7.4150554710088086
 30
0.0
 40
0.0393703053609601
 50
287.5301028061073794
 51
288.0299647974517825
  0
ARC
  5
6A3F
  8
0
 10
26.1842995912592293
 20
7.4150554710088086
 30
0.0
 40
0.0393703053609601
 50
173.1623886427310026
 51
242.7546283272870085
  0
LINE
  5
6A40
  8
0
 10
26.2014378595981192
 20
7.6634021604690448
 30
0.0
 11
26.1452093044853093
 21
7.4197427329118826
 31
0.0
  0
ARC
  5
6A41
  8
0
 10
26.384258496328961
 20
9.8961379890096666
 30
0.0
 40
2.5255097382132701
 50
265.0485048870193054
 51
276.2071997592482262
  0
ARC
  5
6A42
  8
0
 10
26.4428159438213299
 20
9.2763025889668516
 30
0.0
 40
1.9029970832759311
 50
276.4723064925619838
 51
293.9891636679327007
  0
ARC
  5
6A43
  8
0
 10
26.6611413227524885
 20
8.3225444804831703
 30
0.0
 40
1.064510137163637
 50
242.2977829392704052
 51
256.8282594125943774
  0
LINE
  5
6A44
  8
0
 62
     4
 10
17.9031473532159602
 20
10.9287685970686006
 30
0.0
 11
24.6329820359843588
 21
20.0952817181593808
 31
0.0
  0
LINE
  5
6A45
  8
0
 62
     4
 10
17.9031473532159602
 20
-0.0000000300842942
 30
0.0
 11
22.3963351323106608
 21
4.993614497796286
 31
0.0
  0
ENDBLK
  5
6A49
  8
0
  0
ENDSEC
  0
SECTION
  2
ENTITIES
  0
ATTDEF
  5
3930
  8
DEFPOINTS
 10
3905.2946238730301047
 20
65.6224835824191928
 30
0.0
 40
0.001
  1
K-72812T-4
  3

  2
MODELNUMBER
 70
     0
1001
ACDBATTR
1070
     0
1070
     1
  0
ATTDEF
  5
3931
  8
DEFPOINTS
 10
3905.2946238730301047
 20
65.6208169157525276
 30
0.0
 40
0.001
  1
MODULO
  3

  2
TRADENAME
 70
     0
1001
ACDBATTR
1070
     0
1070
     1
  0
ATTDEF
  5
3932
  8
DEFPOINTS
 10
3905.2946238730301047
 20
65.6191502490858625
 30
0.0
 40
0.001
  1
VALVE TRIM
  3

  2
PRODUCT
 70
     0
1001
ACDBATTR
1070
     0
1070
     1
  0
LINE
  5
72DF
  8
0
 10
3901.7513018110039411
 20
65.6208228392027024
 30
0.0
 11
3908.8379219934067805
 21
65.6208228392027024
 31
0.0
  0
LINE
  5
72E0
  8
0
 10
3908.8379219934067805
 20
65.6208228392027024
 30
0.0
 11
3908.8281530108379229
 21
65.3411103003026881
 31
0.0
  0
ARC
  5
72E1
  8
0
 10
3908.7101147240628052
 20
65.3452322881808243
 30
0.0
 40
0.118110236378147
 50
270.0000000851480877
 51
357.9999999650844984
  0
ARC
  5
72E2
  8
0
 10
3908.663865669606821
 20
65.128696855217413
 30
0.0
 40
0.098425196585275
 50
89.9999998651908868
 51
141.9321667499175987
  0
ARC
  5
72E3
  8
0
 10
3908.6638656698391969
 20
65.128696855002687
 30
0.0
 40
0.0984251968999702
 50
141.9321667346198979
 51
174.7840908006463962
  0
ARC
  5
72E4
  8
0
 10
3908.4482268676729291
 20
65.1483818944520578
 30
0.0
 40
0.1181102362805954
 50
312.3920457220605158
 51
354.784091360364414
  0
ARC
  5
72E5
  8
0
 10
3908.448226867341873
 20
65.1483818950417799
 30
0.0
 40
0.1181102369390921
 50
270.0000002027347819
 51
312.3920456476574827
  0
LINE
  5
72E6
  8
0
 10
3908.4482268677388674
 20
65.030271658202679
 30
0.0
 11
3902.1410006548171623
 21
65.0302716581026914
 31
0.0
  0
LINE
  5
72E7
  8
0
 10
3901.7513018110039411
 20
65.6208228392027024
 30
0.0
 11
3901.7610743918389744
 21
65.3411103003026881
 31
0.0
  0
ARC
  5
72E8
  8
0
 10
3901.8791126786550194
 20
65.3452322875867537
 30
0.0
 40
0.1181102363624626
 50
181.999999747406406
 51
270.0000265319122832
  0
LINE
  5
72E9
  8
0
 10
3901.879112733347938
 20
65.2271220513243009
 30
0.0
 11
3908.7101147242387924
 21
65.2271220518026951
 31
0.0
  0
ARC
  5
72EA
  8
0
 10
3901.9253617328340624
 20
65.1286968542515297
 30
0.0
 40
0.0984251970806122
 50
38.0678529073167766
 51
89.9999999584942145
  0
ARC
  5
72EB
  8
0
 10
3901.9253617343770202
 20
65.1286968552672931
 30
0.0
 40
0.0984251952394869
 50
5.2159084615007032
 51
38.0678529956393277
  0
ARC
  5
72EC
  8
0
 10
3902.1410005352718144
 20
65.1483818940588719
 30
0.0
 40
0.1181102365106005
 50
185.2159084379264016
 51
227.60795426675719
  0
ARC
  5
72ED
  8
0
 10
3902.1410005354150599
 20
65.1483818945081623
 30
0.0
 40
0.1181102369395396
 50
227.6079543620832908
 51
270.0000579115330765
  0
ARC
  5
72EE
  8
0
 10
3904.4480960485288961
 20
64.2820930388492542
 30
0.0
 40
0.0195380131555236
 50
179.568552795683587
 51
270.1805524950182189
  0
ARC
  5
72EF
  8
0
 10
3904.4390382829769806
 20
64.2048364689263735
 30
0.0
 40
0.0104939152640543
 50
93.4805133199134843
 51
177.0167334651735871
  0
ARC
  5
72F0
  8
0
 10
3904.6331966857151201
 20
64.2074362280949344
 30
0.0
 40
0.007874804530778
 50
89.9392737370591533
 51
179.9942927788216878
  0
ARC
  5
72F1
  8
0
 10
3904.6646929206831373
 20
62.693496580780959
 30
0.0
 40
0.0393710394701173
 50
180.0012980757416017
 51
260.7025759923678834
  0
ARC
  5
72F2
  8
0
 10
3904.724462348220186
 20
62.5847262792694821
 30
0.0
 40
0.0590431586905746
 50
6.8481953526301753
 51
81.8071984875155067
  0
ARC
  5
72F3
  8
0
 10
3904.8217106081251586
 20
62.596005801411053
 30
0.0
 40
0.0388582757307158
 50
186.2631799530134913
 51
263.6295856874696142
  0
ARC
  5
72F4
  8
0
 10
3904.5274102697730996
 20
62.5027126132050981
 30
0.0
 40
0.059055107983435
 50
0.4999902018898047
 51
90.0000097661043554
  0
ARC
  5
72F5
  8
0
 10
3904.6261389977162253
 20
62.4833385541329775
 30
0.0
 40
0.0396812674219233
 50
180.9451549243580075
 51
269.818912830299098
  0
ARC
  5
72F6
  8
0
 10
3904.6548498980369004
 20
62.4338149653733794
 30
0.0
 40
0.0098425195292835
 50
89.9999995883554078
 51
180.0000009937432992
  0
ARC
  5
72F7
  8
0
 10
3904.9805129316277998
 20
62.4080271749731068
 30
0.0
 40
0.1324710376918712
 50
45.9722718170967468
 51
85.5774003150279441
  0
ARC
  5
72F8
  8
0
 10
3904.9770813183431528
 20
62.4059619725829791
 30
0.0
 40
0.1363448245357287
 50
16.0627260954966005
 51
45.5385878480204127
  0
ARC
  5
72F9
  8
0
 10
3904.974491217600189
 20
62.4081771176656375
 30
0.0
 40
0.1382501813297405
 50
341.7486801247297876
 51
14.8834420237808107
  0
ARC
  5
72FA
  8
0
 10
3904.9754866185958235
 20
62.4111584854423711
 30
0.0
 40
0.1382743067239605
 50
315.1482448492470212
 51
340.4461722143444717
  0
ARC
  5
72FB
  8
0
 10
3904.6843774572080292
 20
62.3649173274026793
 30
0.0
 40
0.0393700786999984
 50
180.0
 51
270.0
  0
ARC
  5
72FC
  8
0
 10
3903.7089684437778487
 20
62.2481263733374419
 30
0.0
 40
0.9915194166792348
 50
353.2153295654599106
 51
4.4783887428659312
  0
ARC
  5
72FD
  8
0
 10
3904.8459255659799965
 20
62.1391121643790285
 30
0.0
 40
0.1525974764592653
 50
183.0510860640468138
 51
225.3214070019097903
  0
ARC
  5
72FE
  8
0
 10
3901.9163617502099441
 20
59.4201944850100006
 30
0.0
 40
3.8444043419580378
 50
38.8154573716146913
 51
42.7667837596876268
  0
ARC
  5
72FF
  8
0
 10
3904.6256283136790444
 20
61.6146587735847788
 30
0.0
 40
0.35809671456114
 50
346.7122015936042772
 51
36.9508008262087131
  0
ARC
  5
7300
  8
0
 10
3904.711301230322988
 20
61.5696145517258273
 30
0.0
 40
0.2654648732187205
 50
335.4345099323256818
 51
351.9311106586233109
  0
ARC
  5
7301
  8
0
 10
3905.139563921716217
 20
61.3554948528917805
 30
0.0
 40
0.2137041820347115
 50
150.9536011616175983
 51
201.039190147064005
  0
ARC
  5
7302
  8
0
 10
3904.901596020622037
 20
61.2694656340946509
 30
0.0
 40
0.0396192138389667
 50
319.7432906581535121
 51
13.5879443809327398
  0
ARC
  5
7303
  8
0
 10
3905.294613687518904
 20
60.9356272469573526
 30
0.0
 40
0.476046383411059
 50
139.6472725674333049
 51
179.999999789933895
  0
ARC
  5
7304
  8
0
 10
3905.2946136777068205
 20
60.9356272487026729
 30
0.0
 40
0.4760463736000001
 50
180.0
 51
270.0
  0
ARC
  5
7305
  8
0
 10
3905.2946136767900498
 20
62.0893267763728716
 30
0.0
 40
0.3149606289826752
 50
134.5870073768587929
 51
180.0000000309615871
  0
ARC
  5
7306
  8
0
 10
3905.2946136777068205
 20
62.0893267762026824
 30
0.0
 40
0.3149606299000016
 50
180.0
 51
270.0
  0
LINE
  5
7307
  8
0
 10
3904.6253223391067877
 20
65.0302716581420839
 30
0.0
 11
3904.6253223391067877
 21
64.2822401621026813
 31
0.0
  0
LINE
  5
7308
  8
0
 10
3904.6253223391067877
 20
64.2822401621026813
 30
0.0
 11
3904.6450073785072163
 21
64.262555122702679
 31
0.0
  0
LINE
  5
7309
  8
0
 10
3904.5170546226081569
 20
64.262555122702679
 30
0.0
 11
3904.5170546226081569
 21
64.2153110282026631
 31
0.0
  0
LINE
  5
730A
  8
0
 10
3904.7139050163082175
 20
64.262555122702679
 30
0.0
 11
3904.7139050163082175
 21
64.2153110282026631
 31
0.0
  0
LINE
  5
730B
  8
0
 10
3904.6253218812230443
 20
64.2074370125026235
 30
0.0
 11
3904.6253218812230443
 21
62.6934956888026989
 31
0.0
  0
LINE
  5
730C
  8
0
 10
3904.8173990583081832
 20
62.5573874621026889
 30
0.0
 11
3904.9907280778361383
 21
62.5401037687174721
 31
0.0
  0
LINE
  5
730D
  8
0
 10
3904.4285585893071584
 20
65.0302716581389575
 30
0.0
 11
3904.4285585893071584
 21
64.282240162109872
 31
0.0
  0
ARC
  5
730E
  8
0
 10
3906.1411313129779046
 20
64.2820928497700379
 30
0.0
 40
0.0195380084887546
 50
269.8194293046977918
 51
0.4320017824285925
  0
ARC
  5
730F
  8
0
 10
3906.1498490665221652
 20
64.20449944760405
 30
0.0
 40
0.0108556845941547
 50
4.6664849643894488
 51
84.8335154465380441
  0
ARC
  5
7310
  8
0
 10
3905.9560306461899017
 20
64.2074360564043047
 30
0.0
 40
0.0078748321254809
 50
0.0069563898490007
 51
90.0606306022765324
  0
ARC
  5
7311
  8
0
 10
3905.9245337116908559
 20
62.6934971179631191
 30
0.0
 40
0.0393717665920028
 50
279.2978003281684209
 51
359.997920213718487
  0
ARC
  5
7312
  8
0
 10
3906.1105518996168939
 20
62.6123232153458105
 30
0.0
 40
0.0506607756363265
 50
266.305524724597376
 51
351.5966157882194807
  0
ARC
  5
7313
  8
0
 10
3905.8647646410709058
 20
62.5847261553173766
 30
0.0
 40
0.0590431581418813
 50
98.1941057978315968
 51
173.1517923466275022
  0
ARC
  5
7314
  8
0
 10
3905.767516384146802
 20
62.596005698393391
 30
0.0
 40
0.0388582757307158
 50
276.3704018311485129
 51
353.7368075656110022
  0
ARC
  5
7315
  8
0
 10
3906.0619445226961943
 20
62.5024025392767797
 30
0.0
 40
0.0593653193830254
 50
90.123342521398925
 51
179.2033386949478029
  0
ARC
  5
7316
  8
0
 10
3905.9632159503798903
 20
62.4830279790315402
 30
0.0
 40
0.0393704941310214
 50
270.0005993311477255
 51
359.499400535493578
  0
ARC
  5
7317
  8
0
 10
3905.9343767771888452
 20
62.4338141458868066
 30
0.0
 40
0.0098431996531577
 50
0.0047691140860522
 51
89.9983481105520582
  0
ARC
  5
7318
  8
0
 10
3905.6087140196941618
 20
62.4080271065491274
 30
0.0
 40
0.1324710376918712
 50
94.4225872036035128
 51
134.0277157015426894
  0
ARC
  5
7319
  8
0
 10
3905.6121456325299732
 20
62.4059619034114235
 30
0.0
 40
0.1363448245357286
 50
134.4613996706023897
 51
163.9372614231261878
  0
ARC
  5
731A
  8
0
 10
3905.6147357337549693
 20
62.408177047929847
 30
0.0
 40
0.1382501813297405
 50
165.1165454948410911
 51
198.2513073939001913
  0
ARC
  5
731B
  8
0
 10
3905.6137403334078044
 20
62.4111584159234383
 30
0.0
 40
0.1382743067239604
 50
199.5538153042822103
 51
224.8517426693811103
  0
ARC
  5
731C
  8
0
 10
3905.9048494194148589
 20
62.3649178059949207
 30
0.0
 40
0.0393705572951473
 50
270.0006966384669909
 51
359.9993035070825158
  0
ARC
  5
731D
  8
0
 10
3906.8802106613870819
 20
62.2481274157971001
 30
0.0
 40
0.9914716429621607
 50
175.5214629942084912
 51
186.7850671743711075
  0
ARC
  5
731E
  8
0
 10
3905.7280709578230926
 20
62.1338687065151873
 30
0.0
 40
0.1676367189313081
 50
318.5417333062790135
 51
359.0159934891389071
  0
ARC
  5
731F
  8
0
 10
3906.8269855982148329
 20
60.9567333516885412
 30
0.0
 40
1.44358813552415
 50
132.3928176005973967
 51
142.780287405244394
  0
ARC
  5
7320
  8
0
 10
3905.9635984648161866
 20
61.6146586278523216
 30
0.0
 40
0.35809671456114
 50
143.0491866924238877
 51
193.287785925021808
  0
ARC
  5
7321
  8
0
 10
3905.8779255383587952
 20
61.5696144246564714
 30
0.0
 40
0.2654648732187205
 50
188.0688768600026037
 51
204.5654775862975043
  0
ARC
  5
7322
  8
0
 10
3905.4496628003221304
 20
61.3554948191156484
 30
0.0
 40
0.2137041820347114
 50
338.9607973715662865
 51
29.0463863570100997
  0
ARC
  5
7323
  8
0
 10
3905.6876306826738983
 20
61.2694655484793032
 30
0.0
 40
0.0396192138389667
 50
166.4120431376923079
 51
220.256696860478911
  0
ARC
  5
7324
  8
0
 10
3905.2946129430551991
 20
60.9356272469574094
 30
0.0
 40
0.476046383411059
 50
359.9999877286908827
 51
40.3527149512033319
  0
ARC
  5
7325
  8
0
 10
3905.2946129528659185
 20
60.9356272487027582
 30
0.0
 40
0.4760463736
 50
269.9999875186151144
 51
359.9999875186248914
  0
ARC
  5
7326
  8
0
 10
3905.2946106238669017
 20
62.0893250313870908
 30
0.0
 40
0.3149636837447066
 50
0.0003049222159082
 51
45.4128685650325821
  0
ARC
  5
7327
  8
0
 10
3905.2946128693611172
 20
62.0893275845508086
 30
0.0
 40
0.3149614382481835
 50
270.0000484285434936
 51
359.9998404691028213
  0
LINE
  5
7328
  8
0
 10
3905.9639051834478778
 20
65.0302715123428925
 30
0.0
 11
3905.9639050204959858
 21
64.2822400163035184
 31
0.0
  0
LINE
  5
7329
  8
0
 10
3905.9639050204959858
 20
64.2822400163035184
 30
0.0
 11
3905.9442199768068349
 21
64.2625549811917551
 31
0.0
  0
LINE
  5
732A
  8
0
 10
3906.0721727327068038
 20
64.2625549533183573
 30
0.0
 11
3906.0721727224158712
 21
64.2153108588183841
 31
0.0
  0
LINE
  5
732B
  8
0
 10
3905.875322339007198
 20
64.2625549962004641
 30
0.0
 11
3905.8753223287158107
 21
64.2153109017004908
 31
0.0
  0
LINE
  5
732C
  8
0
 10
3905.9639054782569474
 20
64.2074370125027087
 30
0.0
 11
3905.9639054782569474
 21
62.6934956888026917
 31
0.0
  0
LINE
  5
732D
  8
0
 10
3905.771827925551861
 20
62.5573873581457818
 30
0.0
 11
3905.5984989022590526
 21
62.5401037025187279
 31
0.0
  0
LINE
  5
732E
  8
0
 10
3906.1606687660960233
 20
65.0302716581664129
 30
0.0
 11
3906.1606687661078467
 21
64.2822401621027097
 31
0.0
  0
LINE
  5
732F
  8
0
 10
3904.6583321571079068
 20
62.6546427594026909
 30
0.0
 11
3904.7328762687370727
 21
62.6431668519026914
 31
0.0
  0
LINE
  5
7330
  8
0
 10
3904.8173990583081832
 20
62.5573874621026889
 30
0.0
 11
3905.771827925551861
 21
62.5573873581457391
 31
0.0
  0
LINE
  5
7331
  8
0
 10
3904.4819301996071772
 20
62.5617677212026919
 30
0.0
 11
3904.8033334633641971
 21
62.5617677211026901
 31
0.0
  0
LINE
  5
7332
  8
0
 10
3904.6260135826069018
 20
62.4436574849026726
 30
0.0
 11
3905.1081031534699832
 21
62.4436871617519387
 31
0.0
  0
LINE
  5
7333
  8
0
 10
3904.6843774572080292
 20
62.3255472487026907
 30
0.0
 11
3905.0840706876119839
 21
62.3255472487026907
 31
0.0
  0
LINE
  5
7334
  8
0
 10
3904.4481576173320718
 20
64.262555122702679
 30
0.0
 11
3906.1410697380069905
 21
64.2625549383097621
 31
0.0
  0
LINE
  5
7335
  8
0
 10
3904.6253223391067877
 20
64.2822401621026813
 30
0.0
 11
3905.9639050204959858
 21
64.2822398705043838
 31
0.0
  0
LINE
  5
7336
  8
0
 10
3904.4384012072068799
 20
64.2153110282026631
 30
0.0
 11
3906.1508266211071714
 21
64.2153110282026631
 31
0.0
  0
LINE
  5
7337
  8
0
 10
3905.856349390289779
 20
62.6431665358572332
 30
0.0
 11
3905.9308948479379069
 21
62.6546426207944691
 31
0.0
  0
LINE
  5
7338
  8
0
 10
3905.7858937208370662
 20
62.5617677211026901
 30
0.0
 11
3906.1072875176078014
 21
62.5617677211026901
 31
0.0
  0
LINE
  5
7339
  8
0
 10
3905.9632163622081862
 20
62.4436574849026726
 30
0.0
 11
3905.4811168316450676
 21
62.4436608701095892
 31
0.0
  0
LINE
  5
733A
  8
0
 10
3905.5051566685069702
 20
62.3255472487026907
 30
0.0
 11
3905.904849898107841
 21
62.3255472487026907
 31
0.0
  0
CIRCLE
  5
733B
  8
0
 10
3905.2946136777068205
 20
62.0893267762026824
 30
0.0
 40
0.1771653542999996
  0
CIRCLE
  5
733C
  8
0
 10
3905.2946136777068205
 20
60.9356272487026729
 30
0.0
 40
0.3015937681
  0
ARC
  5
733D
  8
0
 10
3904.9836067086648654
 20
60.3120869364949499
 30
0.0
 40
0.9675768266610592
 50
81.2568807091617344
 51
92.5755321682492252
  0
ARC
  5
733E
  8
0
 10
3905.2576032755400774
 20
62.8935798050434585
 30
0.0
 40
1.630108030950512
 50
265.5344261104517045
 51
271.3009702463945132
  0
ARC
  5
733F
  8
0
 10
3905.3394397412430408
 20
62.5428963161840201
 30
0.0
 40
1.2797896234356441
 50
267.9927406263811918
 51
276.6946072090365192
  0
ARC
  5
7340
  8
0
 10
3905.5946677587321574
 20
60.6746768471486178
 30
0.0
 40
0.6064967762178886
 50
84.8499127016647066
 51
100.0687482089531954
  0
LINE
  5
7341
  8
0
 10
3904.6583321571060878
 20
62.6546427594029112
 30
0.0
 11
3905.9308948479379069
 21
62.654642620794462
 31
0.0
  0
LINE
  5
7342
  8
0
 10
3906.1606687661078467
 20
64.205382628861571
 30
0.0
 11
3906.1606687661078467
 21
62.6049195756139198
 31
0.0
  0
ARC
  5
7343
  8
0
 10
3904.478672806261784
 20
62.6123207185962087
 30
0.0
 40
0.0506578341115827
 50
188.4021509268480088
 51
273.6867692478302843
  0
LINE
  5
7344
  8
0
 10
3904.4285585893071584
 20
64.2053826174026767
 30
0.0
 11
3904.4285586903729381
 21
62.6049185874417802
 31
0.0
  0
LINE
  5
7345
  8
0
 10
3906.0025849418079815
 20
62.503227949602703
 30
0.0
 11
3906.0025849418079815
 21
62.4826839992882199
 31
0.0
  0
LINE
  5
7346
  8
0
 10
3904.5864631291688056
 20
62.503227949602703
 30
0.0
 11
3904.5864631292088234
 21
62.4826839990387768
 31
0.0
  0
LINE
  5
7347
  8
0
 10
3904.6450073784071719
 20
62.4338149652026999
 30
0.0
 11
3904.6450073784071719
 21
62.3649173274027007
 31
0.0
  0
LINE
  5
7348
  8
0
 10
3905.9442199769077888
 20
62.4338149652026999
 30
0.0
 11
3905.9442199767081547
 21
62.3649173274027007
 31
0.0
  0
ENDSEC
  0
EOF
