  0
SECTION
  2
HEADER
  9
$ACADVER
  1
AC1009
  9
$INSBASE
 10
3919.1934654052379301
 20
65.7598680071443056
 30
0.0
  9
$EXTMIN
 10
3915.6501553140378746
 20
61.0438974486703927
 30
0.0
  9
$EXTMAX
 10
3922.7367754964411688
 20
69.3031750937452102
 30
0.0
  9
$LIMMIN
 10
0.0
 20
0.0
  9
$LIMMAX
 10
11.6929133858000007
 20
8.2677165353999982
  9
$ORTHOMODE
 70
     0
  9
$REGENMODE
 70
     1
  9
$FILLMODE
 70
     1
  9
$QTEXTMODE
 70
     0
  9
$MIRRTEXT
 70
     0
  9
$DRAGMODE
 70
     2
  9
$LTSCALE
 40
0.6431102362
  9
$OSMODE
 70
  4095
  9
$ATTMODE
 70
     1
  9
$TEXTSIZE
 40
0.2
  9
$TRACEWID
 40
0.05
  9
$TEXTSTYLE
  7
STANDARD
  9
$CLAYER
  8
0
  9
$CELTYPE
  6
BYLAYER
  9
$CECOLOR
 62
   256
  9
$DIMSCALE
 40
1.0
  9
$DIMASZ
 40
0.1875
  9
$DIMEXO
 40
0.0625
  9
$DIMDLI
 40
0.4443307087
  9
$DIMRND
 40
0.0
  9
$DIMDLE
 40
0.0
  9
$DIMEXE
 40
0.125
  9
$DIMTP
 40
0.01
  9
$DIMTM
 40
0.01
  9
$DIMTXT
 40
2.0
  9
$DIMCEN
 40
0.1052362205
  9
$DIMTSZ
 40
0.0
  9
$DIMTOL
 70
     1
  9
$DIMLIM
 70
     0
  9
$DIMTIH
 70
     1
  9
$DIMTOH
 70
     1
  9
$DIMSE1
 70
     0
  9
$DIMSE2
 70
     0
  9
$DIMTAD
 70
     0
  9
$DIMZIN
 70
     0
  9
$DIMBLK
  1

  9
$DIMASO
 70
     1
  9
$DIMSHO
 70
     1
  9
$DIMPOST
  1
\X
  9
$DIMAPOST
  1

  9
$DIMALT
 70
     1
  9
$DIMALTD
 70
     2
  9
$DIMALTF
 40
25.3999999999999986
  9
$DIMLFAC
 40
1.0
  9
$DIMTOFL
 70
     0
  9
$DIMTVP
 40
0.0
  9
$DIMTIX
 70
     0
  9
$DIMSOXD
 70
     0
  9
$DIMSAH
 70
     0
  9
$DIMBLK1
  1

  9
$DIMBLK2
  1

  9
$DIMSTYLE
  2
STANDARD
  9
$DIMCLRD
 70
     0
  9
$DIMCLRE
 70
     0
  9
$DIMCLRT
 70
     0
  9
$DIMTFAC
 40
1.0
  9
$DIMGAP
 40
0.09
  9
$LUNITS
 70
     2
  9
$LUPREC
 70
     4
  9
$SKETCHINC
 40
0.1
  9
$FILLETRAD
 40
0.0
  9
$AUNITS
 70
     0
  9
$AUPREC
 70
     0
  9
$MENU
  1
.
  9
$ELEVATION
 40
0.0
  9
$PELEVATION
 40
0.0
  9
$THICKNESS
 40
0.0
  9
$LIMCHECK
 70
     0
  9
$BLIPMODE
 70
     0
  9
$CHAMFERA
 40
0.0
  9
$CHAMFERB
 40
0.0
  9
$SKPOLY
 70
     0
  9
$TDCREATE
 40
2458060.468368056230247
  9
$TDUPDATE
 40
2459101.6260416670702398
  9
$TDINDWG
 40
0.4109329861
  9
$TDUSRTIMER
 40
0.4109329861
  9
$USRTIMER
 70
     1
  9
$ANGBASE
 50
0.0
  9
$ANGDIR
 70
     0
  9
$PDMODE
 70
     0
  9
$PDSIZE
 40
0.3125
  9
$PLINEWID
 40
0.0
  9
$COORDS
 70
     1
  9
$SPLFRAME
 70
     0
  9
$SPLINETYPE
 70
     6
  9
$SPLINESEGS
 70
     8
  9
$ATTDIA
 70
     1
  9
$ATTREQ
 70
     1
  9
$HANDLING
 70
     1
  9
$HANDSEED
  5
72F0
  9
$SURFTAB1
 70
     6
  9
$SURFTAB2
 70
     6
  9
$SURFTYPE
 70
     6
  9
$SURFU
 70
     6
  9
$SURFV
 70
     6
  9
$UCSNAME
  2

  9
$UCSORG
 10
0.0
 20
0.0
 30
0.0
  9
$UCSXDIR
 10
1.0
 20
0.0
 30
0.0
  9
$UCSYDIR
 10
0.0
 20
1.0
 30
0.0
  9
$PUCSNAME
  2

  9
$PUCSORG
 10
0.0
 20
0.0
 30
0.0
  9
$PUCSXDIR
 10
1.0
 20
0.0
 30
0.0
  9
$PUCSYDIR
 10
0.0
 20
1.0
 30
0.0
  9
$USERI1
 70
     0
  9
$USERI2
 70
     0
  9
$USERI3
 70
     0
  9
$USERI4
 70
     0
  9
$USERI5
 70
     0
  9
$USERR1
 40
0.0
  9
$USERR2
 40
0.0
  9
$USERR3
 40
0.0
  9
$USERR4
 40
0.0
  9
$USERR5
 40
0.0
  9
$WORLDVIEW
 70
     1
  9
$SHADEDGE
 70
     3
  9
$SHADEDIF
 70
    70
  9
$TILEMODE
 70
     1
  9
$MAXACTVP
 70
    64
  9
$PLIMCHECK
 70
     0
  9
$PEXTMIN
 10
1.0000000000000000E+20
 20
1.0000000000000000E+20
 30
1.0000000000000000E+20
  9
$PEXTMAX
 10
-1.0000000000000000E+20
 20
-1.0000000000000000E+20
 30
-1.0000000000000000E+20
  9
$PLIMMIN
 10
0.0
 20
0.0
  9
$PLIMMAX
 10
12.0
 20
9.0
  9
$UNITMODE
 70
     0
  9
$VISRETAIN
 70
     1
  9
$PLINEGEN
 70
     0
  9
$PSLTSCALE
 70
     1
  0
ENDSEC
  0
SECTION
  2
TABLES
  0
TABLE
  2
VPORT
 70
     1
  0
VPORT
  2
*ACTIVE
 70
     0
 10
0.0
 20
0.0
 11
1.0
 21
1.0
 12
166.3052414046036063
 22
-63.4918170453267905
 13
0.0
 23
0.0
 14
1.0
 24
1.0
 15
0.0
 25
0.0
 16
0.0
 26
0.0
 36
5.1040778033513332
 17
3792.35791015625
 27
120.1806564331053977
 37
0.0
 40
104.6554283580734932
 41
2.005224660397074
 42
50.0
 43
0.0
 44
0.0
 50
0.0
 51
0.0
 71
     0
 72
   100
 73
     1
 74
     1
 75
     0
 76
     0
 77
     0
 78
     0
  0
ENDTAB
  0
TABLE
  2
LTYPE
 70
     2
  0
LTYPE
  2
CONTINUOUS
 70
     0
  3
Solid line
 72
    65
 73
     0
 40
0.0
  0
LTYPE
  2
PHANTOM2
 70
     0
  3
___ _ _ ___ _ _ ___ _ _ ___ _ _
 72
    65
 73
     6
 40
1.25
 49
0.625
 49
-0.125
 49
0.125
 49
-0.125
 49
0.125
 49
-0.125
  0
ENDTAB
  0
TABLE
  2
LAYER
 70
     2
  0
LAYER
  2
0
 70
     0
 62
   255
  6
CONTINUOUS
  0
LAYER
  2
DEFPOINTS
 70
     0
 62
     7
  6
CONTINUOUS
  0
ENDTAB
  0
TABLE
  2
STYLE
 70
     1
  0
STYLE
  2
STANDARD
 70
     0
 40
0.0
 41
0.8
 50
0.0
 71
     0
 42
0.2
  3
txt
  4

  0
ENDTAB
  0
TABLE
  2
VIEW
 70
     0
  0
ENDTAB
  0
TABLE
  2
UCS
 70
     0
  0
ENDTAB
  0
TABLE
  2
APPID
 70
     9
  0
APPID
  2
ACAD
 70
     0
  0
APPID
  2
ACAD_MLEADERVER
 70
     0
  0
APPID
  2
ACAD_EXEMPT_FROM_CAD_STANDARDS
 70
     0
  0
APPID
  2
ACAD_NAV_VCDISPLAY
 70
     0
  0
APPID
  2
ACAECLAYERSTANDARD
 70
     0
  0
APPID
  2
ACCMTRANSPARENCY
 70
     0
  0
APPID
  2
ACAD_DSTYLE_DIMJAG
 70
     0
  0
APPID
  2
ACAD_DSTYLE_DIMTALN
 70
     0
  0
APPID
  2
ACDBATTR
 70
     0
  0
ENDTAB
  0
TABLE
  2
DIMSTYLE
 70
     1
  0
DIMSTYLE
  2
STANDARD
 70
     0
  3

  4

  5

  6

  7

 40
1.0
 41
0.1875
 42
0.0625
 43
0.38
 44
0.125
 45
0.0
 46
0.0
 47
0.01
 48
0.01
140
0.15625
141
0.09
142
0.0
143
25.3999999999999986
144
1.0
145
0.0
146
1.0
147
0.09
 71
     1
 72
     0
 73
     1
 74
     1
 75
     0
 76
     0
 77
     0
 78
     4
170
     0
171
     2
172
     0
173
     0
174
     0
175
     0
176
     0
177
     0
178
     0
  0
ENDTAB
  0
ENDSEC
  0
SECTION
  2
BLOCKS
  0
BLOCK
  8
0
  2
$MODEL_SPACE
 70
     0
 10
0.0
 20
0.0
 30
0.0
  3
$MODEL_SPACE
  1

  0
ENDBLK
  5
21
  8
0
  0
BLOCK
 67
     1
  8
0
  2
$PAPER_SPACE
 70
     0
 10
0.0
 20
0.0
 30
0.0
  3
$PAPER_SPACE
  1

  0
ENDBLK
  5
1D
 67
     1
  8
0
  0
BLOCK
  8
0
  2
_FILLED
 70
     0
 10
0.0
 20
0.0
 30
0.0
  3
_FILLED
  1

  0
SOLID
  5
69B4
  8
0
  6
BYBLOCK
 62
     0
 10
0.0
 20
0.0
 30
0.0
 11
-1.0
 21
0.1666666667
 31
0.0
 12
-1.0
 22
-0.1666666667
 32
0.0
 13
-1.0
 23
-0.1666666667
 33
0.0
  0
ENDBLK
  5
69B5
  8
0
  6
BYBLOCK
 62
     0
  0
BLOCK
  8
0
  2
A$CDFAF6206
 70
     0
 10
0.0
 20
0.0
 30
0.0
  3
A$CDFAF6206
  1

  0
LINE
  5
6A0E
  8
0
 10
7.4646650085734834
 20
10.9287685970688493
 30
0.0
 11
7.4646650085734896
 21
10.8905784766688498
 31
0.0
  0
ARC
  5
6A0F
  8
0
 10
7.7269027075262349
 20
10.8926811525838598
 30
0.0
 40
0.2622461286616791
 50
180.4593995232625048
 51
217.0214027758331099
  0
LINE
  5
6A10
  8
0
 10
9.767814609867095
 20
10.9287685970688493
 30
0.0
 11
9.767814609867095
 21
10.8905433757650094
 31
0.0
  0
ARC
  5
6A11
  8
0
 10
9.5068669568548287
 20
10.8922438613003703
 30
0.0
 40
0.2609531936261092
 50
322.8847083717149076
 51
359.6266329125650145
  0
LINE
  5
6A12
  8
0
 10
7.517522606271406
 20
10.7347792678688396
 30
0.0
 11
9.7149570120691777
 21
10.7347792678688396
 31
0.0
  0
LINE
  5
6A13
  8
0
 10
7.4646650085734834
 20
10.9287685970688493
 30
0.0
 11
9.7678146123202936
 21
10.9287685970688493
 31
0.0
  0
ARC
  5
6A14
  8
0
 10
4.0826771419203629
 20
8.527951346868889
 30
0.0
 40
4.0826771653999172
 50
13.3117747050523896
 51
32.7200330051415591
  0
ARC
  5
6A15
  8
0
 10
4.0826771460567306
 20
8.5279513475907933
 30
0.0
 40
4.0826771612084691
 50
359.6656501984817851
 51
13.3117747085593798
  0
ARC
  5
6A16
  8
0
 10
13.1498041284835097
 20
8.5279508235212234
 30
0.0
 40
4.0826788382043553
 50
147.2799733478981068
 51
166.6882233021349862
  0
ARC
  5
6A17
  8
0
 10
13.1498064934207992
 20
8.5279506557033251
 30
0.0
 40
4.0826811782395342
 50
166.688228652086309
 51
180.3343397625230011
  0
LINE
  5
6A18
  8
0
 10
8.1652847935202928
 20
8.504127000268852
 30
0.0
 11
9.0671948248202892
 21
8.5041270002687881
 31
0.0
  0
LINE
  5
6A19
  8
0
 10
8.1652847935202786
 20
8.5041270002667204
 30
0.0
 11
8.1652847935202928
 21
8.3607006934688481
 31
0.0
  0
ARC
  5
6A1A
  8
0
 10
5.6196779630382627
 20
8.3631022096452732
 30
0.0
 40
2.545607963272567
 50
342.0511668832173768
 51
359.945947387132378
  0
LINE
  5
6A1B
  8
0
 10
9.0671948248202892
 20
8.5041270002687881
 30
0.0
 11
9.0671948248202892
 21
8.2885990108688503
 31
0.0
  0
ARC
  5
6A1C
  8
0
 10
9.4521885297801163
 20
7.9614488056228501
 30
0.0
 40
0.5052201595850959
 50
139.6436242991769916
 51
174.6757930071850069
  0
ARC
  5
6A1D
  8
0
 10
9.9238413395551746
 20
8.1492417579399508
 30
0.0
 40
0.9848265662939324
 50
188.2263441834095943
 51
209.5593615864376034
  0
ARC
  5
6A1E
  8
0
 10
8.0788764238271256
 20
7.5665710856463297
 30
0.0
 40
0.0393715937169877
 50
162.1669117288323037
 51
227.2023190037006088
  0
ARC
  5
6A1F
  8
0
 10
8.7223682141740682
 20
8.2079667397440517
 30
0.0
 40
0.947895137885075
 50
225.0018610752970858
 51
261.4598823366255829
  0
ARC
  5
6A20
  8
0
 10
8.6645157662702701
 20
8.1695128573935332
 30
0.0
 40
0.9027466462812931
 50
264.7303071214498118
 51
281.8608311947915013
  0
ARC
  5
6A21
  8
0
 10
8.6645157662698935
 20
8.1695128573999671
 30
0.0
 40
0.9027466462876658
 50
299.1741886792128753
 51
299.1743179154552195
  0
ARC
  5
6A22
  8
0
 10
9.0843330931590316
 20
7.4150554710086141
 30
0.0
 40
0.0393703053609601
 50
251.9700352025496954
 51
252.4698971938937859
  0
ARC
  5
6A23
  8
0
 10
9.0843330931590316
 20
7.4150554710086141
 30
0.0
 40
0.0393703053609601
 50
297.2453716727138726
 51
6.8376113572703074
  0
LINE
  5
6A24
  8
0
 10
9.0671948248202892
 20
7.663402160468852
 30
0.0
 11
9.1234233799329516
 21
7.419742732911689
 31
0.0
  0
ARC
  5
6A25
  8
0
 10
8.8843741880892395
 20
9.8961379890094676
 30
0.0
 40
2.5255097382132701
 50
263.792800240752797
 51
274.9514951129821156
  0
ARC
  5
6A26
  8
0
 10
8.8258167405968848
 20
9.2763025889666508
 30
0.0
 40
1.9029970832759311
 50
246.0108363320686067
 51
263.5276935074397215
  0
ARC
  5
6A27
  8
0
 10
8.607491361665744
 20
8.3225444804829642
 30
0.0
 40
1.064510137163637
 50
283.1717405874071005
 51
297.7022170607311864
  0
LINE
  5
6A28
  8
0
 10
9.0671948248202892
 20
8.2885990108688503
 30
0.0
 11
26.2014378595979593
 21
8.2885990108689942
 31
0.0
  0
LINE
  5
6A29
  8
0
 10
26.2014378595979913
 20
7.6634021604689053
 30
0.0
 11
9.0671948248202892
 21
7.6634021604688618
 31
0.0
  0
LINE
  5
6A2A
  8
0
 10
27.8039676758446994
 20
10.9287685970690802
 30
0.0
 11
27.8039676758446888
 21
10.8905784766690807
 31
0.0
  0
ARC
  5
6A2B
  8
0
 10
27.5417299768919399
 20
10.8926811525840801
 30
0.0
 40
0.2622461286616791
 50
322.9785972241680838
 51
359.5406004767386889
  0
LINE
  5
6A2C
  8
0
 10
25.5008180745510913
 20
10.9287685970690305
 30
0.0
 11
25.5008180745510913
 21
10.8905433757651799
 31
0.0
  0
ARC
  5
6A2D
  8
0
 10
25.7617657275633505
 20
10.8922438613005497
 30
0.0
 40
0.2609531936261092
 50
180.3733670874362929
 51
217.1152916282862861
  0
LINE
  5
6A2E
  8
0
 10
27.7511100781467803
 20
10.7347792678690706
 30
0.0
 11
25.5536756723490015
 21
10.7347792678690208
 31
0.0
  0
LINE
  5
6A2F
  8
0
 10
27.8039676758446888
 20
10.9287685970686006
 30
0.0
 11
25.5008180745510806
 21
10.9287685970686006
 31
0.0
  0
ARC
  5
6A30
  8
0
 10
31.1859555424978616
 20
8.5279513468691981
 30
0.0
 40
4.0826771653999172
 50
147.2799669948597057
 51
166.6882252949490066
  0
ARC
  5
6A31
  8
0
 10
31.185955538361501
 20
8.5279513475911024
 30
0.0
 40
4.0826771612084691
 50
166.6882252914419098
 51
180.3343498015194086
  0
ARC
  5
6A32
  8
0
 10
22.1188285559344706
 20
8.5279508235212251
 30
0.0
 40
4.0826788382046102
 50
13.3117766978667795
 51
32.7200266521023977
  0
ARC
  5
6A33
  8
0
 10
22.1188261909974315
 20
8.5279506557034264
 30
0.0
 40
4.0826811782395342
 50
359.665660237478221
 51
13.31177134791497
  0
LINE
  5
6A34
  8
0
 10
27.1033478908979397
 20
8.5041270002690652
 30
0.0
 11
26.2014378595979416
 21
8.5041270002689835
 31
0.0
  0
LINE
  5
6A35
  8
0
 10
27.1033478908979504
 20
8.5041270002669354
 30
0.0
 11
27.1033478908979397
 21
8.3607006934690649
 31
0.0
  0
ARC
  5
6A36
  8
0
 10
29.6489547213799689
 20
8.3631022096455467
 30
0.0
 40
2.545607963272567
 50
180.0540526128687873
 51
197.9488331167837032
  0
LINE
  5
6A37
  8
0
 10
26.2014378595979416
 20
8.5041270002689835
 30
0.0
 11
26.2014378595979487
 21
8.2885990108690457
 31
0.0
  0
ARC
  5
6A38
  8
0
 10
25.8164441546381305
 20
7.9614488056230366
 30
0.0
 40
0.5052201595850959
 50
5.324206992816312
 51
40.3563757008241879
  0
ARC
  5
6A39
  8
0
 10
25.3447913448601803
 20
8.149241757940846
 30
0.0
 40
0.9848265662968968
 50
330.4406384136033807
 51
351.7736558165743759
  0
ARC
  5
6A3A
  8
0
 10
27.1897562605911212
 20
7.5665710856465473
 30
0.0
 40
0.0393715937169877
 50
312.7976809963004143
 51
17.8330882711689185
  0
ARC
  5
6A3B
  8
0
 10
26.5462644702441715
 20
8.2079667397442542
 30
0.0
 40
0.947895137885075
 50
278.5401176633754972
 51
314.9981389247041079
  0
ARC
  5
6A3C
  8
0
 10
26.6041169181479695
 20
8.1695128573937392
 30
0.0
 40
0.9027466462812931
 50
258.139168805210204
 51
275.2696928785518935
  0
ARC
  5
6A3D
  8
0
 10
26.6041169181483497
 20
8.1695128574001732
 30
0.0
 40
0.9027466462876658
 50
240.8256820845460027
 51
240.8258113207880058
  0
ARC
  5
6A3E
  8
0
 10
26.1842995912592293
 20
7.4150554710088086
 30
0.0
 40
0.0393703053609601
 50
287.5301028061073794
 51
288.0299647974517825
  0
ARC
  5
6A3F
  8
0
 10
26.1842995912592293
 20
7.4150554710088086
 30
0.0
 40
0.0393703053609601
 50
173.1623886427310026
 51
242.7546283272870085
  0
LINE
  5
6A40
  8
0
 10
26.2014378595981192
 20
7.6634021604690448
 30
0.0
 11
26.1452093044853093
 21
7.4197427329118826
 31
0.0
  0
ARC
  5
6A41
  8
0
 10
26.384258496328961
 20
9.8961379890096666
 30
0.0
 40
2.5255097382132701
 50
265.0485048870193054
 51
276.2071997592482262
  0
ARC
  5
6A42
  8
0
 10
26.4428159438213299
 20
9.2763025889668516
 30
0.0
 40
1.9029970832759311
 50
276.4723064925619838
 51
293.9891636679327007
  0
ARC
  5
6A43
  8
0
 10
26.6611413227524885
 20
8.3225444804831703
 30
0.0
 40
1.064510137163637
 50
242.2977829392704052
 51
256.8282594125943774
  0
LINE
  5
6A44
  8
0
 62
     4
 10
17.9031473532159602
 20
10.9287685970686006
 30
0.0
 11
24.6329820359843588
 21
20.0952817181593808
 31
0.0
  0
LINE
  5
6A45
  8
0
 62
     4
 10
17.9031473532159602
 20
-0.0000000300842942
 30
0.0
 11
22.3963351323106608
 21
4.993614497796286
 31
0.0
  0
ENDBLK
  5
6A49
  8
0
  0
ENDSEC
  0
SECTION
  2
ENTITIES
  0
ATTDEF
  5
3930
  8
DEFPOINTS
 10
3919.1939145258797907
 20
65.7612312419013136
 30
0.0
 40
0.001
  1
K-72811T-4
  3

  2
MODELNUMBER
 70
     0
1001
ACDBATTR
1070
     0
1070
     1
  0
ATTDEF
  5
3931
  8
DEFPOINTS
 10
3919.1939145258797907
 20
65.7595645752346485
 30
0.0
 40
0.001
  1
MODULO
  3

  2
TRADENAME
 70
     0
1001
ACDBATTR
1070
     0
1070
     1
  0
ATTDEF
  5
3932
  8
DEFPOINTS
 10
3919.1939145258797907
 20
65.7578979085679833
 30
0.0
 40
0.001
  1
VALVE TRIM
  3

  2
PRODUCT
 70
     0
1001
ACDBATTR
1070
     0
1070
     1
  0
ARC
  5
71BF
  8
0
 10
3919.1299055088597925
 20
64.9619727728450727
 30
0.0
 40
0.2426092679082734
 50
112.8925002112673042
 51
155.6354805715020007
  0
ARC
  5
71C0
  8
0
 10
3919.8732223544889166
 20
65.3790858604349268
 30
0.0
 40
1.0886924018885831
 50
209.8389431780643122
 51
214.3786980434643112
  0
ARC
  5
71C1
  8
0
 10
3918.8828487146179214
 20
64.7202244584956645
 30
0.0
 40
0.1018972557586635
 50
305.6776880198110007
 51
25.6572412497748203
  0
ARC
  5
71C2
  8
0
 10
3919.8019365731688595
 20
63.5023564841170725
 30
0.0
 40
1.423887518085291
 50
127.1382775503072935
 51
133.0414608555720122
  0
ARC
  5
71C3
  8
0
 10
3918.7429771869801698
 20
63.7474170363602326
 30
0.0
 40
0.2123927740593142
 50
10.4649176307571405
 51
54.4412675675508382
  0
ARC
  5
71C4
  8
0
 10
3918.6282730235529925
 20
63.7607821658259724
 30
0.0
 40
0.3245448688716257
 50
339.8590767360345808
 51
4.4555530191112691
  0
ARC
  5
71C5
  8
0
 10
3918.2303857575311667
 20
63.9361628959532524
 30
0.0
 40
0.758993518322118
 50
330.3307431214788039
 51
337.7712427086152047
  0
ARC
  5
71C6
  8
0
 10
3919.1335035162869644
 20
63.3822534930165133
 30
0.0
 40
0.3018538437842409
 50
143.8148879358168983
 51
186.2760722269684948
  0
ARC
  5
71C7
  8
0
 10
3919.4191477833451245
 20
63.4318837891627325
 30
0.0
 40
0.5914889012548133
 50
188.0302637672841115
 51
202.995550336037212
  0
ARC
  5
71C8
  8
0
 10
3917.1912161035638746
 20
62.5869594257265405
 30
0.0
 40
1.791871736765464
 50
350.1816431492724746
 51
20.0339390756484583
  0
ARC
  5
71C9
  8
0
 10
3908.8769437671380729
 20
64.7128244461342064
 30
0.0
 40
10.3690013931628293
 50
342.8306253820636016
 51
346.4384541221701852
  0
ARC
  5
71CA
  8
0
 10
3919.0978140203101248
 20
61.5783790501775883
 30
0.0
 40
0.3224488280097326
 50
166.8161170389024903
 51
180.6342830891940991
  0
ARC
  5
71CB
  8
0
 10
3918.8665806358981172
 20
61.5797155587865603
 30
0.0
 40
0.0913275553309986
 50
183.0793700176633934
 51
263.214790732906124
  0
ARC
  5
71CC
  8
0
 10
3918.8485457052911443
 20
61.4599155824889607
 30
0.0
 40
0.0300000001246544
 50
5.5741578431134062
 51
76.0253128857170992
  0
ARC
  5
71CD
  8
0
 10
3919.0164445348282243
 20
61.4480208917066406
 30
0.0
 40
0.1388327422347356
 50
173.876846796095009
 51
226.5186337868103124
  0
ARC
  5
71CE
  8
0
 10
3918.8112851210739791
 20
61.1381532519430166
 30
0.0
 40
0.236121953297941
 50
33.7595108265215487
 51
62.3365524076034916
  0
ARC
  5
71CF
  8
0
 10
3918.9608858421311197
 20
61.2406901037975686
 30
0.0
 40
0.0548074498362729
 50
305.737490055348303
 51
31.5505900853371983
  0
ARC
  5
71D0
  8
0
 10
3919.0337093052958153
 20
61.152340708581427
 30
0.0
 40
0.0599124259000145
 50
132.9369601351004064
 51
228.1643150324526061
  0
ARC
  5
71D1
  8
0
 10
3919.2669735621161635
 20
64.973371021920272
 30
0.0
 40
0.2282892041907371
 50
6.5158276797455121
 51
68.2940879681075899
  0
ARC
  5
71D2
  8
0
 10
3919.0687492489350916
 20
65.0282988841356229
 30
0.0
 40
0.4336301574863432
 50
333.8788817316761879
 51
346.9463129796665157
  0
ARC
  5
71D3
  8
0
 10
3918.5036864700600745
 20
65.3856572999600445
 30
0.0
 40
1.1006773432020971
 50
325.6336620542141986
 51
330.1240963231704768
  0
ARC
  5
71D4
  8
0
 10
3919.5040856173600332
 20
64.7202244612303303
 30
0.0
 40
0.1018972557586635
 50
154.3427592546580911
 51
234.3223124846304017
  0
ARC
  5
71D5
  8
0
 10
3918.5850041700241491
 20
63.5023644924807371
 30
0.0
 40
1.423877265463747
 50
46.9585087741190677
 51
52.8617335829285224
  0
ARC
  5
71D6
  8
0
 10
3919.6439571535629511
 20
63.7474170403263116
 30
0.0
 40
0.2123927740593142
 50
125.558732936882393
 51
169.5350828736746962
  0
ARC
  5
71D7
  8
0
 10
3920.1565485820010508
 20
63.9361629047229272
 30
0.0
 40
0.7589935190338661
 50
202.2287577975754971
 51
209.6692588634554966
  0
ARC
  5
71D8
  8
0
 10
3921.195718247196055
 20
62.5869594433542105
 30
0.0
 40
1.791871736765464
 50
159.9660615243128063
 51
189.8183573551557117
  0
ARC
  5
71D9
  8
0
 10
3929.5099905649058201
 20
64.7128245369603263
 30
0.0
 40
10.3690013931628293
 50
193.5615463822529989
 51
197.1693751223646984
  0
ARC
  5
71DA
  8
0
 10
3919.2891203393292017
 20
61.5783790510196312
 30
0.0
 40
0.3224488280102404
 50
359.3657159364724976
 51
13.1838834655181891
  0
ARC
  5
71DB
  8
0
 10
3919.5203537233660427
 20
61.5797155623829298
 30
0.0
 40
0.0913275560873494
 50
276.7852099445553904
 51
356.9206248325638171
  0
ARC
  5
71DC
  8
0
 10
3919.5383886553909178
 20
61.4599155855256498
 30
0.0
 40
0.0300000001246266
 50
103.9746876186552953
 51
174.4258426613417896
  0
ARC
  5
71DD
  8
0
 10
3919.370489825957975
 20
61.4480208932651379
 30
0.0
 40
0.1388327422347356
 50
313.4813667176259742
 51
6.1231537083335841
  0
ARC
  5
71DE
  8
0
 10
3919.5756492424397948
 20
61.1381532553077207
 30
0.0
 40
0.236121953297941
 50
117.6634480968246947
 51
146.2404896778998875
  0
ARC
  5
71DF
  8
0
 10
3919.4260485204808901
 20
61.2406901058451894
 30
0.0
 40
0.0548074498362729
 50
148.449410419089304
 51
234.262510449088893
  0
ARC
  5
71E0
  8
0
 10
3919.3532250580910841
 20
61.1523407099865466
 30
0.0
 40
0.0599124259032445
 50
311.8356854865032233
 51
47.0630403679587488
  0
ARC
  5
71E1
  8
0
 10
3919.1705592365319717
 20
64.8819455290786919
 30
0.0
 40
0.3322078471049454
 50
93.5226308270903388
 51
113.9827164046030958
  0
ARC
  5
71E2
  8
0
 10
3919.1981272901261946
 20
63.6632789886259474
 30
0.0
 40
1.550989021866729
 50
88.8318276419275747
 51
91.7727270941595492
  0
ARC
  5
71E3
  8
0
 10
3919.2164259496607883
 20
64.8828801673125071
 30
0.0
 40
0.3313333950700457
 50
65.9596259677924763
 51
87.6957746740672945
  0
ARC
  5
71E4
  8
0
 10
3919.3170808526078872
 20
65.0279928917972114
 30
0.0
 40
0.4324853541234558
 50
193.0472382573090897
 51
206.1492174751861057
  0
ARC
  5
71E5
  8
0
 10
3919.7586613167918586
 20
63.7607821707779365
 30
0.0
 40
0.3245448687880633
 50
175.5444474647549953
 51
200.1409237692946874
  0
ARC
  5
71E6
  8
0
 10
3918.9658344747749652
 20
63.4325301418667635
 30
0.0
 40
0.5935383928981165
 50
337.0206295715794909
 51
351.9357328520511032
  0
LINE
  5
71E7
  8
0
 10
3918.8784038437652271
 20
61.4628296029003565
 30
0.0
 11
3919.5085305230390986
 21
61.4628295483753533
 31
0.0
  0
LINE
  5
71E8
  8
0
 10
3919.0151560155068182
 20
61.248345483558623
 30
0.0
 11
3919.3710584944888069
 21
61.248345483558623
 31
0.0
  0
ARC
  5
71E9
  8
0
 10
3919.1934671806570805
 20
61.3883762337353218
 30
0.0
 40
0.3444787850649245
 50
234.5654700492162021
 51
305.4345304570305757
  0
ARC
  5
71EA
  8
0
 10
3919.1934680921890504
 20
64.2441205784804623
 30
0.0
 40
0.6010683614231331
 50
294.2779079478697213
 51
66.5385075250317328
  0
ARC
  5
71EB
  8
0
 10
3919.1934673318510249
 20
64.2441201184303594
 30
0.0
 40
0.6496061485857694
 50
293.6410342135877727
 51
65.9609124250208225
  0
ARC
  5
71EC
  8
0
 10
3919.1935543677509486
 20
64.2440626424655221
 30
0.0
 40
0.7080630013260052
 50
293.7024474219903141
 51
66.1164761259391156
  0
ARC
  5
71ED
  8
0
 10
3919.1992492250269606
 20
64.2478090175589358
 30
0.0
 40
0.8602259121703482
 50
293.703263276511791
 51
71.132109212553317
  0
ARC
  5
71EE
  8
0
 10
3918.7554464719278258
 20
63.1412853618572711
 30
0.0
 40
0.8518834969543886
 50
25.1200852544081208
 51
29.476348795868951
  0
ARC
  5
71EF
  8
0
 10
3919.3015424343448103
 20
63.3812586499472417
 30
0.0
 40
0.2559784344953599
 50
17.9509802301339292
 51
28.3786452810607202
  0
ARC
  5
71F0
  8
0
 10
3919.2422230924130417
 20
63.3813276487166632
 30
0.0
 40
0.3129272470726463
 50
354.1193777668888174
 51
14.5895945424512394
  0
ARC
  5
71F1
  8
0
 10
3919.1807773898581218
 20
64.2337902377353061
 30
0.0
 40
0.9089709500052943
 50
294.2595506649122967
 51
72.3027210202315729
  0
ARC
  5
71F2
  8
0
 10
3919.245698940525017
 20
64.9741780077098241
 30
0.0
 40
0.2493555676843861
 50
349.8785560325683264
 51
5.7768568557690276
  0
ARC
  5
71F3
  8
0
 10
3919.1934662692920028
 20
64.2441205784804623
 30
0.0
 40
0.6010683614231332
 50
113.4615997750387066
 51
245.7220920521303071
  0
ARC
  5
71F4
  8
0
 10
3919.1934670296300283
 20
64.2441201184303594
 30
0.0
 40
0.6496061485857694
 50
114.0390875749792059
 51
246.3589657864121989
  0
ARC
  5
71F5
  8
0
 10
3919.1933799612870644
 20
64.2440626212403885
 30
0.0
 40
0.7080629688497205
 50
113.8834881291218011
 51
246.2975542913708011
  0
ARC
  5
71F6
  8
0
 10
3919.1880293461272231
 20
64.2480235988019359
 30
0.0
 40
0.860560793984167
 50
108.9264291170294996
 51
246.2814959642919064
  0
ARC
  5
71F7
  8
0
 10
3919.2057979409810287
 20
64.2335725469661867
 30
0.0
 40
0.9086249986532035
 50
107.649507492624096
 51
245.7554496929539027
  0
ARC
  5
71F8
  8
0
 10
3919.1211556793941782
 20
64.9754196711119647
 30
0.0
 40
0.2292541698104645
 50
157.7952350669891075
 51
174.0267642795822098
  0
ARC
  5
71F9
  8
0
 10
3919.1404507138081499
 20
64.9741481293361147
 30
0.0
 40
0.2485778768749144
 50
174.1980859053178108
 51
190.1464489871443959
  0
ARC
  5
71FA
  8
0
 10
3919.1934671807398445
 20
65.7598680071434529
 30
0.0
 40
3.5433070866000018
 50
0.0
 51
90.0
  0
ARC
  5
71FB
  8
0
 10
3919.201060929508003
 20
65.7569198738599283
 30
0.0
 40
3.535714566933037
 50
273.9197264757906964
 51
0.0477741092966586
  0
ARC
  5
71FC
  8
0
 10
3919.1934636298879013
 20
65.759868007142174
 30
0.0
 40
3.5433070866030412
 50
89.9999425822110908
 51
179.9999999999787974
  0
ARC
  5
71FD
  8
0
 10
3919.1858694304569326
 20
65.756919696483024
 30
0.0
 40
3.5357141164200212
 50
179.9522230102454046
 51
266.0803379077830755
  0
ARC
  5
71FE
  8
0
 10
3919.1957857756929116
 20
67.3946284324656233
 30
0.0
 40
0.696462958576693
 50
2.4814143555431349
 51
78.0590254579390717
  0
ARC
  5
71FF
  8
0
 10
3919.1934671807398445
 20
67.3937262748434449
 30
0.0
 40
0.698818897599999
 50
270.0
 51
2.5470819690049309
  0
ARC
  5
7200
  8
0
 10
3919.1957109614190813
 20
67.3944772148730493
 30
0.0
 40
0.5092861836508101
 50
359.9155176179236832
 51
74.6681269996618084
  0
ARC
  5
7201
  8
0
 10
3919.1934671807398445
 20
67.3937262748434449
 30
0.0
 40
0.5115294106999997
 50
270.0
 51
0.0
  0
ARC
  5
7202
  8
0
 10
3919.1957153201219626
 20
67.3945113109249263
 30
0.0
 40
0.667043661168461
 50
359.9325692346163237
 51
77.6493409875426295
  0
ARC
  5
7203
  8
0
 10
3919.1934671807398445
 20
67.3937262748433454
 30
0.0
 40
0.6692913385998152
 50
269.9999999999739089
 51
0.0000000000065138
  0
ARC
  5
7204
  8
0
 10
3919.1934671807398445
 20
67.3937262748434449
 30
0.0
 40
0.6988188975999946
 50
177.452918030993402
 51
270.0
  0
ARC
  5
7205
  8
0
 10
3919.1912408146649796
 20
67.3944711602171509
 30
0.0
 40
0.5093035893429613
 50
105.3384851901587069
 51
180.083798355720802
  0
ARC
  5
7206
  8
0
 10
3919.1934671807398445
 20
67.3937262748434449
 30
0.0
 40
0.5115294106999997
 50
180.0
 51
270.0
  0
ARC
  5
7207
  8
0
 10
3919.1912286364349711
 20
67.394507854468074
 30
0.0
 40
0.6670532521787746
 50
102.3544120454337047
 51
180.0671329072212075
  0
ARC
  5
7208
  8
0
 10
3919.1934671807398445
 20
67.3937262748433454
 30
0.0
 40
0.6692913385998152
 50
179.9999999999934914
 51
270.0000000000259774
  0
ARC
  5
7209
  8
0
 10
3919.191160225439944
 20
67.3946239035154662
 30
0.0
 40
0.6964747834085692
 50
101.9445703045390985
 51
177.5182548749237981
  0
ARC
  5
720A
  8
0
 10
3919.1934671815779438
 20
67.3937262753395174
 30
0.0
 40
0.3149606290623605
 50
359.999999909753285
 51
61.2701567796542932
  0
ARC
  5
720B
  8
0
 10
3919.1934671807180166
 20
67.3937262748551262
 30
0.0
 40
0.3149606299217094
 50
303.3711322831765074
 51
359.9999999978716119
  0
ARC
  5
720C
  8
0
 10
3919.1934671822100427
 20
68.6945092055418769
 30
0.0
 40
0.177165351301567
 50
358.5544646247900005
 51
90.0000004751408653
  0
LINE
  5
720D
  8
0
 10
3919.3705761518399413
 20
68.690039912743444
 30
0.0
 11
3919.3196375749839717
 21
67.6708871552434346
 31
0.0
  0
LINE
  5
720E
  8
0
 10
3919.0672968197400223
 20
67.6708871552434346
 30
0.0
 11
3919.0163582047111959
 21
68.6900400814434562
 31
0.0
  0
ARC
  5
720F
  8
0
 10
3919.1934668981648429
 20
68.6945094789876833
 30
0.0
 40
0.1771650778559832
 50
89.9999086142762934
 51
181.4455714927256054
  0
ARC
  5
7210
  8
0
 10
3919.1934671799031094
 20
67.3937262753395174
 30
0.0
 40
0.3149606290624044
 50
118.7283415406709963
 51
180.0000000902435033
  0
ARC
  5
7211
  8
0
 10
3919.1934671799222087
 20
67.3937262746431855
 30
0.0
 40
0.3149606290814475
 50
179.9999999635716961
 51
236.6292338848058137
  0
LINE
  5
7212
  8
0
 10
3919.0458637487399756
 20
67.6708871552434346
 30
0.0
 11
3919.3410698430411685
 21
67.6708871552434346
 31
0.0
  0
LINE
  5
7213
  8
0
 10
3919.3410698430411685
 20
67.6708871552434346
 30
0.0
 11
3919.3448625527507829
 21
67.6699139641433902
 31
0.0
  0
LINE
  5
7214
  8
0
 10
3919.0420790474558999
 20
67.6699179320083744
 30
0.0
 11
3919.0458637487399756
 21
67.6708871552434346
 31
0.0
  0
ARC
  5
7215
  8
0
 10
3919.0655059946789152
 20
67.1337211145097825
 30
0.0
 40
0.0196742948176352
 50
192.6980937077240981
 51
227.9846313955584947
  0
ARC
  5
7216
  8
0
 10
3919.0339108267498887
 20
67.098639476253922
 30
0.0
 40
0.0275377377052525
 50
312.6853472536229219
 51
47.9993541979132701
  0
ARC
  5
7217
  8
0
 10
3919.070817305647779
 20
67.0522833056467533
 30
0.0
 40
0.0318510849148066
 50
124.9289684994028988
 51
210.4460814209390094
  0
ARC
  5
7218
  8
0
 10
3919.1372350569740775
 20
67.1210918936160539
 30
0.0
 40
0.1266060030319754
 50
222.1417130148718115
 51
255.0243344076789924
  0
ARC
  5
7219
  8
0
 10
3919.2001360413819384
 20
67.3793926030274548
 30
0.0
 40
0.3924334710778298
 50
255.8978319213512975
 51
269.0262911041328948
  0
ARC
  5
721A
  8
0
 10
3919.0245512453889205
 20
67.1372704826258939
 30
0.0
 40
0.0078740516047549
 50
236.6424542559987003
 51
270.0502004406026799
  0
ARC
  5
721B
  8
0
 10
3919.321428366802138
 20
67.1337211145097825
 30
0.0
 40
0.0196742948176362
 50
312.0153686044448023
 51
347.3019062922821831
  0
ARC
  5
721C
  8
0
 10
3919.3530235347311645
 20
67.098639476253922
 30
0.0
 40
0.0275377377052525
 50
132.0006458020866944
 51
227.3146527463771065
  0
ARC
  5
721D
  8
0
 10
3919.3161170558328195
 20
67.0522833056467533
 30
0.0
 40
0.0318510849148066
 50
329.553918579061019
 51
55.071031500597293
  0
ARC
  5
721E
  8
0
 10
3919.2496993045069757
 20
67.1210918936160539
 30
0.0
 40
0.1266060030319754
 50
284.9756655923209792
 51
317.8582869851279042
  0
ARC
  5
721F
  8
0
 10
3919.1873816827451265
 20
67.3749840829216708
 30
0.0
 40
0.3880160071509218
 50
270.8986424291301205
 51
284.1772345453641719
  0
ARC
  5
7220
  8
0
 10
3919.3623831159538895
 20
67.1372704830099423
 30
0.0
 40
0.0078740519886738
 50
269.9498005639262033
 51
303.3721874388348283
  0
LINE
  5
7221
  8
0
 10
3919.0245581443400624
 20
67.1293964340434428
 30
0.0
 11
3919.3623762171400813
 21
67.1293964340434428
 31
0.0
  0
ARC
  5
7222
  8
0
 10
3919.1934834303219759
 20
64.2347049795640288
 30
0.0
 40
0.4765596819418926
 50
139.6873875589373881
 51
177.382898279493304
  0
ARC
  5
7223
  8
0
 10
3919.1783194028721482
 20
64.259615180887721
 30
0.0
 40
0.4609093594481544
 50
180.3915722002604127
 51
227.4254190775903055
  0
ARC
  5
7224
  8
0
 10
3919.1934513849309951
 20
64.2347050763555103
 30
0.0
 40
0.4765592242235685
 50
2.6170925866904202
 51
40.3126438700333622
  0
ARC
  5
7225
  8
0
 10
3919.2086150626901144
 20
64.2596151584796331
 30
0.0
 40
0.4609092552165915
 50
312.5745714653984919
 51
359.6084304968080119
  0
ARC
  5
7226
  8
0
 10
3919.1934671807398445
 20
65.7598680071434529
 30
0.0
 40
3.2712343311999978
 50
90.0
 51
180.0068872145855892
  0
ARC
  5
7227
  8
0
 10
3919.1934671807398445
 20
65.7598680071434529
 30
0.0
 40
3.2712343312000001
 50
359.9995412493768754
 51
89.999999087211549
  0
ARC
  5
7228
  8
0
 10
3919.1933459422170927
 20
65.7598201188801852
 30
0.0
 40
3.2711130872715599
 50
180.0060486742214891
 51
266.2737589220637915
  0
ARC
  5
7229
  8
0
 10
3919.1935884046311003
 20
65.7598201364504291
 30
0.0
 40
3.27111310727551
 50
273.7262411414886856
 51
0.0003797202495844
  0
ENDSEC
  0
EOF
